  0
SECTION
  2
HEADER
  9
$ACADVER
  1
AC1012
  9
$INSBASE
 10
0.0
 20
0.0
  9
$VIEWCTR
 10
7.531722
 20
4.5
  9
$VIEWSIZE
 40
9.0
  9
$SNAPMODE
 70
     0
  9
$SNAPUNIT
 10
1.0
 20
1.0
  9
$SNAPBASE
 10
0.0
 20
0.0
  9
$SNAPANG
 50
0.0
  9
$SNAPSTYLE
 70
     0
  9
$SNAPISOPAIR
 70
     0
  9
$GRIDMODE
 70
     0
  9
$GRIDUNIT
 10
0.0
 20
0.0
  9
$ORTHOMODE
 70
     0
  9
$REGENMODE
 70
     1
  9
$FILLMODE
 70
     1
  9
$QTEXTMODE
 70
     0
  9
$DRAGMODE
 70
     2
  9
$LTSCALE
 40
1.0
  9
$OSMODE
 70
     0
  9
$ATTMODE
 70
     1
  9
$TEXTSIZE
 40
0.2
  9
$TRACEWID
 40
0.05
  9
$TEXTSTYLE
  7
STANDARD
  9
$CELTYPE
  6
BYLAYER
  9
$CECOLOR
 62
   256
  9
$DIMSCALE
 40
1.0
  9
$DIMASZ
 40
0.18
  9
$DIMEXO
 40
0.0625
  9
$DIMDLI
 40
0.38
  9
$DIMRND
 40
0.0
  9
$DIMDLE
 40
0.0
  9
$DIMEXE
 40
0.18
  9
$DIMTP
 40
0.0
  9
$DIMTM
 40
0.0
  9
$DIMTXT
 40
0.18
  9
$DIMCEN
 40
0.09
  9
$DIMTSZ
 40
0.0
  9
$DIMTOL
 70
     0
  9
$DIMLIM
 70
     0
  9
$DIMTIH
 70
     1
  9
$DIMTOH
 70
     1
  9
$DIMSE1
 70
     0
  9
$DIMSE2
 70
     0
  9
$DIMTAD
 70
     0
  9
$DIMZIN
 70
     0
  9
$DIMBLK
  1

  9
$LUNITS
 70
     2
  9
$LUPREC
 70
     4
  9
$AXISMODE
 70
     0
  9
$AXISUNIT
 10
0.0
 20
0.0
  9
$SKETCHINC
 40
0.1
  9
$FILLETRAD
 40
0.0
  9
$AUNITS
 70
     0
  9
$AUPREC
 70
     0
  9
$MENU
  1
ACAD
  9
$ELEVATION
 40
0.0
  9
$THICKNESS
 40
0.0
  9
$VIEWDIR
 10
0.0
 20
0.0
 30
1.0
  9
$LIMCHECK
 70
     0
  9
$BLIPMODE
 70
     1
  9
$CHAMFERA
 40
0.0
  9
$CHAMFERB
 40
0.0
  9
$FASTZOOM
 70
     1
  9
$SKPOLY
 70
     0
  9
$TDCREATE
 40
0000000.0000000000
  9
$TDUPDATE
 40
0000000.0000000000
  9
$TDINDWG
 40
0.0000000000
  9
$TDUSRTIMER
 40
0.0000000000
  9
$USRTIMER
 70
     1
  9
$ANGBASE
 50
0.0
  9
$ANGDIR
 70
     0
  9
$PDMODE
 70
     0
  9
$PDSIZE
 40
0.0
  9
$PLINEWID
 40
0.0
  9
$COORDS
 70
     0
  9
$USERI1
 70
     0
  9
$USERI2
 70
     0
  9
$USERI3
 70
     0
  9
$USERI4
 70
     0
  9
$USERI5
 70
     0
  9
$USERR1
 40
0.0
  9
$USERR2
 40
0.0
  9
$USERR3
 40
0.0
  9
$USERR4
 40
0.0
  9
$USERR5
 40
0.0
  9
$CLAYER
  8
M80
  9
$EXTMIN
 10
0.0
 20
0.0
  9
$EXTMAX
 10
420.0
 20
297.0
  9
$LIMMIN
 10
0.0
 20
0.0
  9
$LIMMAX
 10
420.0
 20
297.0
  9
$HANDSEED
  5
16B
  0
ENDSEC
  0
SECTION
  2
CLASSES
  0
ENDSEC
  0
SECTION
  2
TABLES
  0
TABLE
  2
VPORT
  5
8
100
AcDbSymbolTable
 70
     2
  0
VPORT
  5
14
100
AcDbSymbolTableRecord
100
AcDbViewportTableRecord
  2
*ACTIVE
 70
     0
 10
0.0
 20
0.0
 11
1.0
 21
1.0
 12
484.0
 22
297.0
 13
0.0
 23
0.0
 14
1.0
 24
1.0
 15
0.0
 25
0.0
 16
0.0
 26
0.0
 36
1.0
 17
0.0
 27
0.0
 37
0.0
 40
594.0
 41
2.0
 42
50.0
 43
0.0
 44
0.0
 50
0.0
 51
0.0
 71
     0
 72
   100
 73
     1
 74
     1
 75
     0
 76
     0
 77
     0
 78
     0
  0
ENDTAB
  0
TABLE
  2
LTYPE
  5
5
100
AcDbSymbolTable
 70
     5
  0
LTYPE
  5
15
100
AcDbSymbolTableRecord
100
AcDbLinetypeTableRecord
  2
BYBLOCK
 70
     0
  3

 72
    65
 73
     0
 40
0.0
  0
LTYPE
  5
16
100
AcDbSymbolTableRecord
100
AcDbLinetypeTableRecord
  2
BYLAYER
 70
     0
  3

 72
    65
 73
     0
 40
0.0
  0
LTYPE
  5
17
100
AcDbSymbolTableRecord
100
AcDbLinetypeTableRecord
  2
CONTINUOUS
 70
    64
  3
Solid line
 72
    65
 73
     0
 40
0.0
  0
LTYPE
  5
18
100
AcDbSymbolTableRecord
100
AcDbLinetypeTableRecord
  2
DASHED
 70
    64
  3
__ __ __ __ __ __ __ __ __ __ __ __ __ __ __ __
 72
    65
 73
     2
 40
0.75
 49
0.5
 74
     0
 49
-0.25
 74
     0
  0
LTYPE
  5
19
100
AcDbSymbolTableRecord
100
AcDbLinetypeTableRecord
  2
DASHDOT
 70
    64
  3
__ . __ . __ . __ . __ . __ . __ . __ . __ . __
 72
    65
 73
     4
 40
1.0
 49
0.5
 74
     0
 49
-0.25
 74
     0
 49
0.0
 74
     0
 49
-0.25
 74
     0
  0
LTYPE
  5
1A
100
AcDbSymbolTableRecord
100
AcDbLinetypeTableRecord
  2
DIVIDE
 70
    64
  3
____ . . ____ . . ____ . . ____ . . ____ . . __
 72
    65
 73
     6
 40
1.25
 49
0.5
 74
     0
 49
-0.25
 74
     0
 49
0.0
 74
     0
 49
-0.25
 74
     0
 49
0.0
 74
     0
 49
-0.25
 74
     0
  0
LTYPE
  5
1B
100
AcDbSymbolTableRecord
100
AcDbLinetypeTableRecord
  2
DOT
 70
    64
  3
. . . . . . . . . . . . . . . . . . . . . . . .
 72
    65
 73
     2
 40
0.25
 49
0.0
 74
     0
 49
-0.25
 74
     0
  0
ENDTAB
  0
TABLE
  2
LAYER
  5
2
100
AcDbSymbolTable
 70
   102
  0
LAYER
  5
F
100
AcDbSymbolTableRecord
100
AcDbLayerTableRecord
  2
0
 70
     0
 62
     7
  6
CONTINUOUS
  0
LAYER
  5
1C
100
AcDbSymbolTableRecord
100
AcDbLayerTableRecord
  2
DEFPOINTS
 70
     0
 62
     7
  6
CONTINUOUS
  0
LAYER
  5
1D
100
AcDbSymbolTableRecord
100
AcDbLayerTableRecord
  2
M0
 70
     0
 62
     3
  6
CONTINUOUS
  0
LAYER
  5
1E
100
AcDbSymbolTableRecord
100
AcDbLayerTableRecord
  2
DD0
 70
     0
 62
     4
  6
CONTINUOUS
  0
ENDTAB
  0
TABLE
  2
STYLE
  5
3
100
AcDbSymbolTable
 70
     2
  0
STYLE
  5
10
100
AcDbSymbolTableRecord
100
AcDbTextStyleTableRecord
  2
STANDARD
 70
     0
 40
0.0
 41
1.0
 50
0.0
 71
     0
 42
0.2
  3
txt
  4
BIGFONT
  0
ENDTAB
  0
TABLE
  2
VIEW
  5
6
100
AcDbSymbolTable
 70
     0
  0
ENDTAB
  0
TABLE
  2
UCS
  5
7
100
AcDbSymbolTable
 70
     0
  0
ENDTAB
  0
TABLE
  2
APPID
  5
9
100
AcDbSymbolTable
 70
     1
  0
APPID
  5
11
100
AcDbSymbolTableRecord
100
AcDbRegAppTableRecord
  2
ACAD
 70
     0
  0
ENDTAB
  0
TABLE
  2
DIMSTYLE
  5
A
100
AcDbSymbolTable
 70
     2
  0
DIMSTYLE
105
25
100
AcDbSymbolTableRecord
100
AcDbDimStyleTableRecord
  2
STANDARD
 70
     0
  3

  4

  5

  6
_OPEN
  7
_OPEN
 40
1.0
 41
3.0
 42
0.0
 43
8.0
 44
1.5
 45
0.0
 46
0.0
 47
0.0
 48
0.0
140
3.5
141
0.09
142
0.0
143
0.03937
144
1.0
145
0.0
146
1.0
147
1.0
 71
     0
 72
     0
 73
     0
 74
     0
 75
     0
 76
     0
 77
     3
 78
     8
170
     0
171
     2
172
     0
173
     1
174
     0
175
     0
176
     0
177
     0
178
     0
270
     2
271
     2
272
     4
273
     2
274
     2
340
10
275
     0
280
     0
281
     0
282
     0
283
     1
284
     0
285
     0
286
     0
287
     3
288
     0
  0
DIMSTYLE
105
26
100
AcDbSymbolTableRecord
100
AcDbDimStyleTableRecord
  2
LEADSTYL
 70
     0
  3

  4

  5

  6
_OPEN
  7
_OPEN
 40
1.0
 41
3.0
 42
0.0625
 43
0.38
 44
0.18
 45
0.0
 46
0.0
 47
0.0
 48
0.0
140
3.2
141
0.09
142
0.0
143
25.4
144
1.0
145
0.0
146
1.0
147
1.0
 71
     0
 72
     0
 73
     1
 74
     1
 75
     0
 76
     0
 77
     0
 78
     0
170
     0
171
     2
172
     0
173
     1
174
     0
175
     0
176
     0
177
     0
178
     0
270
     2
271
     4
272
     4
273
     2
274
     2
340
10
275
     0
280
     0
281
     0
282
     0
283
     1
284
     0
285
     0
286
     0
287
     3
288
     0
  0
ENDTAB
  0
TABLE
  2
BLOCK_RECORD
  5
1
100
AcDbSymbolTable
 70
     6
  0
BLOCK_RECORD
  5
1F
100
AcDbSymbolTableRecord
100
AcDbBlockTableRecord
  2
*MODEL_SPACE
  0
BLOCK_RECORD
  5
22
100
AcDbSymbolTableRecord
100
AcDbBlockTableRecord
  2
*PAPER_SPACE
  0
BLOCK_RECORD
  5
27
100
AcDbSymbolTableRecord
100
AcDbBlockTableRecord
  2
_NONE
  0
BLOCK_RECORD
  5
2B
100
AcDbSymbolTableRecord
100
AcDbBlockTableRecord
  2
_OPEN
  0
BLOCK_RECORD
  5
31
100
AcDbSymbolTableRecord
100
AcDbBlockTableRecord
  2
_CLOSED
  0
BLOCK_RECORD
  5
38
100
AcDbSymbolTableRecord
100
AcDbBlockTableRecord
  2
_ORIGIN
  0
BLOCK_RECORD
  5
3D
100
AcDbSymbolTableRecord
100
AcDbBlockTableRecord
  2
_DOT
  0
BLOCK_RECORD
  5
45
100
AcDbSymbolTableRecord
100
AcDbBlockTableRecord
  2
_OBLIQUE
  0
ENDTAB
  0
ENDSEC
  0
SECTION
  2
BLOCKS
  0
BLOCK
  5
20
100
AcDbEntity
  8
0
100
AcDbBlockBegin
  2
*MODEL_SPACE
 70
     0
 10
0.0
 20
0.0
 30
0.0
  3
*MODEL_SPACE
  1

  0
ENDBLK
  5
21
100
AcDbEntity
  8
0
100
AcDbBlockEnd
  0
BLOCK
  5
23
100
AcDbEntity
 67
     1
  8
0
100
AcDbBlockBegin
  2
*PAPER_SPACE
 70
     0
 10
0.0
 20
0.0
 30
0.0
  3
*PAPER_SPACE
  1

  0
ENDBLK
  5
24
100
AcDbEntity
 67
     1
  8
0
100
AcDbBlockEnd
  0
BLOCK
  5
28
100
AcDbEntity
  8
0
100
AcDbBlockBegin
  2
_NONE
 70
     0
 10
0.0
 20
0.0
  0
CIRCLE
  5
29
100
AcDbEntity
  8
0
 62
     0
100
AcDbCircle
 10
0.0
 20
0.0
 40
0.25
  0
ENDBLK
  5
2A
100
AcDbEntity
  8
0
100
AcDbBlockEnd
  0
BLOCK
  5
2C
100
AcDbEntity
  8
0
100
AcDbBlockBegin
  2
_OPEN
 70
     0
 10
0.0
 20
0.0
  0
LINE
  5
2D
100
AcDbEntity
  8
0
 62
     0
100
AcDbLine
 10
-0.965926
 20
0.258819
 11
0.0
 21
0.0
  0
LINE
  5
2E
100
AcDbEntity
  8
0
 62
     0
100
AcDbLine
 10
0.0
 20
0.0
 11
-0.965926
 21
-0.258819
  0
LINE
  5
2F
100
AcDbEntity
  8
0
 62
     0
100
AcDbLine
 10
0.0
 20
0.0
 11
-1.0
 21
0.0
  0
ENDBLK
  5
30
100
AcDbEntity
  8
0
100
AcDbBlockEnd
  0
BLOCK
  5
32
100
AcDbEntity
  8
0
100
AcDbBlockBegin
  2
_CLOSED
 70
     0
 10
0.0
 20
0.0
  0
LINE
  5
33
100
AcDbEntity
  8
0
 62
     0
100
AcDbLine
 10
-0.965926
 20
0.258819
 11
0.0
 21
0.0
  0
LINE
  5
34
100
AcDbEntity
  8
0
 62
     0
100
AcDbLine
 10
0.0
 20
0.0
 11
-0.965926
 21
-0.258819
  0
LINE
  5
35
100
AcDbEntity
  8
0
 62
     0
100
AcDbLine
 10
-0.965926
 20
0.258819
 11
-0.965926
 21
-0.258819
  0
LINE
  5
36
100
AcDbEntity
  8
0
 62
     0
100
AcDbLine
 10
0.0
 20
0.0
 11
-1.0
 21
0.0
  0
ENDBLK
  5
37
100
AcDbEntity
  8
0
100
AcDbBlockEnd
  0
BLOCK
  5
39
100
AcDbEntity
  8
0
100
AcDbBlockBegin
  2
_ORIGIN
 70
     0
 10
0.0
 20
0.0
  0
CIRCLE
  5
3A
100
AcDbEntity
  8
0
 62
     0
100
AcDbCircle
 10
0.0
 20
0.0
 40
0.5
  0
LINE
  5
3B
100
AcDbEntity
  8
0
 62
     0
100
AcDbLine
 10
0.0
 20
0.0
 11
-1.0
 21
0.0
  0
ENDBLK
  5
3C
100
AcDbEntity
  8
0
100
AcDbBlockEnd
  0
BLOCK
  5
3E
100
AcDbEntity
  8
0
100
AcDbBlockBegin
  2
_DOT
 70
     0
 10
0.0
 20
0.0
  0
POLYLINE
  5
3F
100
AcDbEntity
  8
0
 62
     0
100
AcDb2dPolyline
 66
     1
 70
     1
 40
0.5
 41
0.5
  0
VERTEX
  5
40
100
AcDbEntity
  8
0
 62
     0
100
AcDbVertex
100
AcDb2dVertex
 10
-0.25
 20
0.0
 42
1.0
  0
VERTEX
  5
41
100
AcDbEntity
  8
0
 62
     0
100
AcDbVertex
100
AcDb2dVertex
 10
0.25
 20
0.0
 42
1.0
  0
SEQEND
  5
42
100
AcDbEntity
  8
0
 62
     0
  0
LINE
  5
43
100
AcDbEntity
  8
0
 62
     0
100
AcDbLine
 10
-0.5
 20
0.0
 11
-1.0
 21
0.0
  0
ENDBLK
  5
44
100
AcDbEntity
  8
0
100
AcDbBlockEnd
  0
BLOCK
  5
46
100
AcDbEntity
  8
0
100
AcDbBlockBegin
  2
_OBLIQUE
 70
     0
 10
0.0
 20
0.0
  0
LINE
  5
47
100
AcDbEntity
  8
0
 62
     0
100
AcDbLine
 10
-0.353553
 20
-0.353553
 11
0.353553
 21
0.353553
  0
ENDBLK
  5
48
100
AcDbEntity
  8
0
100
AcDbBlockEnd
  0
ENDSEC
  0
SECTION
  2
ENTITIES
  0
LEADER
  5
49
100
AcDbEntity
  8
DD0
100
AcDbLeader
  3
LEADSTYL
 76
     2
 10
94.656197
 20
169.8358
 10
100.300644
 20
177.515961
 77
     4
  0
LEADER
  5
4A
100
AcDbEntity
  8
DD0
100
AcDbLeader
  3
LEADSTYL
 71
     0
 76
     2
 10
100.300644
 20
177.515945
 10
116.300644
 20
177.515945
340
4B
 77
     4
  0
TEXT
  5
4B
100
AcDbEntity
  8
DD0
100
AcDbText
 10
101.592311
 20
178.515945
 40
3.5
  1
５０Ｈｚ
 41
0.833333
  7
STANDARD
100
AcDbText
  0
LEADER
  5
4C
100
AcDbEntity
  8
DD0
100
AcDbLeader
  3
LEADSTYL
 71
     0
 76
     2
 10
93.642059
 20
195.589325
 10
109.642059
 20
195.589325
340
4D
 77
     4
  0
TEXT
  5
4D
100
AcDbEntity
  8
DD0
100
AcDbText
 10
94.933726
 20
196.589325
 40
3.5
  1
６０Ｈｚ
 41
0.833333
  7
STANDARD
100
AcDbText
  0
LEADER
  5
4E
100
AcDbEntity
  8
DD0
100
AcDbLeader
  3
LEADSTYL
 76
     2
 10
87.717705
 20
185.910019
 10
93.642067
 20
195.589325
 77
     4
  0
LEADER
  5
4F
100
AcDbEntity
  8
DD0
100
AcDbLeader
  3
LEADSTYL
 76
     3
 10
170.790756
 20
206.222275
 10
178.455536
 20
221.492294
 10
194.455536
 20
221.492294
340
50
 77
     4
  0
TEXT
  5
50
100
AcDbEntity
  8
DD0
100
AcDbText
 10
179.747203
 20
222.492294
 40
3.5
  1
５０Ｈｚ
 41
0.833333
  7
STANDARD
100
AcDbText
  0
LEADER
  5
51
100
AcDbEntity
  8
DD0
100
AcDbLeader
  3
LEADSTYL
 76
     3
 10
199.315582
 20
188.88855
 10
205.638229
 20
195.862411
 10
221.638229
 20
195.862411
340
52
 77
     4
  0
TEXT
  5
52
100
AcDbEntity
  8
DD0
100
AcDbText
 10
206.929896
 20
196.862411
 40
3.5
  1
６０Ｈｚ
 41
0.833333
  7
STANDARD
100
AcDbText
  0
LEADER
  5
53
100
AcDbEntity
  8
DD0
100
AcDbLeader
  3
LEADSTYL
 76
     3
 10
64.179497
 20
96.43219
 10
73.936539
 20
107.388947
 10
89.936539
 20
107.388947
340
54
 77
     4
  0
TEXT
  5
54
100
AcDbEntity
  8
DD0
100
AcDbText
 10
75.228205
 20
108.388947
 40
3.5
  1
５０Ｈｚ
 41
0.833333
  7
STANDARD
100
AcDbText
  0
LEADER
  5
55
100
AcDbEntity
  8
DD0
100
AcDbLeader
  3
LEADSTYL
 76
     3
 10
92.076851
 20
70.515488
 10
101.08078
 20
80.692551
 10
117.08078
 20
80.692551
340
56
 77
     4
  0
TEXT
  5
56
100
AcDbEntity
  8
DD0
100
AcDbText
 10
102.372447
 20
81.692551
 40
3.5
  1
６０Ｈｚ
 41
0.833333
  7
STANDARD
100
AcDbText
  0
LINE
  5
57
100
AcDbEntity
  8
M0
 62
     7
100
AcDbLine
 10
126.168423
 20
157.043508
 11
126.168423
 21
238.043508
  0
LINE
  5
58
100
AcDbEntity
  8
M0
 62
     7
100
AcDbLine
 10
126.168423
 20
238.043508
 11
45.168423
 21
238.043508
  0
LINE
  5
59
100
AcDbEntity
  8
M0
 62
     7
100
AcDbLine
 10
45.168423
 20
238.043508
 11
45.168423
 21
157.043508
  0
LINE
  5
5A
100
AcDbEntity
  8
M0
 62
     7
100
AcDbLine
 10
45.168423
 20
157.043508
 11
126.168423
 21
157.043508
  0
LINE
  5
5B
100
AcDbEntity
  8
M0
 62
     7
100
AcDbLine
 10
126.168423
 20
166.043508
 11
45.168423
 21
166.043508
  0
LINE
  5
5C
100
AcDbEntity
  8
M0
 62
     7
100
AcDbLine
 10
126.168423
 20
175.043508
 11
45.168423
 21
175.043508
  0
LINE
  5
5D
100
AcDbEntity
  8
M0
 62
     7
100
AcDbLine
 10
126.168423
 20
184.043508
 11
45.168423
 21
184.043508
  0
LINE
  5
5E
100
AcDbEntity
  8
M0
 62
     7
100
AcDbLine
 10
126.168423
 20
193.043508
 11
45.168423
 21
193.043508
  0
LINE
  5
5F
100
AcDbEntity
  8
M0
 62
     7
100
AcDbLine
 10
126.168423
 20
202.043508
 11
45.168423
 21
202.043508
  0
LINE
  5
60
100
AcDbEntity
  8
M0
 62
     7
100
AcDbLine
 10
126.168423
 20
211.043508
 11
45.168423
 21
211.043508
  0
LINE
  5
61
100
AcDbEntity
  8
M0
 62
     7
100
AcDbLine
 10
126.168423
 20
220.043508
 11
45.168423
 21
220.043508
  0
LINE
  5
62
100
AcDbEntity
  8
M0
 62
     7
100
AcDbLine
 10
126.168423
 20
229.043508
 11
45.168423
 21
229.043508
  0
LINE
  5
63
100
AcDbEntity
  8
M0
 62
     7
100
AcDbLine
 10
54.168423
 20
238.043508
 11
54.168423
 21
157.043508
  0
LINE
  5
64
100
AcDbEntity
  8
M0
 62
     7
100
AcDbLine
 10
63.168423
 20
238.043508
 11
63.168423
 21
157.043508
  0
LINE
  5
65
100
AcDbEntity
  8
M0
 62
     7
100
AcDbLine
 10
72.168423
 20
238.043508
 11
72.168423
 21
157.043508
  0
LINE
  5
66
100
AcDbEntity
  8
M0
 62
     7
100
AcDbLine
 10
81.168423
 20
238.043508
 11
81.168423
 21
220.043508
  0
LINE
  5
67
100
AcDbEntity
  8
M0
 62
     7
100
AcDbLine
 10
90.168423
 20
238.043508
 11
90.168423
 21
157.043508
  0
LINE
  5
68
100
AcDbEntity
  8
M0
 62
     7
100
AcDbLine
 10
99.168423
 20
238.043508
 11
99.168423
 21
202.043508
  0
LINE
  5
69
100
AcDbEntity
  8
M0
 62
     7
100
AcDbLine
 10
108.168423
 20
238.043508
 11
108.168423
 21
202.043508
  0
LINE
  5
6A
100
AcDbEntity
  8
M0
 62
     7
100
AcDbLine
 10
117.168423
 20
238.043508
 11
117.168423
 21
157.043508
  0
TEXT
  5
6B
100
AcDbEntity
  8
M0
 62
     7
100
AcDbText
 10
40.403752
 20
156.468412
 40
3.553875
  1
０
 41
0.777778
  7
STANDARD
100
AcDbText
  0
TEXT
  5
6C
100
AcDbEntity
  8
M0
 62
     7
100
AcDbText
 10
37.468354
 20
163.734579
 40
3.553875
  1
１０
 41
0.777778
  7
STANDARD
100
AcDbText
  0
TEXT
  5
6D
100
AcDbEntity
  8
M0
 62
     7
100
AcDbText
 10
37.468354
 20
173.52647
 40
3.553875
  1
２０
 41
0.777778
  7
STANDARD
100
AcDbText
  0
TEXT
  5
6E
100
AcDbEntity
  8
M0
 62
     7
100
AcDbText
 10
37.468354
 20
182.567854
 40
3.553875
  1
３０
 41
0.777778
  7
STANDARD
100
AcDbText
  0
TEXT
  5
6F
100
AcDbEntity
  8
M0
 62
     7
100
AcDbText
 10
37.468354
 20
191.003401
 40
3.553875
  1
４０
 41
0.777778
  7
STANDARD
100
AcDbText
  0
TEXT
  5
70
100
AcDbEntity
  8
M0
 62
     7
100
AcDbText
 10
37.468354
 20
199.519072
 40
3.553875
  1
５０
 41
0.777778
  7
STANDARD
100
AcDbText
  0
TEXT
  5
71
100
AcDbEntity
  8
M0
 62
     7
100
AcDbText
 10
37.468354
 20
208.185198
 40
3.553875
  1
６０
 41
0.777778
  7
STANDARD
100
AcDbText
  0
TEXT
  5
72
100
AcDbEntity
  8
M0
 62
     7
100
AcDbText
 10
37.468354
 20
217.185198
 40
3.553875
  1
７０
 41
0.777778
  7
STANDARD
100
AcDbText
  0
TEXT
  5
73
100
AcDbEntity
  8
M0
 62
     7
100
AcDbText
 10
37.468354
 20
226.185198
 40
3.553875
  1
８０
 41
0.777778
  7
STANDARD
100
AcDbText
  0
TEXT
  5
74
100
AcDbEntity
  8
M0
 62
     7
100
AcDbText
 10
37.468354
 20
235.185198
 40
3.553875
  1
９０
 41
0.777778
  7
STANDARD
100
AcDbText
  0
TEXT
  5
75
100
AcDbEntity
  8
M0
 62
     7
100
AcDbText
 10
43.319901
 20
152.140737
 40
3.553875
  1
０
 41
0.777778
  7
STANDARD
100
AcDbText
  0
TEXT
  5
76
100
AcDbEntity
  8
M0
 62
     7
100
AcDbText
 10
51.785539
 20
151.515253
 40
3.553875
  1
１０
 41
0.777778
  7
STANDARD
100
AcDbText
  0
TEXT
  5
77
100
AcDbEntity
  8
M0
 62
     7
100
AcDbText
 10
60.785542
 20
151.515253
 40
3.553875
  1
２０
 41
0.777778
  7
STANDARD
100
AcDbText
  0
TEXT
  5
78
100
AcDbEntity
  8
M0
 62
     7
100
AcDbText
 10
69.785542
 20
151.515253
 40
3.553875
  1
３０
 41
0.777778
  7
STANDARD
100
AcDbText
  0
TEXT
  5
79
100
AcDbEntity
  8
M0
 62
     7
100
AcDbText
 10
78.785541
 20
151.515253
 40
3.553875
  1
４０
 41
0.777778
  7
STANDARD
100
AcDbText
  0
TEXT
  5
7A
100
AcDbEntity
  8
M0
 62
     7
100
AcDbText
 10
87.785541
 20
151.515253
 40
3.553875
  1
５０
 41
0.777778
  7
STANDARD
100
AcDbText
  0
TEXT
  5
7B
100
AcDbEntity
  8
M0
 62
     7
100
AcDbText
 10
96.785541
 20
151.515253
 40
3.553875
  1
６０
 41
0.777778
  7
STANDARD
100
AcDbText
  0
TEXT
  5
7C
100
AcDbEntity
  8
M0
 62
     7
100
AcDbText
 10
105.785542
 20
151.515253
 40
3.553875
  1
７０
 41
0.777778
  7
STANDARD
100
AcDbText
  0
TEXT
  5
7D
100
AcDbEntity
  8
M0
 62
     7
100
AcDbText
 10
114.785541
 20
151.515253
 40
3.553875
  1
８０
 41
0.777778
  7
STANDARD
100
AcDbText
  0
TEXT
  5
7E
100
AcDbEntity
  8
M0
 62
     7
100
AcDbText
 10
123.785542
 20
151.515253
 40
3.553875
  1
９０
 41
0.777778
  7
STANDARD
100
AcDbText
  0
TEXT
  5
7F
100
AcDbEntity
  8
M0
 62
     7
100
AcDbText
 10
69.474492
 20
143.070543
 40
5.52825
  1
揚水量
 41
1.666667
  7
STANDARD
100
AcDbText
  0
TEXT
  5
80
100
AcDbEntity
  8
M0
 62
     7
100
AcDbText
 10
100.449368
 20
144.301802
 40
3.553875
  1
（Ｌ／分）
 41
0.777778
  7
STANDARD
100
AcDbText
  0
TEXT
  5
81
100
AcDbEntity
  8
M0
 62
     7
100
AcDbText
 10
25.611466
 20
204.865251
 40
5.52825
  1
全
 41
1.388889
  7
STANDARD
100
AcDbText
  0
TEXT
  5
82
100
AcDbEntity
  8
M0
 62
     7
100
AcDbText
 10
25.611466
 20
193.808751
 40
5.52825
  1
揚
 41
1.388889
  7
STANDARD
100
AcDbText
  0
TEXT
  5
83
100
AcDbEntity
  8
M0
 62
     7
100
AcDbText
 10
25.611466
 20
182.752251
 40
5.52825
  1
程
 41
1.388889
  7
STANDARD
100
AcDbText
  0
TEXT
  5
84
100
AcDbEntity
  8
M0
 62
     7
100
AcDbText
 10
24.760255
 20
173.765234
 40
3.553875
  1
（ｍ）
 41
0.777778
  7
STANDARD
100
AcDbText
  0
LINE
  5
85
100
AcDbEntity
  8
M0
 62
     7
100
AcDbLine
 10
81.168423
 20
220.043508
 11
81.168423
 21
157.043508
  0
LINE
  5
86
100
AcDbEntity
  8
M0
 62
     7
100
AcDbLine
 10
99.168423
 20
193.043508
 11
99.168423
 21
157.043508
  0
LINE
  5
87
100
AcDbEntity
  8
M0
 62
     7
100
AcDbLine
 10
108.168423
 20
193.043508
 11
108.168423
 21
184.043508
  0
LINE
  5
88
100
AcDbEntity
  8
M0
 62
     7
100
AcDbLine
 10
108.168423
 20
175.043508
 11
108.168423
 21
157.043508
  0
LINE
  5
89
100
AcDbEntity
  8
M0
 62
     7
100
AcDbLine
 10
230.892833
 20
157.043508
 11
230.892833
 21
238.043508
  0
LINE
  5
8A
100
AcDbEntity
  8
M0
 62
     7
100
AcDbLine
 10
230.892833
 20
238.043508
 11
149.892833
 21
238.043508
  0
LINE
  5
8B
100
AcDbEntity
  8
M0
 62
     7
100
AcDbLine
 10
149.892833
 20
238.043508
 11
149.892833
 21
157.043508
  0
LINE
  5
8C
100
AcDbEntity
  8
M0
 62
     7
100
AcDbLine
 10
149.892833
 20
157.043508
 11
230.892833
 21
157.043508
  0
LINE
  5
8D
100
AcDbEntity
  8
M0
 62
     7
100
AcDbLine
 10
230.892833
 20
166.043508
 11
149.892833
 21
166.043508
  0
LINE
  5
8E
100
AcDbEntity
  8
M0
 62
     7
100
AcDbLine
 10
230.892833
 20
175.043508
 11
149.892833
 21
175.043508
  0
LINE
  5
8F
100
AcDbEntity
  8
M0
 62
     7
100
AcDbLine
 10
230.892833
 20
184.043508
 11
149.892833
 21
184.043508
  0
LINE
  5
90
100
AcDbEntity
  8
M0
 62
     7
100
AcDbLine
 10
230.892833
 20
193.043508
 11
149.892833
 21
193.043508
  0
LINE
  5
91
100
AcDbEntity
  8
M0
 62
     7
100
AcDbLine
 10
230.892833
 20
202.043508
 11
149.892833
 21
202.043508
  0
LINE
  5
92
100
AcDbEntity
  8
M0
 62
     7
100
AcDbLine
 10
230.892833
 20
211.043508
 11
149.892833
 21
211.043508
  0
LINE
  5
93
100
AcDbEntity
  8
M0
 62
     7
100
AcDbLine
 10
230.892833
 20
220.043508
 11
149.892833
 21
220.043508
  0
LINE
  5
94
100
AcDbEntity
  8
M0
 62
     7
100
AcDbLine
 10
230.892833
 20
229.043508
 11
149.892833
 21
229.043508
  0
LINE
  5
95
100
AcDbEntity
  8
M0
 62
     7
100
AcDbLine
 10
158.892833
 20
238.043508
 11
158.892833
 21
157.043508
  0
LINE
  5
96
100
AcDbEntity
  8
M0
 62
     7
100
AcDbLine
 10
167.892833
 20
238.043508
 11
167.892833
 21
157.043508
  0
LINE
  5
97
100
AcDbEntity
  8
M0
 62
     7
100
AcDbLine
 10
176.892833
 20
238.043508
 11
176.892833
 21
157.043508
  0
LINE
  5
98
100
AcDbEntity
  8
M0
 62
     7
100
AcDbLine
 10
185.892833
 20
238.043508
 11
185.892833
 21
229.043508
  0
LINE
  5
99
100
AcDbEntity
  8
M0
 62
     7
100
AcDbLine
 10
194.892833
 20
238.043508
 11
194.892833
 21
157.043508
  0
LINE
  5
9A
100
AcDbEntity
  8
M0
 62
     7
100
AcDbLine
 10
203.892833
 20
238.043508
 11
203.892833
 21
157.043508
  0
LINE
  5
9B
100
AcDbEntity
  8
M0
 62
     7
100
AcDbLine
 10
212.892833
 20
238.043508
 11
212.892833
 21
202.043508
  0
LINE
  5
9C
100
AcDbEntity
  8
M0
 62
     7
100
AcDbLine
 10
221.892833
 20
238.043508
 11
221.892833
 21
157.043508
  0
TEXT
  5
9D
100
AcDbEntity
  8
M0
 62
     7
100
AcDbText
 10
145.128162
 20
156.468412
 40
3.553875
  1
０
 41
0.777778
  7
STANDARD
100
AcDbText
  0
TEXT
  5
9E
100
AcDbEntity
  8
M0
 62
     7
100
AcDbText
 10
142.192764
 20
163.734579
 40
3.553875
  1
１０
 41
0.777778
  7
STANDARD
100
AcDbText
  0
TEXT
  5
9F
100
AcDbEntity
  8
M0
 62
     7
100
AcDbText
 10
142.192764
 20
173.52647
 40
3.553875
  1
２０
 41
0.777778
  7
STANDARD
100
AcDbText
  0
TEXT
  5
A0
100
AcDbEntity
  8
M0
 62
     7
100
AcDbText
 10
142.192764
 20
182.567854
 40
3.553875
  1
３０
 41
0.777778
  7
STANDARD
100
AcDbText
  0
TEXT
  5
A1
100
AcDbEntity
  8
M0
 62
     7
100
AcDbText
 10
142.192764
 20
191.003401
 40
3.553875
  1
４０
 41
0.777778
  7
STANDARD
100
AcDbText
  0
TEXT
  5
A2
100
AcDbEntity
  8
M0
 62
     7
100
AcDbText
 10
142.192764
 20
199.519072
 40
3.553875
  1
５０
 41
0.777778
  7
STANDARD
100
AcDbText
  0
TEXT
  5
A3
100
AcDbEntity
  8
M0
 62
     7
100
AcDbText
 10
142.192764
 20
208.185198
 40
3.553875
  1
６０
 41
0.777778
  7
STANDARD
100
AcDbText
  0
TEXT
  5
A4
100
AcDbEntity
  8
M0
 62
     7
100
AcDbText
 10
142.192764
 20
217.185198
 40
3.553875
  1
７０
 41
0.777778
  7
STANDARD
100
AcDbText
  0
TEXT
  5
A5
100
AcDbEntity
  8
M0
 62
     7
100
AcDbText
 10
142.192764
 20
226.185198
 40
3.553875
  1
８０
 41
0.777778
  7
STANDARD
100
AcDbText
  0
TEXT
  5
A6
100
AcDbEntity
  8
M0
 62
     7
100
AcDbText
 10
142.192764
 20
235.185198
 40
3.553875
  1
９０
 41
0.777778
  7
STANDARD
100
AcDbText
  0
TEXT
  5
A7
100
AcDbEntity
  8
M0
 62
     7
100
AcDbText
 10
148.044311
 20
152.140737
 40
3.553875
  1
０
 41
0.777778
  7
STANDARD
100
AcDbText
  0
TEXT
  5
A8
100
AcDbEntity
  8
M0
 62
     7
100
AcDbText
 10
156.509948
 20
151.515253
 40
3.553875
  1
１０
 41
0.777778
  7
STANDARD
100
AcDbText
  0
TEXT
  5
A9
100
AcDbEntity
  8
M0
 62
     7
100
AcDbText
 10
165.509952
 20
151.515253
 40
3.553875
  1
２０
 41
0.777778
  7
STANDARD
100
AcDbText
  0
TEXT
  5
AA
100
AcDbEntity
  8
M0
 62
     7
100
AcDbText
 10
174.509952
 20
151.515253
 40
3.553875
  1
３０
 41
0.777778
  7
STANDARD
100
AcDbText
  0
TEXT
  5
AB
100
AcDbEntity
  8
M0
 62
     7
100
AcDbText
 10
183.509951
 20
151.515253
 40
3.553875
  1
４０
 41
0.777778
  7
STANDARD
100
AcDbText
  0
TEXT
  5
AC
100
AcDbEntity
  8
M0
 62
     7
100
AcDbText
 10
192.509951
 20
151.515253
 40
3.553875
  1
５０
 41
0.777778
  7
STANDARD
100
AcDbText
  0
TEXT
  5
AD
100
AcDbEntity
  8
M0
 62
     7
100
AcDbText
 10
201.509951
 20
151.515253
 40
3.553875
  1
６０
 41
0.777778
  7
STANDARD
100
AcDbText
  0
TEXT
  5
AE
100
AcDbEntity
  8
M0
 62
     7
100
AcDbText
 10
210.509952
 20
151.515253
 40
3.553875
  1
７０
 41
0.777778
  7
STANDARD
100
AcDbText
  0
TEXT
  5
AF
100
AcDbEntity
  8
M0
 62
     7
100
AcDbText
 10
219.50995
 20
151.515253
 40
3.553875
  1
８０
 41
0.777778
  7
STANDARD
100
AcDbText
  0
TEXT
  5
B0
100
AcDbEntity
  8
M0
 62
     7
100
AcDbText
 10
228.509952
 20
151.515253
 40
3.553875
  1
９０
 41
0.777778
  7
STANDARD
100
AcDbText
  0
TEXT
  5
B1
100
AcDbEntity
  8
M0
 62
     7
100
AcDbText
 10
174.198899
 20
143.070539
 40
5.52825
  1
揚水量
 41
1.666667
  7
STANDARD
100
AcDbText
  0
TEXT
  5
B2
100
AcDbEntity
  8
M0
 62
     7
100
AcDbText
 10
205.173778
 20
144.301798
 40
3.553875
  1
（Ｌ／分）
 41
0.777778
  7
STANDARD
100
AcDbText
  0
TEXT
  5
B3
100
AcDbEntity
  8
M0
 62
     7
100
AcDbText
 10
130.335875
 20
204.86525
 40
5.52825
  1
全
 41
1.388889
  7
STANDARD
100
AcDbText
  0
TEXT
  5
B4
100
AcDbEntity
  8
M0
 62
     7
100
AcDbText
 10
130.335875
 20
193.80875
 40
5.52825
  1
揚
 41
1.388889
  7
STANDARD
100
AcDbText
  0
TEXT
  5
B5
100
AcDbEntity
  8
M0
 62
     7
100
AcDbText
 10
130.335875
 20
182.75225
 40
5.52825
  1
程
 41
1.388889
  7
STANDARD
100
AcDbText
  0
TEXT
  5
B6
100
AcDbEntity
  8
M0
 62
     7
100
AcDbText
 10
129.484657
 20
173.765236
 40
3.553875
  1
（ｍ）
 41
0.777778
  7
STANDARD
100
AcDbText
  0
LINE
  5
B7
100
AcDbEntity
  8
M0
 62
     7
100
AcDbLine
 10
185.892833
 20
220.043508
 11
185.892833
 21
157.043508
  0
LINE
  5
B8
100
AcDbEntity
  8
M0
 62
     7
100
AcDbLine
 10
212.892833
 20
193.043508
 11
212.892833
 21
157.043508
  0
TEXT
  5
B9
100
AcDbEntity
  8
M0
100
AcDbText
 10
163.726166
 20
247.74925
 40
8.0
  1
ＳＦＭ－Ｐ６００ＮＳ１
 41
0.416667
  7
STANDARD
100
AcDbText
  0
LINE
  5
BA
100
AcDbEntity
  8
M0
 62
     7
100
AcDbLine
 10
126.144801
 20
32.636684
 11
126.144801
 21
113.636684
  0
LINE
  5
BB
100
AcDbEntity
  8
M0
 62
     7
100
AcDbLine
 10
126.144801
 20
113.636684
 11
45.144801
 21
113.636684
  0
LINE
  5
BC
100
AcDbEntity
  8
M0
 62
     7
100
AcDbLine
 10
45.144801
 20
113.636684
 11
45.144801
 21
32.636684
  0
LINE
  5
BD
100
AcDbEntity
  8
M0
 62
     7
100
AcDbLine
 10
45.144801
 20
32.636684
 11
126.144801
 21
32.636684
  0
LINE
  5
BE
100
AcDbEntity
  8
M0
 62
     7
100
AcDbLine
 10
126.144801
 20
41.636684
 11
45.144801
 21
41.636684
  0
LINE
  5
BF
100
AcDbEntity
  8
M0
 62
     7
100
AcDbLine
 10
126.144801
 20
50.636684
 11
45.144801
 21
50.636684
  0
LINE
  5
C0
100
AcDbEntity
  8
M0
 62
     7
100
AcDbLine
 10
126.144801
 20
59.636684
 11
45.144801
 21
59.636684
  0
LINE
  5
C1
100
AcDbEntity
  8
M0
 62
     7
100
AcDbLine
 10
126.144801
 20
68.636684
 11
45.144801
 21
68.636684
  0
LINE
  5
C2
100
AcDbEntity
  8
M0
 62
     7
100
AcDbLine
 10
126.144801
 20
77.636684
 11
45.144801
 21
77.636684
  0
LINE
  5
C3
100
AcDbEntity
  8
M0
 62
     7
100
AcDbLine
 10
126.144801
 20
86.636684
 11
45.144801
 21
86.636684
  0
LINE
  5
C4
100
AcDbEntity
  8
M0
 62
     7
100
AcDbLine
 10
126.144801
 20
95.636684
 11
45.144801
 21
95.636684
  0
LINE
  5
C5
100
AcDbEntity
  8
M0
 62
     7
100
AcDbLine
 10
126.144801
 20
104.636684
 11
45.144801
 21
104.636684
  0
LINE
  5
C6
100
AcDbEntity
  8
M0
 62
     7
100
AcDbLine
 10
54.144801
 20
113.636684
 11
54.144801
 21
32.636684
  0
LINE
  5
C7
100
AcDbEntity
  8
M0
 62
     7
100
AcDbLine
 10
63.144801
 20
113.636684
 11
63.144801
 21
32.636684
  0
LINE
  5
C8
100
AcDbEntity
  8
M0
 62
     7
100
AcDbLine
 10
72.144801
 20
113.636684
 11
72.144801
 21
32.636684
  0
LINE
  5
C9
100
AcDbEntity
  8
M0
 62
     7
100
AcDbLine
 10
81.144801
 20
104.636684
 11
81.144801
 21
32.636684
  0
LINE
  5
CA
100
AcDbEntity
  8
M0
 62
     7
100
AcDbLine
 10
99.144801
 20
113.636684
 11
99.144801
 21
32.636684
  0
LINE
  5
CB
100
AcDbEntity
  8
M0
 62
     7
100
AcDbLine
 10
108.144801
 20
113.636684
 11
108.144801
 21
86.636684
  0
LINE
  5
CC
100
AcDbEntity
  8
M0
 62
     7
100
AcDbLine
 10
117.144801
 20
113.636684
 11
117.144801
 21
86.636684
  0
TEXT
  5
CD
100
AcDbEntity
  8
M0
 62
     7
100
AcDbText
 10
40.38013
 20
32.061588
 40
3.553875
  1
０
 41
0.777778
  7
STANDARD
100
AcDbText
  0
TEXT
  5
CE
100
AcDbEntity
  8
M0
 62
     7
100
AcDbText
 10
37.444732
 20
39.327751
 40
3.553875
  1
１０
 41
0.777778
  7
STANDARD
100
AcDbText
  0
TEXT
  5
CF
100
AcDbEntity
  8
M0
 62
     7
100
AcDbText
 10
37.444732
 20
49.119646
 40
3.553875
  1
２０
 41
0.777778
  7
STANDARD
100
AcDbText
  0
TEXT
  5
D0
100
AcDbEntity
  8
M0
 62
     7
100
AcDbText
 10
37.444732
 20
58.16103
 40
3.553875
  1
３０
 41
0.777778
  7
STANDARD
100
AcDbText
  0
TEXT
  5
D1
100
AcDbEntity
  8
M0
 62
     7
100
AcDbText
 10
37.444732
 20
66.596577
 40
3.553875
  1
４０
 41
0.777778
  7
STANDARD
100
AcDbText
  0
TEXT
  5
D2
100
AcDbEntity
  8
M0
 62
     7
100
AcDbText
 10
37.444732
 20
75.112248
 40
3.553875
  1
５０
 41
0.777778
  7
STANDARD
100
AcDbText
  0
TEXT
  5
D3
100
AcDbEntity
  8
M0
 62
     7
100
AcDbText
 10
37.444732
 20
83.778374
 40
3.553875
  1
６０
 41
0.777778
  7
STANDARD
100
AcDbText
  0
TEXT
  5
D4
100
AcDbEntity
  8
M0
 62
     7
100
AcDbText
 10
37.444732
 20
92.778374
 40
3.553875
  1
７０
 41
0.777778
  7
STANDARD
100
AcDbText
  0
TEXT
  5
D5
100
AcDbEntity
  8
M0
 62
     7
100
AcDbText
 10
37.444732
 20
101.778374
 40
3.553875
  1
８０
 41
0.777778
  7
STANDARD
100
AcDbText
  0
TEXT
  5
D6
100
AcDbEntity
  8
M0
 62
     7
100
AcDbText
 10
37.444732
 20
110.778374
 40
3.553875
  1
９０
 41
0.777778
  7
STANDARD
100
AcDbText
  0
TEXT
  5
D7
100
AcDbEntity
  8
M0
 62
     7
100
AcDbText
 10
43.296279
 20
27.733913
 40
3.553875
  1
０
 41
0.777778
  7
STANDARD
100
AcDbText
  0
TEXT
  5
D8
100
AcDbEntity
  8
M0
 62
     7
100
AcDbText
 10
51.761917
 20
27.108429
 40
3.553875
  1
１０
 41
0.777778
  7
STANDARD
100
AcDbText
  0
TEXT
  5
D9
100
AcDbEntity
  8
M0
 62
     7
100
AcDbText
 10
60.76192
 20
27.108429
 40
3.553875
  1
２０
 41
0.777778
  7
STANDARD
100
AcDbText
  0
TEXT
  5
DA
100
AcDbEntity
  8
M0
 62
     7
100
AcDbText
 10
69.76192
 20
27.108429
 40
3.553875
  1
３０
 41
0.777778
  7
STANDARD
100
AcDbText
  0
TEXT
  5
DB
100
AcDbEntity
  8
M0
 62
     7
100
AcDbText
 10
78.761919
 20
27.108429
 40
3.553875
  1
４０
 41
0.777778
  7
STANDARD
100
AcDbText
  0
TEXT
  5
DC
100
AcDbEntity
  8
M0
 62
     7
100
AcDbText
 10
87.761919
 20
27.108429
 40
3.553875
  1
５０
 41
0.777778
  7
STANDARD
100
AcDbText
  0
TEXT
  5
DD
100
AcDbEntity
  8
M0
 62
     7
100
AcDbText
 10
96.761919
 20
27.108429
 40
3.553875
  1
６０
 41
0.777778
  7
STANDARD
100
AcDbText
  0
TEXT
  5
DE
100
AcDbEntity
  8
M0
 62
     7
100
AcDbText
 10
105.76192
 20
27.108429
 40
3.553875
  1
７０
 41
0.777778
  7
STANDARD
100
AcDbText
  0
TEXT
  5
DF
100
AcDbEntity
  8
M0
 62
     7
100
AcDbText
 10
114.761918
 20
27.108429
 40
3.553875
  1
８０
 41
0.777778
  7
STANDARD
100
AcDbText
  0
TEXT
  5
E0
100
AcDbEntity
  8
M0
 62
     7
100
AcDbText
 10
123.76192
 20
27.108429
 40
3.553875
  1
９０
 41
0.777778
  7
STANDARD
100
AcDbText
  0
TEXT
  5
E1
100
AcDbEntity
  8
M0
 62
     7
100
AcDbText
 10
69.450866
 20
18.663727
 40
5.52825
  1
揚水量
 41
1.666667
  7
STANDARD
100
AcDbText
  0
TEXT
  5
E2
100
AcDbEntity
  8
M0
 62
     7
100
AcDbText
 10
100.425746
 20
19.894977
 40
3.553875
  1
（Ｌ／分）
 41
0.777778
  7
STANDARD
100
AcDbText
  0
TEXT
  5
E3
100
AcDbEntity
  8
M0
 62
     7
100
AcDbText
 10
25.587847
 20
80.458431
 40
5.52825
  1
全
 41
1.388889
  7
STANDARD
100
AcDbText
  0
TEXT
  5
E4
100
AcDbEntity
  8
M0
 62
     7
100
AcDbText
 10
25.587847
 20
69.401932
 40
5.52825
  1
揚
 41
1.388889
  7
STANDARD
100
AcDbText
  0
TEXT
  5
E5
100
AcDbEntity
  8
M0
 62
     7
100
AcDbText
 10
25.587847
 20
58.345432
 40
5.52825
  1
程
 41
1.388889
  7
STANDARD
100
AcDbText
  0
TEXT
  5
E6
100
AcDbEntity
  8
M0
 62
     7
100
AcDbText
 10
24.736625
 20
49.358415
 40
3.553875
  1
（ｍ）
 41
0.777778
  7
STANDARD
100
AcDbText
  0
LINE
  5
E7
100
AcDbEntity
  8
M0
 62
     7
100
AcDbLine
 10
90.144801
 20
113.636684
 11
90.144801
 21
32.636684
  0
LINE
  5
E8
100
AcDbEntity
  8
M0
 62
     7
100
AcDbLine
 10
108.144801
 20
77.636684
 11
108.144801
 21
32.636684
  0
LINE
  5
E9
100
AcDbEntity
  8
M0
 62
     7
100
AcDbLine
 10
117.144801
 20
77.636684
 11
117.144801
 21
32.636684
  0
TEXT
  5
EA
100
AcDbEntity
  8
M0
100
AcDbText
 10
59.001757
 20
247.74925
 40
8.0
  1
ＳＦＭ－Ｐ４５０ＮＳ１
 41
0.416667
  7
STANDARD
100
AcDbText
  0
TEXT
  5
EB
100
AcDbEntity
  8
M0
100
AcDbText
 10
58.978135
 20
123.342425
 40
8.0
  1
ＳＦＭ－Ｋ７５０ＮＳ１
 41
0.416667
  7
STANDARD
100
AcDbText
  0
TEXT
  5
EC
100
AcDbEntity
  8
M0
 62
   253
100
AcDbText
 10
240.729255
 20
180.360504
 40
3.250065
  1
圧力センサー読取り範囲
 41
0.841667
  7
STANDARD
100
AcDbText
  0
TEXT
  5
ED
100
AcDbEntity
  8
M0
 62
   253
100
AcDbText
 10
251.521021
 20
175.697382
 40
3.250065
  1
自動モード
 41
0.841667
  7
STANDARD
100
AcDbText
  0
TEXT
  5
EE
100
AcDbEntity
  8
M0
 62
   253
100
AcDbText
 10
266.024003
 20
170.882218
 40
3.250065
  1
閉
 41
1.666667
  7
STANDARD
100
AcDbText
  0
TEXT
  5
EF
100
AcDbEntity
  8
M0
 62
   253
100
AcDbText
 10
266.206164
 20
165.799787
 40
3.250065
  1
開
 41
1.666667
  7
STANDARD
100
AcDbText
  0
TEXT
  5
F0
100
AcDbEntity
  8
M0
 62
   253
100
AcDbText
 10
246.429272
 20
160.918711
 40
3.250065
  1
吸込管接続口径
 41
0.841667
  7
STANDARD
100
AcDbText
  0
TEXT
  5
F1
100
AcDbEntity
  8
M0
 62
   253
100
AcDbText
 10
246.795697
 20
156.395764
 40
3.250065
  1
吐出管接続口径
 41
0.841667
  7
STANDARD
100
AcDbText
  0
TEXT
  5
F2
100
AcDbEntity
  8
M0
 62
   253
100
AcDbText
 10
244.343326
 20
148.93214
 40
3.250065
  1
製品質量
 41
0.841667
  7
STANDARD
100
AcDbText
  0
TEXT
  5
F3
100
AcDbEntity
  8
M0
 62
   253
100
AcDbText
 10
262.162191
 20
151.153784
 40
3.250065
  1
ポンプ部
 41
0.841667
  7
STANDARD
100
AcDbText
  0
TEXT
  5
F4
100
AcDbEntity
  8
M0
 62
   253
100
AcDbText
 10
262.830353
 20
146.065772
 40
3.250065
  1
地上部
 41
0.841667
  7
STANDARD
100
AcDbText
  0
LINE
  5
F5
100
AcDbEntity
  8
M0
 62
   253
100
AcDbLine
 10
239.973357
 20
145.416656
 11
403.43614
 21
145.416656
  0
TEXT
  5
F6
100
AcDbEntity
  8
M0
 62
   253
100
AcDbText
 10
321.07161
 20
175.765344
 40
3.033394
  1
マイコンによる無段階圧力運転
 41
0.595238
  7
STANDARD
100
AcDbText
  0
TEXT
  5
F7
100
AcDbEntity
  8
M0
 62
   253
100
AcDbText
 10
300.076421
 20
180.983498
 40
3.033394
  1
１７０ｋＰａ～６００ｋＰａ｛１．７ｋｇｆ／ｃｍ
 41
0.595238
  7
STANDARD
100
AcDbText
  0
TEXT
  5
F8
100
AcDbEntity
  8
M0
 62
   253
100
AcDbText
 10
349.838528
 20
182.803534
 40
1.820036
  1
２
 41
0.595238
  7
STANDARD
100
AcDbText
  0
TEXT
  5
F9
100
AcDbEntity
  8
M0
 62
   253
100
AcDbText
 10
351.210778
 20
180.983498
 40
3.033394
  1
～６．０ｋｇｆ／ｃｍ
 41
0.595238
  7
STANDARD
100
AcDbText
  0
TEXT
  5
FA
100
AcDbEntity
  8
M0
 62
   253
100
AcDbText
 10
372.805661
 20
182.803534
 40
1.820036
  1
２
 41
0.595238
  7
STANDARD
100
AcDbText
  0
TEXT
  5
FB
100
AcDbEntity
  8
M0
 62
   253
100
AcDbText
 10
374.177903
 20
180.983498
 40
3.033394
  1
｝
 41
0.595238
  7
STANDARD
100
AcDbText
  0
LINE
  5
FC
100
AcDbEntity
  8
M0
 62
   253
100
AcDbLine
 10
260.859218
 20
150.291753
 11
403.43614
 21
150.291753
  0
LINE
  5
FD
100
AcDbEntity
  8
M0
 62
   253
100
AcDbLine
 10
239.973357
 20
155.166851
 11
403.43614
 21
155.166851
  0
LINE
  5
FE
100
AcDbEntity
  8
M0
 62
   253
100
AcDbLine
 10
239.973357
 20
160.041948
 11
403.43614
 21
160.041948
  0
LINE
  5
FF
100
AcDbEntity
  8
M0
 62
   253
100
AcDbLine
 10
239.973357
 20
164.917046
 11
403.43614
 21
164.917046
  0
LINE
  5
100
100
AcDbEntity
  8
M0
 62
   253
100
AcDbLine
 10
260.859218
 20
155.166851
 11
260.859218
 21
145.416656
  0
LINE
  5
101
100
AcDbEntity
  8
M0
 62
   253
100
AcDbLine
 10
260.500174
 20
174.667241
 11
260.500174
 21
164.917046
  0
LINE
  5
102
100
AcDbEntity
  8
M0
 62
   253
100
AcDbLine
 10
245.172865
 20
174.667241
 11
403.43614
 21
174.667241
  0
LINE
  5
103
100
AcDbEntity
  8
M0
 62
   253
100
AcDbLine
 10
239.973357
 20
179.542338
 11
403.43614
 21
179.542338
  0
LINE
  5
104
100
AcDbEntity
  8
M0
 62
   253
100
AcDbLine
 10
239.973357
 20
184.417436
 11
403.43614
 21
184.417436
  0
LINE
  5
105
100
AcDbEntity
  8
M0
 62
   253
100
AcDbLine
 10
260.500174
 20
169.792143
 11
403.43614
 21
169.792143
  0
TEXT
  5
106
100
AcDbEntity
  8
M0
 62
   253
100
AcDbText
 10
246.820236
 20
171.820103
 40
1.950039
  1
＊
 41
0.841667
  7
STANDARD
100
AcDbText
  0
TEXT
  5
107
100
AcDbEntity
  8
M0
 62
   253
100
AcDbText
 10
248.905694
 20
169.870064
 40
3.250065
  1
固　定
 41
0.841667
  7
STANDARD
100
AcDbText
  0
TEXT
  5
108
100
AcDbEntity
  8
M0
 62
   253
100
AcDbText
 10
248.543853
 20
166.283726
 40
3.250065
  1
モード
 41
0.841667
  7
STANDARD
100
AcDbText
  0
TEXT
  5
109
100
AcDbEntity
  8
M0
 62
   253
100
AcDbText
 10
241.179072
 20
175.288835
 40
3.250065
  1
運
 41
0.833333
  7
STANDARD
100
AcDbText
  0
TEXT
  5
10A
100
AcDbEntity
  8
M0
 62
   253
100
AcDbText
 10
241.179072
 20
172.00627
 40
3.250065
  1
転
 41
0.833333
  7
STANDARD
100
AcDbText
  0
TEXT
  5
10B
100
AcDbEntity
  8
M0
 62
   253
100
AcDbText
 10
241.179072
 20
168.723704
 40
3.250065
  1
圧
 41
0.833333
  7
STANDARD
100
AcDbText
  0
TEXT
  5
10C
100
AcDbEntity
  8
M0
 62
   253
100
AcDbText
 10
241.179072
 20
165.441138
 40
3.250065
  1
力
 41
0.833333
  7
STANDARD
100
AcDbText
  0
TEXT
  5
10D
100
AcDbEntity
  8
M0
 62
   253
100
AcDbText
 10
333.880257
 20
146.370716
 40
3.033394
  1
１２ｋｇ
 41
0.595238
  7
STANDARD
100
AcDbText
  0
TEXT
  5
10E
100
AcDbEntity
  8
M0
 62
   253
100
AcDbText
 10
299.472661
 20
171.250892
 40
3.033394
  1
１５０ｋＰａ～３５０ｋＰａ｛１．５ｋｇｆ／ｃｍ
 41
0.595238
  7
STANDARD
100
AcDbText
  0
TEXT
  5
10F
100
AcDbEntity
  8
M0
 62
   253
100
AcDbText
 10
349.234769
 20
173.070929
 40
1.820036
  1
２
 41
0.595238
  7
STANDARD
100
AcDbText
  0
TEXT
  5
110
100
AcDbEntity
  8
M0
 62
   253
100
AcDbText
 10
350.607018
 20
171.250892
 40
3.033394
  1
～３．５ｋｇｆ／ｃｍ
 41
0.595238
  7
STANDARD
100
AcDbText
  0
TEXT
  5
111
100
AcDbEntity
  8
M0
 62
   253
100
AcDbText
 10
372.201901
 20
173.070929
 40
1.820036
  1
２
 41
0.595238
  7
STANDARD
100
AcDbText
  0
TEXT
  5
112
100
AcDbEntity
  8
M0
 62
   253
100
AcDbText
 10
373.574143
 20
171.250892
 40
3.033394
  1
｝
 41
0.595238
  7
STANDARD
100
AcDbText
  0
TEXT
  5
113
100
AcDbEntity
  8
M0
 62
   253
100
AcDbText
 10
299.66787
 20
166.064879
 40
3.033394
  1
１７０ｋＰａ～３７０ｋＰａ｛１．７ｋｇｆ／ｃｍ
 41
0.595238
  7
STANDARD
100
AcDbText
  0
TEXT
  5
114
100
AcDbEntity
  8
M0
 62
   253
100
AcDbText
 10
349.429974
 20
167.884915
 40
1.820036
  1
２
 41
0.595238
  7
STANDARD
100
AcDbText
  0
TEXT
  5
115
100
AcDbEntity
  8
M0
 62
   253
100
AcDbText
 10
350.802224
 20
166.064879
 40
3.033394
  1
～３．７ｋｇｆ／ｃｍ
 41
0.595238
  7
STANDARD
100
AcDbText
  0
TEXT
  5
116
100
AcDbEntity
  8
M0
 62
   253
100
AcDbText
 10
372.397092
 20
167.884915
 40
1.820036
  1
２
 41
0.595238
  7
STANDARD
100
AcDbText
  0
TEXT
  5
117
100
AcDbEntity
  8
M0
 62
   253
100
AcDbText
 10
373.769334
 20
166.064879
 40
3.033394
  1
｝
 41
0.595238
  7
STANDARD
100
AcDbText
  0
LINE
  5
118
100
AcDbEntity
  8
M0
 62
   253
100
AcDbLine
 10
245.172865
 20
179.542338
 11
245.172865
 21
164.917046
  0
TEXT
  5
119
100
AcDbEntity
  8
M0
 62
   253
100
AcDbText
 10
250.021934
 20
234.323176
 40
3.250065
  1
型　　　式
 41
0.841667
  7
STANDARD
100
AcDbText
  0
TEXT
  5
11A
100
AcDbEntity
  8
M0
 62
   253
100
AcDbText
 10
250.152996
 20
226.96998
 40
3.250065
  1
電　　　源
 41
0.841667
  7
STANDARD
100
AcDbText
  0
TEXT
  5
11B
100
AcDbEntity
  8
M0
 62
   253
100
AcDbText
 10
248.781465
 20
217.743338
 40
3.250065
  1
モーター
 41
1.25
  7
STANDARD
100
AcDbText
  0
TEXT
  5
11C
100
AcDbEntity
  8
M0
 62
   253
100
AcDbText
 10
245.204164
 20
210.177176
 40
3.250065
  1
定格出力
 41
1.666667
  7
STANDARD
100
AcDbText
  0
TEXT
  5
11D
100
AcDbEntity
  8
M0
 62
   253
100
AcDbText
 10
244.979334
 20
205.183104
 40
3.250065
  1
消費電力
 41
1.666667
  7
STANDARD
100
AcDbText
  0
TEXT
  5
11E
100
AcDbEntity
  8
M0
 62
   253
100
AcDbText
 10
246.91152
 20
200.215639
 40
3.250065
  1
吸上げ高さ範囲
 41
0.841667
  7
STANDARD
100
AcDbText
  0
TEXT
  5
11F
100
AcDbEntity
  8
M0
 62
   253
100
AcDbText
 10
249.693694
 20
195.051024
 40
3.250065
  1
押上げ高さ
 41
0.841667
  7
STANDARD
100
AcDbText
  0
TEXT
  5
120
100
AcDbEntity
  8
M0
 62
   253
100
AcDbText
 10
248.593544
 20
190.516922
 40
3.250065
  1
揚水量
 41
1.666667
  7
STANDARD
100
AcDbText
  0
LINE
  5
121
100
AcDbEntity
  8
M0
 62
   253
100
AcDbLine
 10
239.973357
 20
238.043508
 11
403.43614
 21
238.043508
  0
TEXT
  5
122
100
AcDbEntity
  8
M0
 62
   253
100
AcDbText
 10
249.947737
 20
185.641823
 40
3.250065
  1
（全揚程）
 41
0.833333
  7
STANDARD
100
AcDbText
  0
LINE
  5
123
100
AcDbEntity
  8
M0
 62
   253
100
AcDbLine
 10
239.973357
 20
238.043508
 11
239.973357
 21
145.416656
  0
LINE
  5
124
100
AcDbEntity
  8
M0
 62
   253
100
AcDbLine
 10
403.43614
 20
238.043508
 11
403.43614
 21
145.416656
  0
TEXT
  5
125
100
AcDbEntity
  8
M0
 62
   253
100
AcDbText
 10
287.270818
 20
205.05924
 40
3.033394
  1
８２０Ｗ／９５０Ｗ
 41
0.595238
  7
STANDARD
100
AcDbText
  0
TEXT
  5
126
100
AcDbEntity
  8
M0
 62
   253
100
AcDbText
 10
364.25747
 20
225.148249
 40
3.033394
  1
５０／６０（Ｈｚ）いずれか専用
 41
0.595238
  7
STANDARD
100
AcDbText
  0
TEXT
  5
127
100
AcDbEntity
  8
M0
 62
   253
100
AcDbText
 10
364.678765
 20
219.158178
 40
3.033394
  1
キャンド式水中
 41
0.595238
  7
STANDARD
100
AcDbText
  0
TEXT
  5
128
100
AcDbEntity
  8
M0
 62
   253
100
AcDbText
 10
300.33952
 20
229.440638
 40
3.033394
  1
単相　１００（Ｖ）
 41
0.595238
  7
STANDARD
100
AcDbText
  0
TEXT
  5
129
100
AcDbEntity
  8
M0
 62
   253
100
AcDbText
 10
300.33952
 20
225.148249
 40
3.033394
  1
５０／６０（Ｈｚ）いずれか専用
 41
0.595238
  7
STANDARD
100
AcDbText
  0
TEXT
  5
12A
100
AcDbEntity
  8
M0
 62
   253
100
AcDbText
 10
300.760819
 20
219.158178
 40
3.033394
  1
キャンド式水中
 41
0.595238
  7
STANDARD
100
AcDbText
  0
TEXT
  5
12B
100
AcDbEntity
  8
M0
 62
   253
100
AcDbText
 10
300.865491
 20
215.279547
 40
3.033394
  1
コンデンサ始動コンデンサモーター
 41
0.595238
  7
STANDARD
100
AcDbText
  0
TEXT
  5
12C
100
AcDbEntity
  8
M0
 62
   253
100
AcDbText
 10
364.25747
 20
229.440638
 40
3.033394
  1
３相　２００（Ｖ）
 41
0.595238
  7
STANDARD
100
AcDbText
  0
TEXT
  5
12D
100
AcDbEntity
  8
M0
 62
   253
100
AcDbText
 10
292.33907
 20
210.087546
 40
3.033394
  1
４５０Ｗ
 41
0.595238
  7
STANDARD
100
AcDbText
  0
TEXT
  5
12E
100
AcDbEntity
  8
M0
 62
   253
100
AcDbText
 10
334.589913
 20
210.087546
 40
3.033394
  1
６００Ｗ
 41
0.595238
  7
STANDARD
100
AcDbText
  0
TEXT
  5
12F
100
AcDbEntity
  8
M0
 62
   253
100
AcDbText
 10
329.521653
 20
205.05924
 40
3.033394
  1
８９０Ｗ／１１００Ｗ
 41
0.595238
  7
STANDARD
100
AcDbText
  0
TEXT
  5
130
100
AcDbEntity
  8
M0
 62
   253
100
AcDbText
 10
336.762597
 20
194.948424
 40
3.033394
  1
１５ｍ
 41
0.595238
  7
STANDARD
100
AcDbText
  0
LINE
  5
131
100
AcDbEntity
  8
M0
 62
   253
100
AcDbLine
 10
239.973357
 20
194.167631
 11
403.43614
 21
194.167631
  0
LINE
  5
132
100
AcDbEntity
  8
M0
 62
   253
100
AcDbLine
 10
239.973357
 20
199.042728
 11
403.43614
 21
199.042728
  0
LINE
  5
133
100
AcDbEntity
  8
M0
 62
   253
100
AcDbLine
 10
239.973357
 20
203.917826
 11
403.43614
 21
203.917826
  0
LINE
  5
134
100
AcDbEntity
  8
M0
 62
   253
100
AcDbLine
 10
239.973357
 20
208.792923
 11
403.43614
 21
208.792923
  0
LINE
  5
135
100
AcDbEntity
  8
M0
 62
   253
100
AcDbLine
 10
239.973357
 20
213.668021
 11
403.43614
 21
213.668021
  0
LINE
  5
136
100
AcDbEntity
  8
M0
 62
   253
100
AcDbLine
 10
239.973357
 20
223.418216
 11
403.43614
 21
223.418216
  0
LINE
  5
137
100
AcDbEntity
  8
M0
 62
   253
100
AcDbLine
 10
239.973357
 20
233.168411
 11
403.43614
 21
233.168411
  0
LINE
  5
138
100
AcDbEntity
  8
M0
 62
   253
100
AcDbLine
 10
276.683605
 20
238.043508
 11
276.683605
 21
145.416656
  0
LINE
  5
139
100
AcDbEntity
  8
M0
 62
   253
100
AcDbLine
 10
318.93445
 20
238.043508
 11
318.93445
 21
233.168411
  0
LINE
  5
13A
100
AcDbEntity
  8
M0
 62
   253
100
AcDbLine
 10
361.185295
 20
238.043508
 11
361.185295
 21
199.042728
  0
LINE
  5
13B
100
AcDbEntity
  8
M0
 62
   253
100
AcDbLine
 10
361.185295
 20
155.166851
 11
361.185295
 21
150.291753
  0
LINE
  5
13C
100
AcDbEntity
  8
M0
 62
   253
100
AcDbLine
 10
318.93445
 20
155.166851
 11
318.93445
 21
150.291753
  0
TEXT
  5
13D
100
AcDbEntity
  8
M0
 62
   253
100
AcDbText
 10
364.783433
 20
215.279547
 40
3.033394
  1
３相誘導モーター
 41
0.595238
  7
STANDARD
100
AcDbText
  0
TEXT
  5
13E
100
AcDbEntity
  8
M0
 62
   253
100
AcDbText
 10
377.924119
 20
210.087546
 40
3.033394
  1
７５０Ｗ
 41
0.595238
  7
STANDARD
100
AcDbText
  0
TEXT
  5
13F
100
AcDbEntity
  8
M0
 62
   253
100
AcDbText
 10
332.695115
 20
199.922388
 40
3.033394
  1
１２ｍ～４０ｍ
 41
0.595238
  7
STANDARD
100
AcDbText
  0
TEXT
  5
140
100
AcDbEntity
  8
M0
 62
   253
100
AcDbText
 10
376.029313
 20
199.922388
 40
3.033394
  1
２４ｍ～４２ｍ
 41
0.595238
  7
STANDARD
100
AcDbText
  0
LINE
  5
141
100
AcDbEntity
  8
M0
 62
   253
100
AcDbLine
 10
318.93445
 20
213.668021
 11
318.93445
 21
199.042728
  0
LINE
  5
142
100
AcDbEntity
  8
M0
 62
   253
100
AcDbLine
 10
318.93445
 20
194.167631
 11
318.93445
 21
184.417436
  0
LINE
  5
143
100
AcDbEntity
  8
M0
 62
   253
100
AcDbLine
 10
361.185295
 20
194.167631
 11
361.185295
 21
184.417436
  0
TEXT
  5
144
100
AcDbEntity
  8
M0
 62
   253
100
AcDbText
 10
287.329293
 20
234.170031
 40
3.033394
  1
ＳＦＭ－Ｐ４５０ＮＳ１
 41
0.595238
  7
STANDARD
100
AcDbText
  0
TEXT
  5
145
100
AcDbEntity
  8
M0
 62
   253
100
AcDbText
 10
329.580132
 20
234.170031
 40
3.033394
  1
ＳＦＭ－Ｐ６００ＮＳ１
 41
0.595238
  7
STANDARD
100
AcDbText
  0
TEXT
  5
146
100
AcDbEntity
  8
M0
 62
   253
100
AcDbText
 10
370.747636
 20
234.170031
 40
3.033394
  1
ＳＦＭ－Ｋ７５０ＮＳ１
 41
0.595238
  7
STANDARD
100
AcDbText
  0
TEXT
  5
147
100
AcDbEntity
  8
M0
 62
   253
100
AcDbText
 10
371.772492
 20
205.05924
 40
3.033394
  1
１１１０Ｗ／１１６０Ｗ
 41
0.595238
  7
STANDARD
100
AcDbText
  0
TEXT
  5
148
100
AcDbEntity
  8
M0
 62
   253
100
AcDbText
 10
290.444268
 20
199.922388
 40
3.033394
  1
４ｍ～３０ｍ
 41
0.595238
  7
STANDARD
100
AcDbText
  0
TEXT
  5
149
100
AcDbEntity
  8
M0
 62
   253
100
AcDbText
 10
286.710652
 20
190.190233
 40
3.033394
  1
３０Ｌ／分／３３Ｌ／分
 41
0.595238
  7
STANDARD
100
AcDbText
  0
TEXT
  5
14A
100
AcDbEntity
  8
M0
 62
   253
100
AcDbText
 10
328.961495
 20
190.190233
 40
3.033394
  1
３１Ｌ／分／３６Ｌ／分
 41
0.595238
  7
STANDARD
100
AcDbText
  0
TEXT
  5
14B
100
AcDbEntity
  8
M0
 62
   253
100
AcDbText
 10
372.295701
 20
190.190233
 40
3.033394
  1
４３Ｌ／分／４８Ｌ／分
 41
0.595238
  7
STANDARD
100
AcDbText
  0
TEXT
  5
14C
100
AcDbEntity
  8
M0
 62
   253
100
AcDbText
 10
292.151185
 20
185.641823
 40
3.033394
  1
（４２ｍ）
 41
0.595238
  7
STANDARD
100
AcDbText
  0
TEXT
  5
14D
100
AcDbEntity
  8
M0
 62
   253
100
AcDbText
 10
334.402032
 20
185.641823
 40
3.033394
  1
（４９ｍ）
 41
0.595238
  7
STANDARD
100
AcDbText
  0
TEXT
  5
14E
100
AcDbEntity
  8
M0
 62
   253
100
AcDbText
 10
377.736222
 20
185.641823
 40
3.033394
  1
（４７ｍ）
 41
0.595238
  7
STANDARD
100
AcDbText
  0
TEXT
  5
14F
100
AcDbEntity
  8
M0
 62
   253
100
AcDbText
 10
329.66832
 20
160.931235
 40
3.033394
  1
２５ｍｍ（Ｒｐ１）
 41
0.595238
  7
STANDARD
100
AcDbText
  0
TEXT
  5
150
100
AcDbEntity
  8
M0
 62
   253
100
AcDbText
 10
329.774697
 20
156.515525
 40
3.033394
  1
２５ｍｍ（Ｒｐ１）
 41
0.595238
  7
STANDARD
100
AcDbText
  0
TEXT
  5
151
100
AcDbEntity
  8
M0
 62
   253
100
AcDbText
 10
282.221246
 20
151.344185
 40
3.033394
  1
　　　　　２０．０ｋｇ
 41
0.595238
  7
STANDARD
100
AcDbText
  0
TEXT
  5
152
100
AcDbEntity
  8
M0
 62
   253
100
AcDbText
 10
328.80552
 20
151.344185
 40
3.033394
  1
　　　２１．０ｋｇ
 41
0.595238
  7
STANDARD
100
AcDbText
  0
TEXT
  5
153
100
AcDbEntity
  8
M0
 62
   253
100
AcDbText
 10
371.056351
 20
151.344185
 40
3.033394
  1
　　　２３．０ｋｇ
 41
0.595238
  7
STANDARD
100
AcDbText
  0
TEXT
  5
154
100
AcDbEntity
  8
M0
100
AcDbText
 10
241.730491
 20
137.108921
 40
3.250065
  1
＊「固定モード」時のポンプを運転させる点を「閉」、停止させる点を「開」として表わしています。
 41
0.844444
  7
STANDARD
100
AcDbText
  0
TEXT
  5
155
100
AcDbEntity
  8
M0
100
AcDbText
 10
245.774432
 20
132.661062
 40
3.250065
  1
通常は「自動モード」で運転しますので圧力センサーの「閉」「開」圧力は無視されます。
 41
0.844444
  7
STANDARD
100
AcDbText
  0
LINE
  5
156
100
AcDbEntity
  8
M0
100
AcDbLine
 10
239.91908
 20
278.303351
 11
275.562837
 21
278.303351
  0
LINE
  5
157
100
AcDbEntity
  8
M0
100
AcDbLine
 10
239.91908
 20
278.303351
 11
239.91908
 21
263.604894
  0
LINE
  5
158
100
AcDbEntity
  8
M0
100
AcDbLine
 10
275.562837
 20
278.303351
 11
275.562837
 21
263.604894
  0
LINE
  5
159
100
AcDbEntity
  8
M0
100
AcDbLine
 10
239.91908
 20
263.604894
 11
275.562837
 21
263.604894
  0
TEXT
  5
15A
100
AcDbEntity
  8
M0
100
AcDbText
 10
246.068461
 20
266.815581
 40
8.3335
  1
仕　様
 41
0.836667
  7
STANDARD
100
AcDbText
  0
LINE
  5
15B
100
AcDbEntity
  8
M0
 62
    74
100
AcDbLine
 10
30.837715
 20
263.604894
 11
64.276035
 21
263.604894
  0
LINE
  5
15C
100
AcDbEntity
  8
M0
 62
    74
100
AcDbLine
 10
30.837715
 20
263.604894
 11
64.276035
 21
263.604894
  0
LINE
  5
15D
100
AcDbEntity
  8
M0
 62
    74
100
AcDbLine
 10
30.837715
 20
263.604894
 11
63.541127
 21
263.604894
  0
LINE
  5
15E
100
AcDbEntity
  8
M0
 62
    74
100
AcDbLine
 10
30.837715
 20
263.604894
 11
34.879709
 21
263.604894
  0
LINE
  5
15F
100
AcDbEntity
  8
M0
 62
    74
100
AcDbLine
 10
34.879709
 20
263.604894
 11
30.837715
 21
263.604894
  0
LINE
  5
160
100
AcDbEntity
  8
M0
 62
    74
100
AcDbLine
 10
30.837715
 20
263.604894
 11
30.837715
 21
278.303351
  0
LINE
  5
161
100
AcDbEntity
  8
M0
 62
    74
100
AcDbLine
 10
64.276035
 20
263.604894
 11
64.276035
 21
278.303351
  0
LINE
  5
162
100
AcDbEntity
  8
M0
 62
    74
100
AcDbLine
 10
64.276035
 20
278.303351
 11
30.837715
 21
278.303351
  0
TEXT
  5
163
100
AcDbEntity
  8
M0
 62
    74
100
AcDbText
 10
35.379709
 20
266.544821
 40
10.0
  1
揚水性能
 41
0.5
  7
STANDARD
100
AcDbText
  0
SPLINE
  5
164
100
AcDbEntity
  8
M0
 62
     5
100
AcDbSpline
210
0.0
220
0.0
230
-1.0
 70
     8
 71
     3
 72
    14
 73
    10
 43
0.0000001
 40
0.0
 40
0.0
 40
0.0
 40
0.0
 40
1.0
 40
1.0
 40
1.0
 40
2.0
 40
2.0
 40
2.0
 40
3.0
 40
3.0
 40
3.0
 40
3.0
 10
45.144801
 20
103.736684
 10
50.753409
 20
101.793704
 10
56.362017
 20
99.850717
 10
63.144801
 20
95.636684
 10
72.493599
 20
89.82843
 10
84.07303
 20
79.70575
 10
93.744801
 20
68.636684
 10
101.240332
 20
60.058264
 10
107.590104
 20
50.911422
 10
113.68207
 20
41.636684
  0
SPLINE
  5
165
100
AcDbEntity
  8
M0
 62
     1
100
AcDbSpline
210
0.0
220
0.0
230
-1.0
 70
     8
 71
     3
 72
    14
 73
    10
 43
0.0000001
 40
0.0
 40
0.0
 40
0.0
 40
0.0
 40
1.0
 40
1.0
 40
1.0
 40
2.0
 40
2.0
 40
2.0
 40
3.0
 40
3.0
 40
3.0
 40
3.0
 10
45.144801
 20
108.236684
 10
51.402893
 20
105.36777
 10
57.660984
 20
102.498849
 10
64.944801
 20
95.636684
 10
74.36843
 20
86.758581
 10
85.508967
 20
71.196359
 10
92.844801
 20
59.636684
 10
97.439961
 20
52.395714
 10
100.542246
 20
46.725241
 10
103.091375
 20
41.636684
  0
SPLINE
  5
166
100
AcDbEntity
  8
M0
 62
     5
100
AcDbSpline
210
0.0
220
0.0
230
-1.0
 70
     8
 71
     3
 72
    17
 73
    13
 43
0.0000001
 40
0.0
 40
0.0
 40
0.0
 40
0.0
 40
1.0
 40
1.0
 40
1.0
 40
2.0
 40
2.0
 40
2.0
 40
3.0
 40
3.0
 40
3.0
 40
4.0
 40
4.0
 40
4.0
 40
4.0
 10
149.892833
 20
219.143508
 10
156.260787
 20
216.676523
 10
162.628746
 20
214.209538
 10
168.792833
 20
211.043508
 10
174.95692
 20
207.877478
 10
180.917139
 20
204.01241
 10
184.992833
 20
201.143508
 10
189.068527
 20
198.274607
 10
191.259705
 20
196.401875
 10
194.892833
 20
193.043508
 10
202.003546
 20
186.470556
 10
214.63778
 20
174.206781
 10
220.992833
 20
166.043508
  0
ARC
  5
167
100
AcDbEntity
  8
M0
 62
     1
100
AcDbCircle
 10
83.107853
 20
77.968014
 40
155.362311
100
AcDbArc
 50
34.534603
 51
64.540942
  0
SPLINE
  5
168
100
AcDbEntity
  8
M0
 62
     1
100
AcDbSpline
210
0.0
220
0.0
230
-1.0
 70
     8
 71
     3
 72
    14
 73
    10
 43
0.0000001
 40
0.0
 40
0.0
 40
0.0
 40
0.0
 40
1.0
 40
1.0
 40
1.0
 40
2.0
 40
2.0
 40
2.0
 40
3.0
 40
3.0
 40
3.0
 40
3.0
 10
45.168423
 20
210.143508
 10
53.966994
 20
206.531515
 10
62.76557
 20
202.91952
 10
72.168423
 20
194.843508
 10
81.571276
 20
186.767497
 10
91.578414
 20
174.227478
 10
97.368423
 20
166.043508
 10
98.532307
 20
164.398401
 10
99.525789
 20
162.929309
 10
100.438636
 20
161.543508
  0
SPLINE
  5
169
100
AcDbEntity
  8
M0
 62
     5
100
AcDbSpline
210
0.0
220
0.0
230
-1.0
 70
     8
 71
     3
 72
    11
 73
     7
 43
0.0000001
 40
0.0
 40
0.0
 40
0.0
 40
0.0
 40
1.0
 40
1.0
 40
1.0
 40
2.0
 40
2.0
 40
2.0
 40
2.0
 10
115.368423
 20
161.543508
 10
101.037285
 20
174.04621
 10
86.706146
 20
186.548914
 10
74.868423
 20
194.843508
 10
63.411327
 20
202.871401
 10
54.289874
 20
206.957456
 10
45.168423
 20
211.043508
  0
ENDSEC
  0
SECTION
  2
OBJECTS
  0
DICTIONARY
  5
C
100
AcDbDictionary
  3
ACAD_GROUP
350
D
  3
ACAD_MLINESTYLE
350
E
  0
DICTIONARY
  5
D
102
{ACAD_REACTORS
330
C
102
}
100
AcDbDictionary
  0
DICTIONARY
  5
E
102
{ACAD_REACTORS
330
C
102
}
100
AcDbDictionary
  3
STANDARD
350
13
  0
MLINESTYLE
  5
13
102
{ACAD_REACTORS
330
E
102
}
100
AcDbMlineStyle
  2
STANDARD
 70
     0
  3

 62
     0
 51
90.0
 52
90.0
 71
     2
 49
0.5
 62
   256
  6
BYLAYER
 49
-0.5
 62
   256
  6
BYLAYER
  0
ENDSEC
  0
EOF
