  0
SECTION
  2
HEADER
  9
$ACADVER
  1
AC1012
  9
$INSBASE
 10
0.0
 20
0.0
  9
$VIEWCTR
 10
7.531722
 20
4.5
  9
$VIEWSIZE
 40
9.0
  9
$SNAPMODE
 70
     0
  9
$SNAPUNIT
 10
1.0
 20
1.0
  9
$SNAPBASE
 10
0.0
 20
0.0
  9
$SNAPANG
 50
0.0
  9
$SNAPSTYLE
 70
     0
  9
$SNAPISOPAIR
 70
     0
  9
$GRIDMODE
 70
     0
  9
$GRIDUNIT
 10
0.0
 20
0.0
  9
$ORTHOMODE
 70
     0
  9
$REGENMODE
 70
     1
  9
$FILLMODE
 70
     1
  9
$QTEXTMODE
 70
     0
  9
$DRAGMODE
 70
     2
  9
$LTSCALE
 40
1.0
  9
$OSMODE
 70
     0
  9
$ATTMODE
 70
     1
  9
$TEXTSIZE
 40
0.2
  9
$TRACEWID
 40
0.05
  9
$TEXTSTYLE
  7
STANDARD
  9
$CELTYPE
  6
BYLAYER
  9
$CECOLOR
 62
   256
  9
$DIMSCALE
 40
1.0
  9
$DIMASZ
 40
0.18
  9
$DIMEXO
 40
0.0625
  9
$DIMDLI
 40
0.38
  9
$DIMRND
 40
0.0
  9
$DIMDLE
 40
0.0
  9
$DIMEXE
 40
0.18
  9
$DIMTP
 40
0.0
  9
$DIMTM
 40
0.0
  9
$DIMTXT
 40
0.18
  9
$DIMCEN
 40
0.09
  9
$DIMTSZ
 40
0.0
  9
$DIMTOL
 70
     0
  9
$DIMLIM
 70
     0
  9
$DIMTIH
 70
     1
  9
$DIMTOH
 70
     1
  9
$DIMSE1
 70
     0
  9
$DIMSE2
 70
     0
  9
$DIMTAD
 70
     0
  9
$DIMZIN
 70
     0
  9
$DIMBLK
  1

  9
$LUNITS
 70
     2
  9
$LUPREC
 70
     4
  9
$AXISMODE
 70
     0
  9
$AXISUNIT
 10
0.0
 20
0.0
  9
$SKETCHINC
 40
0.1
  9
$FILLETRAD
 40
0.0
  9
$AUNITS
 70
     0
  9
$AUPREC
 70
     0
  9
$MENU
  1
ACAD
  9
$ELEVATION
 40
0.0
  9
$THICKNESS
 40
0.0
  9
$VIEWDIR
 10
0.0
 20
0.0
 30
1.0
  9
$LIMCHECK
 70
     0
  9
$BLIPMODE
 70
     1
  9
$CHAMFERA
 40
0.0
  9
$CHAMFERB
 40
0.0
  9
$FASTZOOM
 70
     1
  9
$SKPOLY
 70
     0
  9
$TDCREATE
 40
0000000.0000000000
  9
$TDUPDATE
 40
0000000.0000000000
  9
$TDINDWG
 40
0.0000000000
  9
$TDUSRTIMER
 40
0.0000000000
  9
$USRTIMER
 70
     1
  9
$ANGBASE
 50
0.0
  9
$ANGDIR
 70
     0
  9
$PDMODE
 70
     0
  9
$PDSIZE
 40
0.0
  9
$PLINEWID
 40
0.0
  9
$COORDS
 70
     0
  9
$USERI1
 70
     0
  9
$USERI2
 70
     0
  9
$USERI3
 70
     0
  9
$USERI4
 70
     0
  9
$USERI5
 70
     0
  9
$USERR1
 40
0.0
  9
$USERR2
 40
0.0
  9
$USERR3
 40
0.0
  9
$USERR4
 40
0.0
  9
$USERR5
 40
0.0
  9
$CLAYER
  8
M0
  9
$EXTMIN
 10
0.0
 20
0.0
  9
$EXTMAX
 10
420.0
 20
297.0
  9
$LIMMIN
 10
0.0
 20
0.0
  9
$LIMMAX
 10
420.0
 20
297.0
  9
$HANDSEED
  5
157
  0
ENDSEC
  0
SECTION
  2
CLASSES
  0
ENDSEC
  0
SECTION
  2
TABLES
  0
TABLE
  2
VPORT
  5
8
100
AcDbSymbolTable
 70
     2
  0
VPORT
  5
14
100
AcDbSymbolTableRecord
100
AcDbViewportTableRecord
  2
*ACTIVE
 70
     0
 10
0.0
 20
0.0
 11
1.0
 21
1.0
 12
484.0
 22
297.0
 13
0.0
 23
0.0
 14
1.0
 24
1.0
 15
0.0
 25
0.0
 16
0.0
 26
0.0
 36
1.0
 17
0.0
 27
0.0
 37
0.0
 40
594.0
 41
2.0
 42
50.0
 43
0.0
 44
0.0
 50
0.0
 51
0.0
 71
     0
 72
   100
 73
     1
 74
     1
 75
     0
 76
     0
 77
     0
 78
     0
  0
ENDTAB
  0
TABLE
  2
LTYPE
  5
5
100
AcDbSymbolTable
 70
     5
  0
LTYPE
  5
15
100
AcDbSymbolTableRecord
100
AcDbLinetypeTableRecord
  2
BYBLOCK
 70
     0
  3

 72
    65
 73
     0
 40
0.0
  0
LTYPE
  5
16
100
AcDbSymbolTableRecord
100
AcDbLinetypeTableRecord
  2
BYLAYER
 70
     0
  3

 72
    65
 73
     0
 40
0.0
  0
LTYPE
  5
17
100
AcDbSymbolTableRecord
100
AcDbLinetypeTableRecord
  2
CONTINUOUS
 70
    64
  3
Solid line
 72
    65
 73
     0
 40
0.0
  0
LTYPE
  5
18
100
AcDbSymbolTableRecord
100
AcDbLinetypeTableRecord
  2
DASHED
 70
    64
  3
__ __ __ __ __ __ __ __ __ __ __ __ __ __ __ __
 72
    65
 73
     2
 40
0.75
 49
0.5
 74
     0
 49
-0.25
 74
     0
  0
LTYPE
  5
19
100
AcDbSymbolTableRecord
100
AcDbLinetypeTableRecord
  2
DASHDOT
 70
    64
  3
__ . __ . __ . __ . __ . __ . __ . __ . __ . __
 72
    65
 73
     4
 40
1.0
 49
0.5
 74
     0
 49
-0.25
 74
     0
 49
0.0
 74
     0
 49
-0.25
 74
     0
  0
LTYPE
  5
1A
100
AcDbSymbolTableRecord
100
AcDbLinetypeTableRecord
  2
DIVIDE
 70
    64
  3
____ . . ____ . . ____ . . ____ . . ____ . . __
 72
    65
 73
     6
 40
1.25
 49
0.5
 74
     0
 49
-0.25
 74
     0
 49
0.0
 74
     0
 49
-0.25
 74
     0
 49
0.0
 74
     0
 49
-0.25
 74
     0
  0
LTYPE
  5
1B
100
AcDbSymbolTableRecord
100
AcDbLinetypeTableRecord
  2
DOT
 70
    64
  3
. . . . . . . . . . . . . . . . . . . . . . . .
 72
    65
 73
     2
 40
0.25
 49
0.0
 74
     0
 49
-0.25
 74
     0
  0
ENDTAB
  0
TABLE
  2
LAYER
  5
2
100
AcDbSymbolTable
 70
   102
  0
LAYER
  5
F
100
AcDbSymbolTableRecord
100
AcDbLayerTableRecord
  2
0
 70
     0
 62
     7
  6
CONTINUOUS
  0
LAYER
  5
1C
100
AcDbSymbolTableRecord
100
AcDbLayerTableRecord
  2
DEFPOINTS
 70
     0
 62
     7
  6
CONTINUOUS
  0
LAYER
  5
1D
100
AcDbSymbolTableRecord
100
AcDbLayerTableRecord
  2
M0
 70
     0
 62
     3
  6
CONTINUOUS
  0
ENDTAB
  0
TABLE
  2
STYLE
  5
3
100
AcDbSymbolTable
 70
     2
  0
STYLE
  5
10
100
AcDbSymbolTableRecord
100
AcDbTextStyleTableRecord
  2
STANDARD
 70
     0
 40
0.0
 41
1.0
 50
0.0
 71
     0
 42
0.2
  3
txt
  4
BIGFONT
  0
ENDTAB
  0
TABLE
  2
VIEW
  5
6
100
AcDbSymbolTable
 70
     0
  0
ENDTAB
  0
TABLE
  2
UCS
  5
7
100
AcDbSymbolTable
 70
     0
  0
ENDTAB
  0
TABLE
  2
APPID
  5
9
100
AcDbSymbolTable
 70
     1
  0
APPID
  5
11
100
AcDbSymbolTableRecord
100
AcDbRegAppTableRecord
  2
ACAD
 70
     0
  0
ENDTAB
  0
TABLE
  2
DIMSTYLE
  5
A
100
AcDbSymbolTable
 70
     2
  0
DIMSTYLE
105
24
100
AcDbSymbolTableRecord
100
AcDbDimStyleTableRecord
  2
STANDARD
 70
     0
  3

  4

  5

  6
_OPEN
  7
_OPEN
 40
1.0
 41
3.0
 42
0.0
 43
8.0
 44
1.5
 45
0.0
 46
0.0
 47
0.0
 48
0.0
140
3.5
141
0.09
142
0.0
143
0.03937
144
1.0
145
0.0
146
1.0
147
1.0
 71
     0
 72
     0
 73
     0
 74
     0
 75
     0
 76
     0
 77
     3
 78
     8
170
     0
171
     2
172
     0
173
     1
174
     0
175
     0
176
     0
177
     0
178
     0
270
     2
271
     2
272
     4
273
     2
274
     2
340
10
275
     0
280
     0
281
     0
282
     0
283
     1
284
     0
285
     0
286
     0
287
     3
288
     0
  0
DIMSTYLE
105
25
100
AcDbSymbolTableRecord
100
AcDbDimStyleTableRecord
  2
LEADSTYL
 70
     0
  3

  4

  5

  6
_OPEN
  7
_OPEN
 40
1.0
 41
3.0
 42
0.0625
 43
0.38
 44
0.18
 45
0.0
 46
0.0
 47
0.0
 48
0.0
140
3.2
141
0.09
142
0.0
143
25.4
144
1.0
145
0.0
146
1.0
147
1.0
 71
     0
 72
     0
 73
     1
 74
     1
 75
     0
 76
     0
 77
     0
 78
     0
170
     0
171
     2
172
     0
173
     1
174
     0
175
     0
176
     0
177
     0
178
     0
270
     2
271
     4
272
     4
273
     2
274
     2
340
10
275
     0
280
     0
281
     0
282
     0
283
     1
284
     0
285
     0
286
     0
287
     3
288
     0
  0
ENDTAB
  0
TABLE
  2
BLOCK_RECORD
  5
1
100
AcDbSymbolTable
 70
     6
  0
BLOCK_RECORD
  5
1E
100
AcDbSymbolTableRecord
100
AcDbBlockTableRecord
  2
*MODEL_SPACE
  0
BLOCK_RECORD
  5
21
100
AcDbSymbolTableRecord
100
AcDbBlockTableRecord
  2
*PAPER_SPACE
  0
BLOCK_RECORD
  5
26
100
AcDbSymbolTableRecord
100
AcDbBlockTableRecord
  2
_NONE
  0
BLOCK_RECORD
  5
2A
100
AcDbSymbolTableRecord
100
AcDbBlockTableRecord
  2
_OPEN
  0
BLOCK_RECORD
  5
30
100
AcDbSymbolTableRecord
100
AcDbBlockTableRecord
  2
_CLOSED
  0
BLOCK_RECORD
  5
37
100
AcDbSymbolTableRecord
100
AcDbBlockTableRecord
  2
_ORIGIN
  0
BLOCK_RECORD
  5
3C
100
AcDbSymbolTableRecord
100
AcDbBlockTableRecord
  2
_DOT
  0
BLOCK_RECORD
  5
44
100
AcDbSymbolTableRecord
100
AcDbBlockTableRecord
  2
_OBLIQUE
  0
ENDTAB
  0
ENDSEC
  0
SECTION
  2
BLOCKS
  0
BLOCK
  5
1F
100
AcDbEntity
  8
0
100
AcDbBlockBegin
  2
*MODEL_SPACE
 70
     0
 10
0.0
 20
0.0
 30
0.0
  3
*MODEL_SPACE
  1

  0
ENDBLK
  5
20
100
AcDbEntity
  8
0
100
AcDbBlockEnd
  0
BLOCK
  5
22
100
AcDbEntity
 67
     1
  8
0
100
AcDbBlockBegin
  2
*PAPER_SPACE
 70
     0
 10
0.0
 20
0.0
 30
0.0
  3
*PAPER_SPACE
  1

  0
ENDBLK
  5
23
100
AcDbEntity
 67
     1
  8
0
100
AcDbBlockEnd
  0
BLOCK
  5
27
100
AcDbEntity
  8
0
100
AcDbBlockBegin
  2
_NONE
 70
     0
 10
0.0
 20
0.0
  0
CIRCLE
  5
28
100
AcDbEntity
  8
0
 62
     0
100
AcDbCircle
 10
0.0
 20
0.0
 40
0.25
  0
ENDBLK
  5
29
100
AcDbEntity
  8
0
100
AcDbBlockEnd
  0
BLOCK
  5
2B
100
AcDbEntity
  8
0
100
AcDbBlockBegin
  2
_OPEN
 70
     0
 10
0.0
 20
0.0
  0
LINE
  5
2C
100
AcDbEntity
  8
0
 62
     0
100
AcDbLine
 10
-0.965926
 20
0.258819
 11
0.0
 21
0.0
  0
LINE
  5
2D
100
AcDbEntity
  8
0
 62
     0
100
AcDbLine
 10
0.0
 20
0.0
 11
-0.965926
 21
-0.258819
  0
LINE
  5
2E
100
AcDbEntity
  8
0
 62
     0
100
AcDbLine
 10
0.0
 20
0.0
 11
-1.0
 21
0.0
  0
ENDBLK
  5
2F
100
AcDbEntity
  8
0
100
AcDbBlockEnd
  0
BLOCK
  5
31
100
AcDbEntity
  8
0
100
AcDbBlockBegin
  2
_CLOSED
 70
     0
 10
0.0
 20
0.0
  0
LINE
  5
32
100
AcDbEntity
  8
0
 62
     0
100
AcDbLine
 10
-0.965926
 20
0.258819
 11
0.0
 21
0.0
  0
LINE
  5
33
100
AcDbEntity
  8
0
 62
     0
100
AcDbLine
 10
0.0
 20
0.0
 11
-0.965926
 21
-0.258819
  0
LINE
  5
34
100
AcDbEntity
  8
0
 62
     0
100
AcDbLine
 10
-0.965926
 20
0.258819
 11
-0.965926
 21
-0.258819
  0
LINE
  5
35
100
AcDbEntity
  8
0
 62
     0
100
AcDbLine
 10
0.0
 20
0.0
 11
-1.0
 21
0.0
  0
ENDBLK
  5
36
100
AcDbEntity
  8
0
100
AcDbBlockEnd
  0
BLOCK
  5
38
100
AcDbEntity
  8
0
100
AcDbBlockBegin
  2
_ORIGIN
 70
     0
 10
0.0
 20
0.0
  0
CIRCLE
  5
39
100
AcDbEntity
  8
0
 62
     0
100
AcDbCircle
 10
0.0
 20
0.0
 40
0.5
  0
LINE
  5
3A
100
AcDbEntity
  8
0
 62
     0
100
AcDbLine
 10
0.0
 20
0.0
 11
-1.0
 21
0.0
  0
ENDBLK
  5
3B
100
AcDbEntity
  8
0
100
AcDbBlockEnd
  0
BLOCK
  5
3D
100
AcDbEntity
  8
0
100
AcDbBlockBegin
  2
_DOT
 70
     0
 10
0.0
 20
0.0
  0
POLYLINE
  5
3E
100
AcDbEntity
  8
0
 62
     0
100
AcDb2dPolyline
 66
     1
 70
     1
 40
0.5
 41
0.5
  0
VERTEX
  5
3F
100
AcDbEntity
  8
0
 62
     0
100
AcDbVertex
100
AcDb2dVertex
 10
-0.25
 20
0.0
 42
1.0
  0
VERTEX
  5
40
100
AcDbEntity
  8
0
 62
     0
100
AcDbVertex
100
AcDb2dVertex
 10
0.25
 20
0.0
 42
1.0
  0
SEQEND
  5
41
100
AcDbEntity
  8
0
 62
     0
  0
LINE
  5
42
100
AcDbEntity
  8
0
 62
     0
100
AcDbLine
 10
-0.5
 20
0.0
 11
-1.0
 21
0.0
  0
ENDBLK
  5
43
100
AcDbEntity
  8
0
100
AcDbBlockEnd
  0
BLOCK
  5
45
100
AcDbEntity
  8
0
100
AcDbBlockBegin
  2
_OBLIQUE
 70
     0
 10
0.0
 20
0.0
  0
LINE
  5
46
100
AcDbEntity
  8
0
 62
     0
100
AcDbLine
 10
-0.353553
 20
-0.353553
 11
0.353553
 21
0.353553
  0
ENDBLK
  5
47
100
AcDbEntity
  8
0
100
AcDbBlockEnd
  0
ENDSEC
  0
SECTION
  2
ENTITIES
  0
LINE
  5
48
100
AcDbEntity
  8
M0
 62
     4
100
AcDbLine
 10
49.783576
 20
271.536635
 11
49.783576
 21
183.536635
  0
LINE
  5
49
100
AcDbEntity
  8
M0
 62
     4
100
AcDbLine
 10
49.783576
 20
183.536635
 11
160.783576
 21
183.536635
  0
LINE
  5
4A
100
AcDbEntity
  8
M0
 62
     4
100
AcDbLine
 10
81.783576
 20
183.536635
 11
81.783576
 21
231.536635
  0
LINE
  5
4B
100
AcDbEntity
  8
M0
 62
     4
100
AcDbLine
 10
113.783576
 20
183.536635
 11
113.783576
 21
231.536635
  0
LINE
  5
4C
100
AcDbEntity
  8
M0
 62
     4
100
AcDbLine
 10
145.783576
 20
183.536635
 11
145.783576
 21
263.536635
  0
LINE
  5
4D
100
AcDbEntity
  8
M0
 62
     4
100
AcDbLine
 10
49.783576
 20
199.536635
 11
160.783576
 21
199.536635
  0
LINE
  5
4E
100
AcDbEntity
  8
M0
 62
     4
100
AcDbLine
 10
49.783576
 20
215.536635
 11
160.783576
 21
215.536635
  0
LINE
  5
4F
100
AcDbEntity
  8
M0
 62
     4
100
AcDbLine
 10
81.783576
 20
231.536635
 11
81.783576
 21
271.536635
  0
LINE
  5
50
100
AcDbEntity
  8
M0
 62
     4
100
AcDbLine
 10
65.783576
 20
183.536635
 11
65.783576
 21
271.536635
  0
LINE
  5
51
100
AcDbEntity
  8
M0
 62
     4
100
AcDbLine
 10
97.783576
 20
183.536635
 11
97.783576
 21
271.536635
  0
LINE
  5
52
100
AcDbEntity
  8
M0
 62
     4
100
AcDbLine
 10
129.783576
 20
183.536635
 11
129.783576
 21
271.536635
  0
LINE
  5
53
100
AcDbEntity
  8
M0
 62
     4
100
AcDbLine
 10
49.783576
 20
247.536635
 11
160.783576
 21
247.536635
  0
LINE
  5
54
100
AcDbEntity
  8
M0
 62
     4
100
AcDbLine
 10
49.783576
 20
231.536635
 11
160.783576
 21
231.536635
  0
LINE
  5
55
100
AcDbEntity
  8
M0
 62
     4
100
AcDbLine
 10
49.783576
 20
263.536635
 11
160.783576
 21
263.536635
  0
LINE
  5
56
100
AcDbEntity
  8
M0
 62
     4
100
AcDbLine
 10
113.783576
 20
241.085482
 11
113.783576
 21
271.536635
  0
LINE
  5
57
100
AcDbEntity
  8
M0
 62
     4
100
AcDbLine
 10
49.783576
 20
221.936635
 11
126.159147
 21
221.936635
  0
LINE
  5
58
100
AcDbEntity
  8
M0
 62
     4
100
AcDbLine
 10
126.971424
 20
221.764258
 11
140.983576
 21
215.536635
  0
LINE
  5
59
100
AcDbEntity
  8
M0
 62
     4
100
AcDbLine
 10
140.983576
 20
215.536635
 11
145.783576
 21
210.736635
  0
LINE
  5
5A
100
AcDbEntity
  8
M0
 62
     4
100
AcDbLine
 10
147.383576
 20
207.536635
 11
150.583671
 21
191.536161
  0
LINE
  5
5B
100
AcDbEntity
  8
M0
 62
     4
100
AcDbLine
 10
145.783576
 20
210.736635
 11
147.383576
 21
207.536635
  0
ARC
  5
5C
100
AcDbEntity
  8
M0
 62
     4
100
AcDbCircle
 10
126.159147
 20
219.936635
 40
2.0
100
AcDbArc
 50
66.037511
 51
90.0
  0
TEXT
  5
5D
100
AcDbEntity
  8
M0
 62
     4
100
AcDbText
 10
32.209628
 20
229.743774
 40
3.584
  1
全
 41
1.25
  7
STANDARD
100
AcDbText
  0
TEXT
  5
5E
100
AcDbEntity
  8
M0
 62
     4
100
AcDbText
 10
32.209628
 20
225.801374
 40
3.584
  1
揚
 41
1.25
  7
STANDARD
100
AcDbText
  0
TEXT
  5
5F
100
AcDbEntity
  8
M0
 62
     4
100
AcDbText
 10
32.209628
 20
221.858975
 40
3.584
  1
程
 41
1.25
  7
STANDARD
100
AcDbText
  0
TEXT
  5
60
100
AcDbEntity
  8
M0
 62
     4
100
AcDbText
 10
32.209628
 20
217.916575
 40
3.584
  1
　
 41
1.25
  7
STANDARD
100
AcDbText
  0
TEXT
  5
61
100
AcDbEntity
  8
M0
 62
     4
100
AcDbText
 10
32.209628
 20
213.974175
 40
3.584
  1
ｍ
 41
1.25
  7
STANDARD
100
AcDbText
  0
ARC
  5
62
100
AcDbEntity
  8
M0
 62
     4
100
AcDbCircle
 10
34.449628
 20
213.67551
 40
5.376
100
AcDbArc
 50
52.58592
 51
127.41408
  0
ARC
  5
63
100
AcDbEntity
  8
M0
 62
     4
100
AcDbCircle
 10
34.449628
 20
217.04948
 40
5.376
100
AcDbArc
 50
232.58592
 51
307.41408
  0
TEXT
  5
64
100
AcDbEntity
  8
M0
 62
     4
100
AcDbText
 10
40.263375
 20
229.256602
 40
4.8
  1
３０
 41
0.611111
  7
STANDARD
100
AcDbText
  0
TEXT
  5
65
100
AcDbEntity
  8
M0
 62
     4
100
AcDbText
 10
40.263375
 20
213.256602
 40
4.8
  1
２０
 41
0.611111
  7
STANDARD
100
AcDbText
  0
TEXT
  5
66
100
AcDbEntity
  8
M0
 62
     4
100
AcDbText
 10
40.263375
 20
197.256606
 40
4.8
  1
１０
 41
0.611111
  7
STANDARD
100
AcDbText
  0
TEXT
  5
67
100
AcDbEntity
  8
M0
 62
     4
100
AcDbText
 10
43.463372
 20
181.256599
 40
4.8
  1
０
 41
0.611111
  7
STANDARD
100
AcDbText
  0
TEXT
  5
68
100
AcDbEntity
  8
M0
 62
     4
100
AcDbText
 10
46.663371
 20
177.49459
 40
4.8
  1
０
 41
0.611111
  7
STANDARD
100
AcDbText
  0
TEXT
  5
69
100
AcDbEntity
  8
M0
 62
     4
100
AcDbText
 10
78.663372
 20
177.49459
 40
4.8
  1
２０
 41
0.611111
  7
STANDARD
100
AcDbText
  0
TEXT
  5
6A
100
AcDbEntity
  8
M0
 62
     4
100
AcDbText
 10
110.663375
 20
177.49459
 40
4.8
  1
４０
 41
0.611111
  7
STANDARD
100
AcDbText
  0
TEXT
  5
6B
100
AcDbEntity
  8
M0
 62
     4
100
AcDbText
 10
89.413235
 20
171.087501
 40
5.376
  1
揚水量（Ｌ／分）
 41
0.611111
  7
STANDARD
100
AcDbText
  0
TEXT
  5
6C
100
AcDbEntity
  8
M0
 62
     4
100
AcDbText
 10
142.663367
 20
177.49459
 40
4.8
  1
６０
 41
0.611111
  7
STANDARD
100
AcDbText
  0
TEXT
  5
6D
100
AcDbEntity
  8
M0
 62
     4
100
AcDbText
 10
62.663372
 20
177.49459
 40
4.8
  1
１０
 41
0.611111
  7
STANDARD
100
AcDbText
  0
TEXT
  5
6E
100
AcDbEntity
  8
M0
 62
     4
100
AcDbText
 10
94.663375
 20
177.49459
 40
4.8
  1
３０
 41
0.611111
  7
STANDARD
100
AcDbText
  0
TEXT
  5
6F
100
AcDbEntity
  8
M0
 62
     4
100
AcDbText
 10
126.663367
 20
177.49459
 40
4.8
  1
５０
 41
0.611111
  7
STANDARD
100
AcDbText
  0
TEXT
  5
70
100
AcDbEntity
  8
M0
 62
     4
100
AcDbText
 10
40.263375
 20
245.256602
 40
4.8
  1
４０
 41
0.611111
  7
STANDARD
100
AcDbText
  0
TEXT
  5
71
100
AcDbEntity
  8
M0
 62
     4
100
AcDbText
 10
40.263375
 20
261.256602
 40
4.8
  1
５０
 41
0.611111
  7
STANDARD
100
AcDbText
  0
ARC
  5
72
100
AcDbEntity
  8
M0
100
AcDbCircle
 10
-314.576671
 20
261.699649
 40
20.0
100
AcDbArc
 50
262.874984
 51
437.905243
  0
LINE
  5
73
100
AcDbEntity
  8
M0
 62
     4
100
AcDbLine
 10
62.2605
 20
275.679864
 11
62.260501
 21
281.439864
  0
LINE
  5
74
100
AcDbEntity
  8
M0
 62
     4
100
AcDbLine
 10
62.260501
 20
281.439864
 11
86.820504
 21
281.439864
  0
LINE
  5
75
100
AcDbEntity
  8
M0
 62
     4
100
AcDbLine
 10
86.820504
 20
281.439864
 11
86.820502
 21
275.679864
  0
LINE
  5
76
100
AcDbEntity
  8
M0
 62
     4
100
AcDbLine
 10
86.820502
 20
275.679864
 11
62.2605
 21
275.679864
  0
TEXT
  5
77
100
AcDbEntity
  8
M0
 62
     4
100
AcDbText
 10
62.923833
 20
276.159864
 40
4.8
  1
　浅井戸配管　　　標準ジェット（Ｊ７５－６Ｓ）使用時
 41
0.590278
  7
STANDARD
100
AcDbText
  0
TEXT
  5
78
100
AcDbEntity
  8
M0
 62
     4
100
AcDbText
 10
132.52189
 20
264.196446
 40
4.8
  1
吸込管径：３０ｍｍ
 41
0.590278
  7
STANDARD
100
AcDbText
  0
LINE
  5
79
100
AcDbEntity
  8
M0
 62
     4
100
AcDbLine
 10
30.883606
 20
274.006636
 11
54.268013
 21
274.006636
  0
LINE
  5
7A
100
AcDbEntity
  8
M0
 62
     4
100
AcDbLine
 10
54.268013
 20
283.538566
 11
30.883606
 21
283.538566
  0
LINE
  5
7B
100
AcDbEntity
  8
M0
 62
     4
100
AcDbLine
 10
30.883606
 20
283.538566
 11
30.883606
 21
274.006636
  0
LINE
  5
7C
100
AcDbEntity
  8
M0
 62
     4
100
AcDbLine
 10
54.268013
 20
283.538566
 11
54.268013
 21
274.006636
  0
TEXT
  5
7D
100
AcDbEntity
  8
M0
 62
     4
100
AcDbText
 10
33.325355
 20
276.021239
 40
5.4
  1
揚水性能
 41
0.740741
  7
STANDARD
100
AcDbText
  0
TEXT
  5
7E
100
AcDbEntity
  8
M0
 62
     4
100
AcDbText
 10
99.509748
 20
234.230033
 40
4.8
  1
吸上高さ６ｍ時
 41
0.590278
  7
STANDARD
100
AcDbText
  0
LINE
  5
7F
100
AcDbEntity
  8
M0
 62
     4
100
AcDbLine
 10
62.2605
 20
160.075637
 11
62.260501
 21
165.835637
  0
LINE
  5
80
100
AcDbEntity
  8
M0
 62
     4
100
AcDbLine
 10
62.260501
 20
165.835637
 11
86.820504
 21
165.835637
  0
LINE
  5
81
100
AcDbEntity
  8
M0
 62
     4
100
AcDbLine
 10
86.820504
 20
165.835637
 11
86.820502
 21
160.075637
  0
LINE
  5
82
100
AcDbEntity
  8
M0
 62
     4
100
AcDbLine
 10
86.820502
 20
160.075637
 11
62.2605
 21
160.075637
  0
TEXT
  5
83
100
AcDbEntity
  8
M0
 62
     4
100
AcDbText
 10
62.923833
 20
160.555637
 40
4.8
  1
　深井戸配管　　　標準ジェット（Ｊ７５－６Ｓ）使用時
 41
0.590278
  7
STANDARD
100
AcDbText
  0
TEXT
  5
84
100
AcDbEntity
  8
M0
 62
     4
100
AcDbText
 10
248.454175
 20
201.298087
 40
4.8
  1
吸上高さ１８ｍ時
 41
0.590278
  7
STANDARD
100
AcDbText
  0
TEXT
  5
85
100
AcDbEntity
  8
M0
 62
     4
100
AcDbText
 10
219.478811
 20
145.999683
 40
4.8
  1
吸上高さ３５ｍ時
 41
0.590278
  7
STANDARD
100
AcDbText
  0
TEXT
  5
86
100
AcDbEntity
  8
M0
 62
     4
100
AcDbText
 10
231.66076
 20
135.517825
 40
4.8
  1
吸上高さ３０ｍ時
 41
0.590278
  7
STANDARD
100
AcDbText
  0
TEXT
  5
87
100
AcDbEntity
  8
M0
 62
     4
100
AcDbText
 10
328.913884
 20
250.230033
 40
4.8
  1
吸上高さ２４ｍ時
 41
0.590278
  7
STANDARD
100
AcDbText
  0
TEXT
  5
88
100
AcDbEntity
  8
M0
 62
     4
100
AcDbText
 10
352.913884
 20
234.230033
 40
4.8
  1
吸上高さ１８ｍ時
 41
0.590278
  7
STANDARD
100
AcDbText
  0
TEXT
  5
89
100
AcDbEntity
  8
M0
 62
     4
100
AcDbText
 10
218.179107
 20
204.984054
 40
4.8
  1
吸上高さ２４ｍ時
 41
0.590278
  7
STANDARD
100
AcDbText
  0
LINE
  5
8A
100
AcDbEntity
  8
M0
100
AcDbLine
 10
198.949755
 20
183.536635
 11
270.949755
 21
183.536635
  0
LINE
  5
8B
100
AcDbEntity
  8
M0
100
AcDbLine
 10
198.949755
 20
271.536635
 11
198.949755
 21
183.536635
  0
LINE
  5
8C
100
AcDbEntity
  8
M0
100
AcDbLine
 10
230.949755
 20
183.536635
 11
230.949755
 21
202.448249
  0
LINE
  5
8D
100
AcDbEntity
  8
M0
100
AcDbLine
 10
262.949755
 20
183.536635
 11
262.949755
 21
199.536635
  0
LINE
  5
8E
100
AcDbEntity
  8
M0
100
AcDbLine
 10
198.949755
 20
199.536635
 11
270.949755
 21
199.536635
  0
LINE
  5
8F
100
AcDbEntity
  8
M0
100
AcDbLine
 10
198.949755
 20
215.536635
 11
270.949755
 21
215.536635
  0
LINE
  5
90
100
AcDbEntity
  8
M0
100
AcDbLine
 10
230.949755
 20
231.536635
 11
230.949755
 21
271.536635
  0
LINE
  5
91
100
AcDbEntity
  8
M0
100
AcDbLine
 10
214.949755
 20
183.536635
 11
214.949755
 21
271.536635
  0
LINE
  5
92
100
AcDbEntity
  8
M0
100
AcDbLine
 10
246.949755
 20
183.536635
 11
246.949755
 21
231.536635
  0
LINE
  5
93
100
AcDbEntity
  8
M0
100
AcDbLine
 10
198.949755
 20
247.536635
 11
270.949755
 21
247.536635
  0
LINE
  5
94
100
AcDbEntity
  8
M0
100
AcDbLine
 10
198.949755
 20
231.536635
 11
270.949755
 21
231.536635
  0
LINE
  5
95
100
AcDbEntity
  8
M0
100
AcDbLine
 10
198.949755
 20
263.536635
 11
270.949755
 21
263.536635
  0
ARC
  5
96
100
AcDbEntity
  8
M0
100
AcDbCircle
 10
183.297815
 20
213.736343
 40
5.376
100
AcDbArc
 50
52.58592
 51
127.41408
  0
ARC
  5
97
100
AcDbEntity
  8
M0
100
AcDbCircle
 10
183.297815
 20
217.110313
 40
5.376
100
AcDbArc
 50
232.58592
 51
307.41408
  0
TEXT
  5
98
100
AcDbEntity
  8
M0
100
AcDbText
 10
181.057808
 20
229.804606
 40
3.584
  1
全
 41
1.25
  7
STANDARD
100
AcDbText
  0
TEXT
  5
99
100
AcDbEntity
  8
M0
100
AcDbText
 10
181.057808
 20
225.862206
 40
3.584
  1
揚
 41
1.25
  7
STANDARD
100
AcDbText
  0
TEXT
  5
9A
100
AcDbEntity
  8
M0
100
AcDbText
 10
181.057808
 20
221.919806
 40
3.584
  1
程
 41
1.25
  7
STANDARD
100
AcDbText
  0
TEXT
  5
9B
100
AcDbEntity
  8
M0
100
AcDbText
 10
181.057808
 20
217.977406
 40
3.584
  1
　
 41
1.25
  7
STANDARD
100
AcDbText
  0
TEXT
  5
9C
100
AcDbEntity
  8
M0
100
AcDbText
 10
181.057808
 20
214.035007
 40
3.584
  1
ｍ
 41
1.25
  7
STANDARD
100
AcDbText
  0
TEXT
  5
9D
100
AcDbEntity
  8
M0
100
AcDbText
 10
189.429555
 20
229.256602
 40
4.8
  1
３０
 41
0.611111
  7
STANDARD
100
AcDbText
  0
TEXT
  5
9E
100
AcDbEntity
  8
M0
100
AcDbText
 10
189.429555
 20
213.256606
 40
4.8
  1
２０
 41
0.611111
  7
STANDARD
100
AcDbText
  0
TEXT
  5
9F
100
AcDbEntity
  8
M0
100
AcDbText
 10
189.429555
 20
197.256602
 40
4.8
  1
１０
 41
0.611111
  7
STANDARD
100
AcDbText
  0
TEXT
  5
A0
100
AcDbEntity
  8
M0
100
AcDbText
 10
192.629552
 20
181.256603
 40
4.8
  1
０
 41
0.611111
  7
STANDARD
100
AcDbText
  0
TEXT
  5
A1
100
AcDbEntity
  8
M0
100
AcDbText
 10
195.829549
 20
177.494594
 40
4.8
  1
０
 41
0.611111
  7
STANDARD
100
AcDbText
  0
TEXT
  5
A2
100
AcDbEntity
  8
M0
100
AcDbText
 10
227.829549
 20
177.494594
 40
4.8
  1
２０
 41
0.611111
  7
STANDARD
100
AcDbText
  0
TEXT
  5
A3
100
AcDbEntity
  8
M0
100
AcDbText
 10
259.829565
 20
177.494594
 40
4.8
  1
４０
 41
0.611111
  7
STANDARD
100
AcDbText
  0
TEXT
  5
A4
100
AcDbEntity
  8
M0
100
AcDbText
 10
223.712713
 20
171.241898
 40
5.376
  1
揚水量（Ｌ／分）
 41
0.611111
  7
STANDARD
100
AcDbText
  0
TEXT
  5
A5
100
AcDbEntity
  8
M0
100
AcDbText
 10
211.829549
 20
177.494594
 40
4.8
  1
１０
 41
0.611111
  7
STANDARD
100
AcDbText
  0
TEXT
  5
A6
100
AcDbEntity
  8
M0
100
AcDbText
 10
243.829564
 20
177.494594
 40
4.8
  1
３０
 41
0.611111
  7
STANDARD
100
AcDbText
  0
TEXT
  5
A7
100
AcDbEntity
  8
M0
100
AcDbText
 10
189.429555
 20
245.256606
 40
4.8
  1
４０
 41
0.611111
  7
STANDARD
100
AcDbText
  0
TEXT
  5
A8
100
AcDbEntity
  8
M0
100
AcDbText
 10
189.429555
 20
261.256606
 40
4.8
  1
５０
 41
0.611111
  7
STANDARD
100
AcDbText
  0
LINE
  5
A9
100
AcDbEntity
  8
M0
100
AcDbLine
 10
246.949755
 20
231.536635
 11
246.949755
 21
271.536635
  0
LINE
  5
AA
100
AcDbEntity
  8
M0
100
AcDbLine
 10
230.949755
 20
212.043412
 11
230.949755
 21
231.536635
  0
LINE
  5
AB
100
AcDbEntity
  8
M0
100
AcDbLine
 10
262.949755
 20
206.779651
 11
262.949755
 21
263.536635
  0
TEXT
  5
AC
100
AcDbEntity
  8
M0
100
AcDbText
 10
318.620371
 20
90.421515
 40
4.5
  1
ＣＴ－Ｋ７５０Ｓ　揚水性能図
 41
0.777778
  7
STANDARD
100
AcDbText
  0
LINE
  5
AD
100
AcDbEntity
  8
M0
 62
     7
100
AcDbLine
 10
179.357088
 20
162.240973
 11
179.35709
 21
168.000973
  0
LINE
  5
AE
100
AcDbEntity
  8
M0
 62
     7
100
AcDbLine
 10
179.35709
 20
168.000973
 11
197.117089
 21
168.000973
  0
LINE
  5
AF
100
AcDbEntity
  8
M0
 62
     7
100
AcDbLine
 10
197.117089
 20
168.000973
 11
197.117088
 21
162.240973
  0
LINE
  5
B0
100
AcDbEntity
  8
M0
 62
     7
100
AcDbLine
 10
197.117088
 20
162.240973
 11
179.357088
 21
162.240973
  0
TEXT
  5
B1
100
AcDbEntity
  8
M0
 62
     7
100
AcDbText
 10
180.020422
 20
162.720973
 40
4.8
  1
　深井戸　　　専用ジェット（Ｊ７５－３５Ｓ）使用時
 41
0.590278
  7
STANDARD
100
AcDbText
  0
LINE
  5
B2
100
AcDbEntity
  8
M0
 62
     7
100
AcDbLine
 10
178.825026
 20
276.083258
 11
178.825028
 21
281.843258
  0
LINE
  5
B3
100
AcDbEntity
  8
M0
 62
     7
100
AcDbLine
 10
178.825028
 20
281.843258
 11
196.585027
 21
281.843258
  0
LINE
  5
B4
100
AcDbEntity
  8
M0
 62
     7
100
AcDbLine
 10
196.585027
 20
281.843258
 11
196.585025
 21
276.083258
  0
LINE
  5
B5
100
AcDbEntity
  8
M0
 62
     7
100
AcDbLine
 10
196.585025
 20
276.083258
 11
178.825026
 21
276.083258
  0
TEXT
  5
B6
100
AcDbEntity
  8
M0
 62
     7
100
AcDbText
 10
179.488359
 20
276.563258
 40
4.8
  1
　深井戸　　　専用ジェット（Ｊ７５－２４Ｓ）使用時
 41
0.590278
  7
STANDARD
100
AcDbText
  0
TEXT
  5
B7
100
AcDbEntity
  8
M0
 62
     6
100
AcDbText
 10
251.864889
 20
264.60076
 40
4.8
  1
圧力管径：３０ｍｍ
 41
0.590278
  7
STANDARD
100
AcDbText
  0
TEXT
  5
B8
100
AcDbEntity
  8
M0
 62
     6
100
AcDbText
 10
251.864889
 20
270.594184
 40
4.8
  1
吸込管径：３０ｍｍ
 41
0.590278
  7
STANDARD
100
AcDbText
  0
TEXT
  5
B9
100
AcDbEntity
  8
M0
 62
     6
100
AcDbText
 10
251.864889
 20
151.989959
 40
4.8
  1
吸込管径：３０ｍｍ
 41
0.590278
  7
STANDARD
100
AcDbText
  0
TEXT
  5
BA
100
AcDbEntity
  8
M0
 62
     6
100
AcDbText
 10
251.864889
 20
145.996535
 40
4.8
  1
圧力管径：３０ｍｍ
 41
0.590278
  7
STANDARD
100
AcDbText
  0
TEXT
  5
BB
100
AcDbEntity
  8
M0
 62
     6
100
AcDbText
 10
134.698709
 20
151.989959
 40
4.8
  1
吸込管径：３０ｍｍ
 41
0.590278
  7
STANDARD
100
AcDbText
  0
TEXT
  5
BC
100
AcDbEntity
  8
M0
 62
     6
100
AcDbText
 10
134.698709
 20
145.996535
 40
4.8
  1
圧力管径：２５ｍｍ
 41
0.590278
  7
STANDARD
100
AcDbText
  0
LINE
  5
BD
100
AcDbEntity
  8
M0
 62
   114
100
AcDbLine
 10
198.949755
 20
144.932409
 11
270.949755
 21
144.932409
  0
LINE
  5
BE
100
AcDbEntity
  8
M0
 62
   114
100
AcDbLine
 10
198.949755
 20
64.932409
 11
270.949755
 21
64.932409
  0
LINE
  5
BF
100
AcDbEntity
  8
M0
 62
   114
100
AcDbLine
 10
230.949755
 20
64.932409
 11
230.949755
 21
112.932409
  0
LINE
  5
C0
100
AcDbEntity
  8
M0
 62
   114
100
AcDbLine
 10
262.949755
 20
64.932409
 11
262.949755
 21
144.932409
  0
LINE
  5
C1
100
AcDbEntity
  8
M0
 62
   114
100
AcDbLine
 10
198.949755
 20
80.932409
 11
270.949755
 21
80.932409
  0
LINE
  5
C2
100
AcDbEntity
  8
M0
 62
   114
100
AcDbLine
 10
198.949755
 20
96.932409
 11
270.949755
 21
96.932409
  0
LINE
  5
C3
100
AcDbEntity
  8
M0
 62
   114
100
AcDbLine
 10
230.949755
 20
112.932409
 11
230.949755
 21
144.932409
  0
LINE
  5
C4
100
AcDbEntity
  8
M0
 62
   114
100
AcDbLine
 10
214.949755
 20
64.932409
 11
214.949755
 21
144.932409
  0
LINE
  5
C5
100
AcDbEntity
  8
M0
 62
   114
100
AcDbLine
 10
246.949755
 20
64.932409
 11
246.949755
 21
134.787023
  0
LINE
  5
C6
100
AcDbEntity
  8
M0
 62
   114
100
AcDbLine
 10
198.949755
 20
128.932409
 11
270.949755
 21
128.932409
  0
LINE
  5
C7
100
AcDbEntity
  8
M0
 62
   114
100
AcDbLine
 10
198.949755
 20
112.932409
 11
270.949755
 21
112.932409
  0
LINE
  5
C8
100
AcDbEntity
  8
M0
 62
   114
100
AcDbLine
 10
198.949755
 20
160.932409
 11
198.949755
 21
64.932409
  0
ARC
  5
C9
100
AcDbEntity
  8
M0
 62
   114
100
AcDbCircle
 10
182.229156
 20
96.815667
 40
5.376
100
AcDbArc
 50
52.58592
 51
127.41408
  0
ARC
  5
CA
100
AcDbEntity
  8
M0
 62
   114
100
AcDbCircle
 10
182.229156
 20
100.189637
 40
5.376
100
AcDbArc
 50
232.58592
 51
307.41408
  0
TEXT
  5
CB
100
AcDbEntity
  8
M0
 62
   114
100
AcDbText
 10
179.989159
 20
112.883928
 40
3.584
  1
全
 41
1.25
  7
STANDARD
100
AcDbText
  0
TEXT
  5
CC
100
AcDbEntity
  8
M0
 62
   114
100
AcDbText
 10
179.989159
 20
108.941528
 40
3.584
  1
揚
 41
1.25
  7
STANDARD
100
AcDbText
  0
TEXT
  5
CD
100
AcDbEntity
  8
M0
 62
   114
100
AcDbText
 10
179.989159
 20
104.999128
 40
3.584
  1
程
 41
1.25
  7
STANDARD
100
AcDbText
  0
TEXT
  5
CE
100
AcDbEntity
  8
M0
 62
   114
100
AcDbText
 10
179.989159
 20
101.056728
 40
3.584
  1
　
 41
1.25
  7
STANDARD
100
AcDbText
  0
TEXT
  5
CF
100
AcDbEntity
  8
M0
 62
   114
100
AcDbText
 10
179.989159
 20
97.114328
 40
3.584
  1
ｍ
 41
1.25
  7
STANDARD
100
AcDbText
  0
TEXT
  5
D0
100
AcDbEntity
  8
M0
 62
   114
100
AcDbText
 10
189.429555
 20
110.65238
 40
4.8
  1
３０
 41
0.611111
  7
STANDARD
100
AcDbText
  0
TEXT
  5
D1
100
AcDbEntity
  8
M0
 62
   114
100
AcDbText
 10
189.429555
 20
94.65238
 40
4.8
  1
２０
 41
0.611111
  7
STANDARD
100
AcDbText
  0
TEXT
  5
D2
100
AcDbEntity
  8
M0
 62
   114
100
AcDbText
 10
189.429555
 20
78.65238
 40
4.8
  1
１０
 41
0.611111
  7
STANDARD
100
AcDbText
  0
TEXT
  5
D3
100
AcDbEntity
  8
M0
 62
   114
100
AcDbText
 10
192.629552
 20
62.65238
 40
4.8
  1
０
 41
0.611111
  7
STANDARD
100
AcDbText
  0
TEXT
  5
D4
100
AcDbEntity
  8
M0
 62
   114
100
AcDbText
 10
195.829556
 20
56.890371
 40
4.8
  1
０
 41
0.611111
  7
STANDARD
100
AcDbText
  0
TEXT
  5
D5
100
AcDbEntity
  8
M0
 62
   114
100
AcDbText
 10
227.829541
 20
56.890371
 40
4.8
  1
２０
 41
0.611111
  7
STANDARD
100
AcDbText
  0
TEXT
  5
D6
100
AcDbEntity
  8
M0
 62
   114
100
AcDbText
 10
259.829556
 20
56.890371
 40
4.8
  1
４０
 41
0.611111
  7
STANDARD
100
AcDbText
  0
TEXT
  5
D7
100
AcDbEntity
  8
M0
 62
   114
100
AcDbText
 10
222.885172
 20
49.313947
 40
5.376
  1
揚水量（Ｌ／分）
 41
0.611111
  7
STANDARD
100
AcDbText
  0
TEXT
  5
D8
100
AcDbEntity
  8
M0
 62
   114
100
AcDbText
 10
211.829556
 20
56.890371
 40
4.8
  1
１０
 41
0.611111
  7
STANDARD
100
AcDbText
  0
TEXT
  5
D9
100
AcDbEntity
  8
M0
 62
   114
100
AcDbText
 10
243.829556
 20
56.890371
 40
4.8
  1
３０
 41
0.611111
  7
STANDARD
100
AcDbText
  0
TEXT
  5
DA
100
AcDbEntity
  8
M0
 62
   114
100
AcDbText
 10
189.429555
 20
126.65238
 40
4.8
  1
４０
 41
0.611111
  7
STANDARD
100
AcDbText
  0
TEXT
  5
DB
100
AcDbEntity
  8
M0
 62
   114
100
AcDbText
 10
189.429555
 20
142.65238
 40
4.8
  1
５０
 41
0.611111
  7
STANDARD
100
AcDbText
  0
LINE
  5
DC
100
AcDbEntity
  8
M0
 62
   114
100
AcDbLine
 10
246.949755
 20
141.215529
 11
246.949755
 21
160.932409
  0
LINE
  5
DD
100
AcDbEntity
  8
M0
 62
   114
100
AcDbLine
 10
198.949755
 20
160.932409
 11
270.949755
 21
160.932409
  0
TEXT
  5
DE
100
AcDbEntity
  8
M0
 62
   114
100
AcDbText
 10
189.916852
 20
155.568597
 40
4.8
  1
６０
 41
0.611111
  7
STANDARD
100
AcDbText
  0
LINE
  5
DF
100
AcDbEntity
  8
M0
 62
   114
100
AcDbLine
 10
214.949755
 20
144.932409
 11
214.949755
 21
160.932409
  0
LINE
  5
E0
100
AcDbEntity
  8
M0
 62
   114
100
AcDbLine
 10
230.949755
 20
152.695183
 11
230.949755
 21
160.932409
  0
LINE
  5
E1
100
AcDbEntity
  8
M0
 62
     2
100
AcDbLine
 10
49.783576
 20
64.932409
 11
160.783576
 21
64.932409
  0
LINE
  5
E2
100
AcDbEntity
  8
M0
 62
     2
100
AcDbLine
 10
49.783576
 20
152.932409
 11
49.783576
 21
64.932409
  0
LINE
  5
E3
100
AcDbEntity
  8
M0
 62
     2
100
AcDbLine
 10
81.783576
 20
64.932409
 11
81.783576
 21
112.932409
  0
LINE
  5
E4
100
AcDbEntity
  8
M0
 62
     2
100
AcDbLine
 10
113.783576
 20
64.932409
 11
113.783576
 21
112.932409
  0
LINE
  5
E5
100
AcDbEntity
  8
M0
 62
     2
100
AcDbLine
 10
145.783576
 20
64.932409
 11
145.783576
 21
144.932409
  0
LINE
  5
E6
100
AcDbEntity
  8
M0
 62
     2
100
AcDbLine
 10
49.783576
 20
80.932409
 11
160.783576
 21
80.932409
  0
LINE
  5
E7
100
AcDbEntity
  8
M0
 62
     2
100
AcDbLine
 10
49.783576
 20
96.932409
 11
160.783576
 21
96.932409
  0
LINE
  5
E8
100
AcDbEntity
  8
M0
 62
     2
100
AcDbLine
 10
81.783576
 20
112.932409
 11
81.783576
 21
152.932409
  0
LINE
  5
E9
100
AcDbEntity
  8
M0
 62
     2
100
AcDbLine
 10
65.783576
 20
64.932409
 11
65.783576
 21
152.932409
  0
LINE
  5
EA
100
AcDbEntity
  8
M0
 62
     2
100
AcDbLine
 10
97.783576
 20
64.932409
 11
97.783576
 21
152.932409
  0
LINE
  5
EB
100
AcDbEntity
  8
M0
 62
     2
100
AcDbLine
 10
129.783576
 20
64.932409
 11
129.783576
 21
152.932409
  0
LINE
  5
EC
100
AcDbEntity
  8
M0
 62
     2
100
AcDbLine
 10
49.783576
 20
128.932409
 11
160.783576
 21
128.932409
  0
LINE
  5
ED
100
AcDbEntity
  8
M0
 62
     2
100
AcDbLine
 10
49.783576
 20
112.932409
 11
160.783576
 21
112.932409
  0
LINE
  5
EE
100
AcDbEntity
  8
M0
 62
     2
100
AcDbLine
 10
49.783576
 20
144.932409
 11
160.783576
 21
144.932409
  0
ARC
  5
EF
100
AcDbEntity
  8
M0
 62
     2
100
AcDbCircle
 10
33.120153
 20
98.575954
 40
5.376
100
AcDbArc
 50
52.58592
 51
127.41408
  0
ARC
  5
F0
100
AcDbEntity
  8
M0
 62
     2
100
AcDbCircle
 10
33.120153
 20
101.949925
 40
5.376
100
AcDbArc
 50
232.58592
 51
307.41408
  0
TEXT
  5
F1
100
AcDbEntity
  8
M0
 62
     2
100
AcDbText
 10
30.880139
 20
114.644227
 40
3.584
  1
全
 41
1.25
  7
STANDARD
100
AcDbText
  0
TEXT
  5
F2
100
AcDbEntity
  8
M0
 62
     2
100
AcDbText
 10
30.880139
 20
110.701828
 40
3.584
  1
揚
 41
1.25
  7
STANDARD
100
AcDbText
  0
TEXT
  5
F3
100
AcDbEntity
  8
M0
 62
     2
100
AcDbText
 10
30.880139
 20
106.759428
 40
3.584
  1
程
 41
1.25
  7
STANDARD
100
AcDbText
  0
TEXT
  5
F4
100
AcDbEntity
  8
M0
 62
     2
100
AcDbText
 10
30.880139
 20
102.817028
 40
3.584
  1
　
 41
1.25
  7
STANDARD
100
AcDbText
  0
TEXT
  5
F5
100
AcDbEntity
  8
M0
 62
     2
100
AcDbText
 10
30.880139
 20
98.874628
 40
3.584
  1
ｍ
 41
1.25
  7
STANDARD
100
AcDbText
  0
TEXT
  5
F6
100
AcDbEntity
  8
M0
 62
     2
100
AcDbText
 10
40.263376
 20
110.65238
 40
4.8
  1
３０
 41
0.611111
  7
STANDARD
100
AcDbText
  0
TEXT
  5
F7
100
AcDbEntity
  8
M0
 62
     2
100
AcDbText
 10
40.263376
 20
94.652378
 40
4.8
  1
２０
 41
0.611111
  7
STANDARD
100
AcDbText
  0
TEXT
  5
F8
100
AcDbEntity
  8
M0
 62
     2
100
AcDbText
 10
40.263376
 20
78.652378
 40
4.8
  1
１０
 41
0.611111
  7
STANDARD
100
AcDbText
  0
TEXT
  5
F9
100
AcDbEntity
  8
M0
 62
     2
100
AcDbText
 10
43.463373
 20
62.652378
 40
4.8
  1
０
 41
0.611111
  7
STANDARD
100
AcDbText
  0
TEXT
  5
FA
100
AcDbEntity
  8
M0
 62
     2
100
AcDbText
 10
46.663369
 20
56.890369
 40
4.8
  1
０
 41
0.611111
  7
STANDARD
100
AcDbText
  0
TEXT
  5
FB
100
AcDbEntity
  8
M0
 62
     2
100
AcDbText
 10
78.663369
 20
56.890369
 40
4.8
  1
２０
 41
0.611111
  7
STANDARD
100
AcDbText
  0
TEXT
  5
FC
100
AcDbEntity
  8
M0
 62
     2
100
AcDbText
 10
110.663377
 20
56.890369
 40
4.8
  1
４０
 41
0.611111
  7
STANDARD
100
AcDbText
  0
TEXT
  5
FD
100
AcDbEntity
  8
M0
 62
     2
100
AcDbText
 10
89.413233
 20
48.857361
 40
5.376
  1
揚水量（Ｌ／分）
 41
0.611111
  7
STANDARD
100
AcDbText
  0
TEXT
  5
FE
100
AcDbEntity
  8
M0
 62
     2
100
AcDbText
 10
142.663373
 20
56.890369
 40
4.8
  1
６０
 41
0.611111
  7
STANDARD
100
AcDbText
  0
TEXT
  5
FF
100
AcDbEntity
  8
M0
 62
     2
100
AcDbText
 10
62.663369
 20
56.890369
 40
4.8
  1
１０
 41
0.611111
  7
STANDARD
100
AcDbText
  0
TEXT
  5
100
100
AcDbEntity
  8
M0
 62
     2
100
AcDbText
 10
94.663377
 20
56.890369
 40
4.8
  1
３０
 41
0.611111
  7
STANDARD
100
AcDbText
  0
TEXT
  5
101
100
AcDbEntity
  8
M0
 62
     2
100
AcDbText
 10
126.663369
 20
56.890369
 40
4.8
  1
５０
 41
0.611111
  7
STANDARD
100
AcDbText
  0
TEXT
  5
102
100
AcDbEntity
  8
M0
 62
     2
100
AcDbText
 10
40.263376
 20
126.65238
 40
4.8
  1
４０
 41
0.611111
  7
STANDARD
100
AcDbText
  0
TEXT
  5
103
100
AcDbEntity
  8
M0
 62
     2
100
AcDbText
 10
40.263376
 20
142.65238
 40
4.8
  1
５０
 41
0.611111
  7
STANDARD
100
AcDbText
  0
LINE
  5
104
100
AcDbEntity
  8
M0
 62
     2
100
AcDbLine
 10
113.783576
 20
123.133359
 11
113.783576
 21
152.932409
  0
LINE
  5
105
100
AcDbEntity
  8
M0
 62
     2
100
AcDbLine
 10
113.783576
 20
111.332409
 11
129.783576
 21
106.532409
  0
LINE
  5
106
100
AcDbEntity
  8
M0
 62
     2
100
AcDbLine
 10
131.383576
 20
88.092099
 11
131.383576
 21
104.103982
  0
LINE
  5
107
100
AcDbEntity
  8
M0
 62
     2
100
AcDbLine
 10
129.783576
 20
106.532409
 11
130.79779
 21
105.518195
  0
ARC
  5
108
100
AcDbEntity
  8
M0
 62
     2
100
AcDbCircle
 10
129.383576
 20
104.103982
 40
2.0
100
AcDbArc
 50
0.0
 51
45.0
  0
LINE
  5
109
100
AcDbEntity
  8
M0
 62
     2
100
AcDbLine
 10
49.783576
 20
112.932409
 11
110.11144
 21
112.932409
  0
TEXT
  5
10A
100
AcDbEntity
  8
M0
 62
     2
100
AcDbText
 10
99.509749
 20
115.62581
 40
4.8
  1
吸上高さ１２ｍ時
 41
0.590278
  7
STANDARD
100
AcDbText
  0
LINE
  5
10B
100
AcDbEntity
  8
M0
 62
     2
100
AcDbLine
 10
111.005867
 20
112.721263
 11
113.783576
 21
111.332409
  0
ARC
  5
10C
100
AcDbEntity
  8
M0
 62
     2
100
AcDbCircle
 10
110.11144
 20
110.932409
 40
2.0
100
AcDbArc
 50
63.434949
 51
90.0
  0
LINE
  5
10D
100
AcDbEntity
  8
M0
 62
     6
100
AcDbLine
 10
311.187707
 20
183.536635
 11
383.187707
 21
183.536635
  0
LINE
  5
10E
100
AcDbEntity
  8
M0
 62
     6
100
AcDbLine
 10
311.187707
 20
271.536635
 11
311.187707
 21
183.536635
  0
LINE
  5
10F
100
AcDbEntity
  8
M0
 62
     6
100
AcDbLine
 10
343.187707
 20
183.536635
 11
343.187707
 21
231.536635
  0
LINE
  5
110
100
AcDbEntity
  8
M0
 62
     6
100
AcDbLine
 10
375.187707
 20
183.536635
 11
375.187707
 21
231.536635
  0
LINE
  5
111
100
AcDbEntity
  8
M0
 62
     6
100
AcDbLine
 10
311.187707
 20
199.536635
 11
383.187707
 21
199.536635
  0
LINE
  5
112
100
AcDbEntity
  8
M0
 62
     6
100
AcDbLine
 10
311.187707
 20
215.536635
 11
383.187707
 21
215.536635
  0
LINE
  5
113
100
AcDbEntity
  8
M0
 62
     6
100
AcDbLine
 10
343.187707
 20
231.536635
 11
343.187707
 21
247.536635
  0
LINE
  5
114
100
AcDbEntity
  8
M0
 62
     6
100
AcDbLine
 10
327.187707
 20
183.536635
 11
327.187707
 21
271.536635
  0
LINE
  5
115
100
AcDbEntity
  8
M0
 62
     6
100
AcDbLine
 10
359.187707
 20
183.536635
 11
359.187707
 21
231.536635
  0
LINE
  5
116
100
AcDbEntity
  8
M0
 62
     6
100
AcDbLine
 10
311.187707
 20
247.536635
 11
383.187707
 21
247.536635
  0
LINE
  5
117
100
AcDbEntity
  8
M0
 62
     6
100
AcDbLine
 10
311.187707
 20
231.536635
 11
383.187707
 21
231.536635
  0
LINE
  5
118
100
AcDbEntity
  8
M0
 62
     6
100
AcDbLine
 10
311.187707
 20
263.536635
 11
383.187707
 21
263.536635
  0
LINE
  5
119
100
AcDbEntity
  8
M0
 62
     6
100
AcDbLine
 10
311.187707
 20
250.736635
 11
325.453116
 21
250.736635
  0
LINE
  5
11A
100
AcDbEntity
  8
M0
 62
     6
100
AcDbLine
 10
328.787707
 20
239.3945
 11
328.787707
 21
223.253298
  0
LINE
  5
11B
100
AcDbEntity
  8
M0
 62
     6
100
AcDbLine
 10
327.433015
 20
249.019478
 11
328.767606
 21
239.677342
  0
LINE
  5
11C
100
AcDbEntity
  8
M0
 62
     6
100
AcDbLine
 10
311.187707
 20
241.136635
 11
340.587707
 21
241.136635
  0
LINE
  5
11D
100
AcDbEntity
  8
M0
 62
     6
100
AcDbLine
 10
342.187707
 20
240.336635
 11
348.45312
 21
231.982751
  0
LINE
  5
11E
100
AcDbEntity
  8
M0
 62
     6
100
AcDbLine
 10
349.587707
 20
223.536635
 11
349.587707
 21
212.269962
  0
LINE
  5
11F
100
AcDbEntity
  8
M0
 62
     6
100
AcDbLine
 10
348.843195
 20
230.981758
 11
349.587707
 21
223.536635
  0
ARC
  5
120
100
AcDbEntity
  8
M0
 62
     6
100
AcDbCircle
 10
325.453116
 20
248.736635
 40
2.0
100
AcDbArc
 50
8.130102
 51
90.0
  0
ARC
  5
121
100
AcDbEntity
  8
M0
 62
     6
100
AcDbCircle
 10
326.787707
 20
239.3945
 40
2.0
100
AcDbArc
 50
0.0
 51
8.130102
  0
ARC
  5
122
100
AcDbEntity
  8
M0
 62
     6
100
AcDbCircle
 10
340.587707
 20
239.136635
 40
2.0
100
AcDbArc
 50
36.869898
 51
90.0
  0
ARC
  5
123
100
AcDbEntity
  8
M0
 62
     6
100
AcDbCircle
 10
346.85312
 20
230.782751
 40
2.0
100
AcDbArc
 50
5.710593
 51
36.869898
  0
ARC
  5
124
100
AcDbEntity
  8
M0
 62
     6
100
AcDbCircle
 10
295.631884
 20
211.815134
 40
5.376
100
AcDbArc
 50
52.58592
 51
127.41408
  0
ARC
  5
125
100
AcDbEntity
  8
M0
 62
     6
100
AcDbCircle
 10
295.631884
 20
215.189104
 40
5.376
100
AcDbArc
 50
232.58592
 51
307.41408
  0
TEXT
  5
126
100
AcDbEntity
  8
M0
 62
     6
100
AcDbText
 10
293.391886
 20
227.883402
 40
3.584
  1
全
 41
1.25
  7
STANDARD
100
AcDbText
  0
TEXT
  5
127
100
AcDbEntity
  8
M0
 62
     6
100
AcDbText
 10
293.391886
 20
223.941002
 40
3.584
  1
揚
 41
1.25
  7
STANDARD
100
AcDbText
  0
TEXT
  5
128
100
AcDbEntity
  8
M0
 62
     6
100
AcDbText
 10
293.391886
 20
219.998603
 40
3.584
  1
程
 41
1.25
  7
STANDARD
100
AcDbText
  0
TEXT
  5
129
100
AcDbEntity
  8
M0
 62
     6
100
AcDbText
 10
293.391886
 20
216.056203
 40
3.584
  1
　
 41
1.25
  7
STANDARD
100
AcDbText
  0
TEXT
  5
12A
100
AcDbEntity
  8
M0
 62
     6
100
AcDbText
 10
293.391886
 20
212.113803
 40
3.584
  1
ｍ
 41
1.25
  7
STANDARD
100
AcDbText
  0
TEXT
  5
12B
100
AcDbEntity
  8
M0
 62
     6
100
AcDbText
 10
301.667503
 20
229.256602
 40
4.8
  1
３０
 41
0.611111
  7
STANDARD
100
AcDbText
  0
TEXT
  5
12C
100
AcDbEntity
  8
M0
 62
     6
100
AcDbText
 10
301.667503
 20
213.2566
 40
4.8
  1
２０
 41
0.611111
  7
STANDARD
100
AcDbText
  0
TEXT
  5
12D
100
AcDbEntity
  8
M0
 62
     6
100
AcDbText
 10
301.667503
 20
197.256608
 40
4.8
  1
１０
 41
0.611111
  7
STANDARD
100
AcDbText
  0
TEXT
  5
12E
100
AcDbEntity
  8
M0
 62
     6
100
AcDbText
 10
304.8675
 20
181.256601
 40
4.8
  1
０
 41
0.611111
  7
STANDARD
100
AcDbText
  0
TEXT
  5
12F
100
AcDbEntity
  8
M0
 62
     6
100
AcDbText
 10
308.067512
 20
177.494591
 40
4.8
  1
０
 41
0.611111
  7
STANDARD
100
AcDbText
  0
TEXT
  5
130
100
AcDbEntity
  8
M0
 62
     6
100
AcDbText
 10
340.067481
 20
177.494591
 40
4.8
  1
２０
 41
0.611111
  7
STANDARD
100
AcDbText
  0
TEXT
  5
131
100
AcDbEntity
  8
M0
 62
     6
100
AcDbText
 10
372.067512
 20
177.494591
 40
4.8
  1
４０
 41
0.611111
  7
STANDARD
100
AcDbText
  0
TEXT
  5
132
100
AcDbEntity
  8
M0
 62
     6
100
AcDbText
 10
334.45305
 20
171.171525
 40
5.376
  1
揚水量（Ｌ／分）
 41
0.611111
  7
STANDARD
100
AcDbText
  0
TEXT
  5
133
100
AcDbEntity
  8
M0
 62
     6
100
AcDbText
 10
324.067512
 20
177.494591
 40
4.8
  1
１０
 41
0.611111
  7
STANDARD
100
AcDbText
  0
TEXT
  5
134
100
AcDbEntity
  8
M0
 62
     6
100
AcDbText
 10
356.067512
 20
177.494591
 40
4.8
  1
３０
 41
0.611111
  7
STANDARD
100
AcDbText
  0
TEXT
  5
135
100
AcDbEntity
  8
M0
 62
     6
100
AcDbText
 10
301.667503
 20
245.256606
 40
4.8
  1
４０
 41
0.611111
  7
STANDARD
100
AcDbText
  0
TEXT
  5
136
100
AcDbEntity
  8
M0
 62
     6
100
AcDbText
 10
301.667503
 20
261.256606
 40
4.8
  1
５０
 41
0.611111
  7
STANDARD
100
AcDbText
  0
LINE
  5
137
100
AcDbEntity
  8
M0
 62
     6
100
AcDbLine
 10
343.187707
 20
257.187783
 11
343.187707
 21
271.536635
  0
LINE
  5
138
100
AcDbEntity
  8
M0
 62
     6
100
AcDbLine
 10
359.187707
 20
240.938891
 11
359.187707
 21
271.536635
  0
LINE
  5
139
100
AcDbEntity
  8
M0
 62
     6
100
AcDbLine
 10
375.187707
 20
240.938891
 11
375.187707
 21
263.536635
  0
LINE
  5
13A
100
AcDbEntity
  8
M0
100
AcDbLine
 10
291.039537
 20
277.356577
 11
291.039539
 21
283.116578
  0
LINE
  5
13B
100
AcDbEntity
  8
M0
100
AcDbLine
 10
291.039539
 20
283.116578
 11
308.799539
 21
283.116578
  0
LINE
  5
13C
100
AcDbEntity
  8
M0
100
AcDbLine
 10
308.799539
 20
283.116578
 11
308.799537
 21
277.356577
  0
LINE
  5
13D
100
AcDbEntity
  8
M0
100
AcDbLine
 10
308.799537
 20
277.356577
 11
291.039537
 21
277.356577
  0
TEXT
  5
13E
100
AcDbEntity
  8
M0
100
AcDbText
 10
291.702871
 20
277.836578
 40
4.8
  1
　深井戸　　　シングルジェット（Ｊ４０－２４ＳＳ）使用時
 41
0.590278
  7
STANDARD
100
AcDbText
  0
TEXT
  5
13F
100
AcDbEntity
  8
M0
100
AcDbText
 10
363.793317
 20
264.786277
 40
4.8
  1
吸込管（Ｂ）３０ｍｍ
 41
0.590278
  7
STANDARD
100
AcDbText
  0
LINE
  5
140
100
AcDbEntity
  8
M0
100
AcDbLine
 10
198.949755
 20
250.736635
 11
222.121328
 21
250.736635
  0
ARC
  5
141
100
AcDbEntity
  8
M0
100
AcDbCircle
 10
222.121328
 20
248.736635
 40
2.0
100
AcDbArc
 50
45.0
 51
90.0
  0
LINE
  5
142
100
AcDbEntity
  8
M0
100
AcDbLine
 10
223.535542
 20
250.150849
 11
226.149755
 21
247.536635
  0
LINE
  5
143
100
AcDbEntity
  8
M0
100
AcDbLine
 10
226.149755
 20
247.536635
 11
238.059156
 21
239.597035
  0
ARC
  5
144
100
AcDbEntity
  8
M0
100
AcDbCircle
 10
236.949755
 20
237.932934
 40
2.0
100
AcDbArc
 50
0.0
 51
56.309932
  0
LINE
  5
145
100
AcDbEntity
  8
M0
100
AcDbLine
 10
238.949755
 20
237.932934
 11
238.949755
 21
223.109317
  0
LINE
  5
146
100
AcDbEntity
  8
M0
100
AcDbLine
 10
198.949755
 20
241.136635
 11
238.395787
 21
241.136635
  0
ARC
  5
147
100
AcDbEntity
  8
M0
100
AcDbCircle
 10
238.395787
 20
239.136635
 40
2.0
100
AcDbArc
 50
59.036243
 51
90.0
  0
LINE
  5
148
100
AcDbEntity
  8
M0
100
AcDbLine
 10
246.833363
 20
236.406471
 11
239.424779
 21
240.851621
  0
LINE
  5
149
100
AcDbEntity
  8
M0
100
AcDbLine
 10
247.074516
 20
236.283166
 11
256.937594
 21
232.056133
  0
ARC
  5
14A
100
AcDbEntity
  8
M0
100
AcDbCircle
 10
256.149755
 20
230.217843
 40
2.0
100
AcDbArc
 50
0.0
 51
66.801409
  0
LINE
  5
14B
100
AcDbEntity
  8
M0
100
AcDbLine
 10
258.149755
 20
211.973988
 11
258.149755
 21
230.217843
  0
LINE
  5
14C
100
AcDbEntity
  8
M0
100
AcDbLine
 10
198.949755
 20
149.732409
 11
212.521328
 21
149.732409
  0
ARC
  5
14D
100
AcDbEntity
  8
M0
100
AcDbCircle
 10
212.521328
 20
147.732409
 40
2.0
100
AcDbArc
 50
45.0
 51
90.0
  0
LINE
  5
14E
100
AcDbEntity
  8
M0
100
AcDbLine
 10
213.935542
 20
149.146623
 11
219.163969
 21
143.918195
  0
ARC
  5
14F
100
AcDbEntity
  8
M0
100
AcDbCircle
 10
217.749755
 20
142.503982
 40
2.0
100
AcDbArc
 50
0.0
 51
45.0
  0
LINE
  5
150
100
AcDbEntity
  8
M0
100
AcDbLine
 10
219.749755
 20
142.503982
 11
219.749755
 21
120.934561
  0
LINE
  5
151
100
AcDbEntity
  8
M0
100
AcDbLine
 10
198.949755
 20
141.732409
 11
221.756167
 21
141.732409
  0
ARC
  5
152
100
AcDbEntity
  8
M0
100
AcDbCircle
 10
221.756167
 20
139.732409
 40
2.0
100
AcDbArc
 50
28.342976
 51
90.0
  0
LINE
  5
153
100
AcDbEntity
  8
M0
100
AcDbLine
 10
223.51641
 20
140.681906
 11
225.909998
 21
136.244506
  0
LINE
  5
154
100
AcDbEntity
  8
M0
100
AcDbLine
 10
226.149755
 20
112.932409
 11
226.149755
 21
135.295009
  0
ARC
  5
155
100
AcDbEntity
  8
M0
100
AcDbCircle
 10
224.149755
 20
135.295009
 40
2.0
100
AcDbArc
 50
0.0
 51
28.342976
  0
ENDSEC
  0
SECTION
  2
OBJECTS
  0
DICTIONARY
  5
C
100
AcDbDictionary
  3
ACAD_GROUP
350
D
  3
ACAD_MLINESTYLE
350
E
  0
DICTIONARY
  5
D
102
{ACAD_REACTORS
330
C
102
}
100
AcDbDictionary
  0
DICTIONARY
  5
E
102
{ACAD_REACTORS
330
C
102
}
100
AcDbDictionary
  3
STANDARD
350
13
  0
MLINESTYLE
  5
13
102
{ACAD_REACTORS
330
E
102
}
100
AcDbMlineStyle
  2
STANDARD
 70
     0
  3

 62
     0
 51
90.0
 52
90.0
 71
     2
 49
0.5
 62
   256
  6
BYLAYER
 49
-0.5
 62
   256
  6
BYLAYER
  0
ENDSEC
  0
EOF
