  0
SECTION
  2
HEADER
  9
$ACADVER
  1
AC1012
  9
$INSBASE
 10
0.0
 20
0.0
  9
$VIEWCTR
 10
7.531722
 20
4.5
  9
$VIEWSIZE
 40
9.0
  9
$SNAPMODE
 70
     0
  9
$SNAPUNIT
 10
1.0
 20
1.0
  9
$SNAPBASE
 10
0.0
 20
0.0
  9
$SNAPANG
 50
0.0
  9
$SNAPSTYLE
 70
     0
  9
$SNAPISOPAIR
 70
     0
  9
$GRIDMODE
 70
     0
  9
$GRIDUNIT
 10
0.0
 20
0.0
  9
$ORTHOMODE
 70
     0
  9
$REGENMODE
 70
     1
  9
$FILLMODE
 70
     1
  9
$QTEXTMODE
 70
     0
  9
$DRAGMODE
 70
     2
  9
$LTSCALE
 40
1.0
  9
$OSMODE
 70
     0
  9
$ATTMODE
 70
     1
  9
$TEXTSIZE
 40
0.2
  9
$TRACEWID
 40
0.05
  9
$TEXTSTYLE
  7
STANDARD
  9
$CELTYPE
  6
BYLAYER
  9
$CECOLOR
 62
   256
  9
$DIMSCALE
 40
1.0
  9
$DIMASZ
 40
0.18
  9
$DIMEXO
 40
0.0625
  9
$DIMDLI
 40
0.38
  9
$DIMRND
 40
0.0
  9
$DIMDLE
 40
0.0
  9
$DIMEXE
 40
0.18
  9
$DIMTP
 40
0.0
  9
$DIMTM
 40
0.0
  9
$DIMTXT
 40
0.18
  9
$DIMCEN
 40
0.09
  9
$DIMTSZ
 40
0.0
  9
$DIMTOL
 70
     0
  9
$DIMLIM
 70
     0
  9
$DIMTIH
 70
     1
  9
$DIMTOH
 70
     1
  9
$DIMSE1
 70
     0
  9
$DIMSE2
 70
     0
  9
$DIMTAD
 70
     0
  9
$DIMZIN
 70
     0
  9
$DIMBLK
  1

  9
$LUNITS
 70
     2
  9
$LUPREC
 70
     4
  9
$AXISMODE
 70
     0
  9
$AXISUNIT
 10
0.0
 20
0.0
  9
$SKETCHINC
 40
0.1
  9
$FILLETRAD
 40
0.0
  9
$AUNITS
 70
     0
  9
$AUPREC
 70
     0
  9
$MENU
  1
ACAD
  9
$ELEVATION
 40
0.0
  9
$THICKNESS
 40
0.0
  9
$VIEWDIR
 10
0.0
 20
0.0
 30
1.0
  9
$LIMCHECK
 70
     0
  9
$BLIPMODE
 70
     1
  9
$CHAMFERA
 40
0.0
  9
$CHAMFERB
 40
0.0
  9
$FASTZOOM
 70
     1
  9
$SKPOLY
 70
     0
  9
$TDCREATE
 40
0000000.0000000000
  9
$TDUPDATE
 40
0000000.0000000000
  9
$TDINDWG
 40
0.0000000000
  9
$TDUSRTIMER
 40
0.0000000000
  9
$USRTIMER
 70
     1
  9
$ANGBASE
 50
0.0
  9
$ANGDIR
 70
     0
  9
$PDMODE
 70
     0
  9
$PDSIZE
 40
0.0
  9
$PLINEWID
 40
0.0
  9
$COORDS
 70
     0
  9
$USERI1
 70
     0
  9
$USERI2
 70
     0
  9
$USERI3
 70
     0
  9
$USERI4
 70
     0
  9
$USERI5
 70
     0
  9
$USERR1
 40
0.0
  9
$USERR2
 40
0.0
  9
$USERR3
 40
0.0
  9
$USERR4
 40
0.0
  9
$USERR5
 40
0.0
  9
$CLAYER
  8
M80
  9
$EXTMIN
 10
0.0
 20
0.0
  9
$EXTMAX
 10
420.0
 20
297.0
  9
$LIMMIN
 10
0.0
 20
0.0
  9
$LIMMAX
 10
420.0
 20
297.0
  9
$HANDSEED
  5
15B
  0
ENDSEC
  0
SECTION
  2
CLASSES
  0
ENDSEC
  0
SECTION
  2
TABLES
  0
TABLE
  2
VPORT
  5
8
100
AcDbSymbolTable
 70
     2
  0
VPORT
  5
14
100
AcDbSymbolTableRecord
100
AcDbViewportTableRecord
  2
*ACTIVE
 70
     0
 10
0.0
 20
0.0
 11
1.0
 21
1.0
 12
484.0
 22
297.0
 13
0.0
 23
0.0
 14
1.0
 24
1.0
 15
0.0
 25
0.0
 16
0.0
 26
0.0
 36
1.0
 17
0.0
 27
0.0
 37
0.0
 40
594.0
 41
2.0
 42
50.0
 43
0.0
 44
0.0
 50
0.0
 51
0.0
 71
     0
 72
   100
 73
     1
 74
     1
 75
     0
 76
     0
 77
     0
 78
     0
  0
ENDTAB
  0
TABLE
  2
LTYPE
  5
5
100
AcDbSymbolTable
 70
     5
  0
LTYPE
  5
15
100
AcDbSymbolTableRecord
100
AcDbLinetypeTableRecord
  2
BYBLOCK
 70
     0
  3

 72
    65
 73
     0
 40
0.0
  0
LTYPE
  5
16
100
AcDbSymbolTableRecord
100
AcDbLinetypeTableRecord
  2
BYLAYER
 70
     0
  3

 72
    65
 73
     0
 40
0.0
  0
LTYPE
  5
17
100
AcDbSymbolTableRecord
100
AcDbLinetypeTableRecord
  2
CONTINUOUS
 70
    64
  3
Solid line
 72
    65
 73
     0
 40
0.0
  0
LTYPE
  5
18
100
AcDbSymbolTableRecord
100
AcDbLinetypeTableRecord
  2
DASHED
 70
    64
  3
__ __ __ __ __ __ __ __ __ __ __ __ __ __ __ __
 72
    65
 73
     2
 40
0.75
 49
0.5
 74
     0
 49
-0.25
 74
     0
  0
LTYPE
  5
19
100
AcDbSymbolTableRecord
100
AcDbLinetypeTableRecord
  2
DASHDOT
 70
    64
  3
__ . __ . __ . __ . __ . __ . __ . __ . __ . __
 72
    65
 73
     4
 40
1.0
 49
0.5
 74
     0
 49
-0.25
 74
     0
 49
0.0
 74
     0
 49
-0.25
 74
     0
  0
LTYPE
  5
1A
100
AcDbSymbolTableRecord
100
AcDbLinetypeTableRecord
  2
DIVIDE
 70
    64
  3
____ . . ____ . . ____ . . ____ . . ____ . . __
 72
    65
 73
     6
 40
1.25
 49
0.5
 74
     0
 49
-0.25
 74
     0
 49
0.0
 74
     0
 49
-0.25
 74
     0
 49
0.0
 74
     0
 49
-0.25
 74
     0
  0
LTYPE
  5
1B
100
AcDbSymbolTableRecord
100
AcDbLinetypeTableRecord
  2
DOT
 70
    64
  3
. . . . . . . . . . . . . . . . . . . . . . . .
 72
    65
 73
     2
 40
0.25
 49
0.0
 74
     0
 49
-0.25
 74
     0
  0
ENDTAB
  0
TABLE
  2
LAYER
  5
2
100
AcDbSymbolTable
 70
   102
  0
LAYER
  5
F
100
AcDbSymbolTableRecord
100
AcDbLayerTableRecord
  2
0
 70
     0
 62
     7
  6
CONTINUOUS
  0
LAYER
  5
1C
100
AcDbSymbolTableRecord
100
AcDbLayerTableRecord
  2
DEFPOINTS
 70
     0
 62
     7
  6
CONTINUOUS
  0
LAYER
  5
1D
100
AcDbSymbolTableRecord
100
AcDbLayerTableRecord
  2
M0
 70
     0
 62
     3
  6
CONTINUOUS
  0
ENDTAB
  0
TABLE
  2
STYLE
  5
3
100
AcDbSymbolTable
 70
     2
  0
STYLE
  5
10
100
AcDbSymbolTableRecord
100
AcDbTextStyleTableRecord
  2
STANDARD
 70
     0
 40
0.0
 41
1.0
 50
0.0
 71
     0
 42
0.2
  3
txt
  4
BIGFONT
  0
ENDTAB
  0
TABLE
  2
VIEW
  5
6
100
AcDbSymbolTable
 70
     0
  0
ENDTAB
  0
TABLE
  2
UCS
  5
7
100
AcDbSymbolTable
 70
     0
  0
ENDTAB
  0
TABLE
  2
APPID
  5
9
100
AcDbSymbolTable
 70
     1
  0
APPID
  5
11
100
AcDbSymbolTableRecord
100
AcDbRegAppTableRecord
  2
ACAD
 70
     0
  0
ENDTAB
  0
TABLE
  2
DIMSTYLE
  5
A
100
AcDbSymbolTable
 70
     2
  0
DIMSTYLE
105
24
100
AcDbSymbolTableRecord
100
AcDbDimStyleTableRecord
  2
STANDARD
 70
     0
  3

  4

  5

  6
_OPEN
  7
_OPEN
 40
1.0
 41
3.0
 42
0.0
 43
8.0
 44
1.5
 45
0.0
 46
0.0
 47
0.0
 48
0.0
140
3.5
141
0.09
142
0.0
143
0.03937
144
1.0
145
0.0
146
1.0
147
1.0
 71
     0
 72
     0
 73
     0
 74
     0
 75
     0
 76
     0
 77
     3
 78
     8
170
     0
171
     2
172
     0
173
     1
174
     0
175
     0
176
     0
177
     0
178
     0
270
     2
271
     2
272
     4
273
     2
274
     2
340
10
275
     0
280
     0
281
     0
282
     0
283
     1
284
     0
285
     0
286
     0
287
     3
288
     0
  0
DIMSTYLE
105
25
100
AcDbSymbolTableRecord
100
AcDbDimStyleTableRecord
  2
LEADSTYL
 70
     0
  3

  4

  5

  6
_OPEN
  7
_OPEN
 40
1.0
 41
3.0
 42
0.0625
 43
0.38
 44
0.18
 45
0.0
 46
0.0
 47
0.0
 48
0.0
140
3.2
141
0.09
142
0.0
143
25.4
144
1.0
145
0.0
146
1.0
147
1.0
 71
     0
 72
     0
 73
     1
 74
     1
 75
     0
 76
     0
 77
     0
 78
     0
170
     0
171
     2
172
     0
173
     1
174
     0
175
     0
176
     0
177
     0
178
     0
270
     2
271
     4
272
     4
273
     2
274
     2
340
10
275
     0
280
     0
281
     0
282
     0
283
     1
284
     0
285
     0
286
     0
287
     3
288
     0
  0
ENDTAB
  0
TABLE
  2
BLOCK_RECORD
  5
1
100
AcDbSymbolTable
 70
     6
  0
BLOCK_RECORD
  5
1E
100
AcDbSymbolTableRecord
100
AcDbBlockTableRecord
  2
*MODEL_SPACE
  0
BLOCK_RECORD
  5
21
100
AcDbSymbolTableRecord
100
AcDbBlockTableRecord
  2
*PAPER_SPACE
  0
BLOCK_RECORD
  5
26
100
AcDbSymbolTableRecord
100
AcDbBlockTableRecord
  2
_NONE
  0
BLOCK_RECORD
  5
2A
100
AcDbSymbolTableRecord
100
AcDbBlockTableRecord
  2
_OPEN
  0
BLOCK_RECORD
  5
30
100
AcDbSymbolTableRecord
100
AcDbBlockTableRecord
  2
_CLOSED
  0
BLOCK_RECORD
  5
37
100
AcDbSymbolTableRecord
100
AcDbBlockTableRecord
  2
_ORIGIN
  0
BLOCK_RECORD
  5
3C
100
AcDbSymbolTableRecord
100
AcDbBlockTableRecord
  2
_DOT
  0
BLOCK_RECORD
  5
44
100
AcDbSymbolTableRecord
100
AcDbBlockTableRecord
  2
_OBLIQUE
  0
ENDTAB
  0
ENDSEC
  0
SECTION
  2
BLOCKS
  0
BLOCK
  5
1F
100
AcDbEntity
  8
0
100
AcDbBlockBegin
  2
*MODEL_SPACE
 70
     0
 10
0.0
 20
0.0
 30
0.0
  3
*MODEL_SPACE
  1

  0
ENDBLK
  5
20
100
AcDbEntity
  8
0
100
AcDbBlockEnd
  0
BLOCK
  5
22
100
AcDbEntity
 67
     1
  8
0
100
AcDbBlockBegin
  2
*PAPER_SPACE
 70
     0
 10
0.0
 20
0.0
 30
0.0
  3
*PAPER_SPACE
  1

  0
ENDBLK
  5
23
100
AcDbEntity
 67
     1
  8
0
100
AcDbBlockEnd
  0
BLOCK
  5
27
100
AcDbEntity
  8
0
100
AcDbBlockBegin
  2
_NONE
 70
     0
 10
0.0
 20
0.0
  0
CIRCLE
  5
28
100
AcDbEntity
  8
0
 62
     0
100
AcDbCircle
 10
0.0
 20
0.0
 40
0.25
  0
ENDBLK
  5
29
100
AcDbEntity
  8
0
100
AcDbBlockEnd
  0
BLOCK
  5
2B
100
AcDbEntity
  8
0
100
AcDbBlockBegin
  2
_OPEN
 70
     0
 10
0.0
 20
0.0
  0
LINE
  5
2C
100
AcDbEntity
  8
0
 62
     0
100
AcDbLine
 10
-0.965926
 20
0.258819
 11
0.0
 21
0.0
  0
LINE
  5
2D
100
AcDbEntity
  8
0
 62
     0
100
AcDbLine
 10
0.0
 20
0.0
 11
-0.965926
 21
-0.258819
  0
LINE
  5
2E
100
AcDbEntity
  8
0
 62
     0
100
AcDbLine
 10
0.0
 20
0.0
 11
-1.0
 21
0.0
  0
ENDBLK
  5
2F
100
AcDbEntity
  8
0
100
AcDbBlockEnd
  0
BLOCK
  5
31
100
AcDbEntity
  8
0
100
AcDbBlockBegin
  2
_CLOSED
 70
     0
 10
0.0
 20
0.0
  0
LINE
  5
32
100
AcDbEntity
  8
0
 62
     0
100
AcDbLine
 10
-0.965926
 20
0.258819
 11
0.0
 21
0.0
  0
LINE
  5
33
100
AcDbEntity
  8
0
 62
     0
100
AcDbLine
 10
0.0
 20
0.0
 11
-0.965926
 21
-0.258819
  0
LINE
  5
34
100
AcDbEntity
  8
0
 62
     0
100
AcDbLine
 10
-0.965926
 20
0.258819
 11
-0.965926
 21
-0.258819
  0
LINE
  5
35
100
AcDbEntity
  8
0
 62
     0
100
AcDbLine
 10
0.0
 20
0.0
 11
-1.0
 21
0.0
  0
ENDBLK
  5
36
100
AcDbEntity
  8
0
100
AcDbBlockEnd
  0
BLOCK
  5
38
100
AcDbEntity
  8
0
100
AcDbBlockBegin
  2
_ORIGIN
 70
     0
 10
0.0
 20
0.0
  0
CIRCLE
  5
39
100
AcDbEntity
  8
0
 62
     0
100
AcDbCircle
 10
0.0
 20
0.0
 40
0.5
  0
LINE
  5
3A
100
AcDbEntity
  8
0
 62
     0
100
AcDbLine
 10
0.0
 20
0.0
 11
-1.0
 21
0.0
  0
ENDBLK
  5
3B
100
AcDbEntity
  8
0
100
AcDbBlockEnd
  0
BLOCK
  5
3D
100
AcDbEntity
  8
0
100
AcDbBlockBegin
  2
_DOT
 70
     0
 10
0.0
 20
0.0
  0
POLYLINE
  5
3E
100
AcDbEntity
  8
0
 62
     0
100
AcDb2dPolyline
 66
     1
 70
     1
 40
0.5
 41
0.5
  0
VERTEX
  5
3F
100
AcDbEntity
  8
0
 62
     0
100
AcDbVertex
100
AcDb2dVertex
 10
-0.25
 20
0.0
 42
1.0
  0
VERTEX
  5
40
100
AcDbEntity
  8
0
 62
     0
100
AcDbVertex
100
AcDb2dVertex
 10
0.25
 20
0.0
 42
1.0
  0
SEQEND
  5
41
100
AcDbEntity
  8
0
 62
     0
  0
LINE
  5
42
100
AcDbEntity
  8
0
 62
     0
100
AcDbLine
 10
-0.5
 20
0.0
 11
-1.0
 21
0.0
  0
ENDBLK
  5
43
100
AcDbEntity
  8
0
100
AcDbBlockEnd
  0
BLOCK
  5
45
100
AcDbEntity
  8
0
100
AcDbBlockBegin
  2
_OBLIQUE
 70
     0
 10
0.0
 20
0.0
  0
LINE
  5
46
100
AcDbEntity
  8
0
 62
     0
100
AcDbLine
 10
-0.353553
 20
-0.353553
 11
0.353553
 21
0.353553
  0
ENDBLK
  5
47
100
AcDbEntity
  8
0
100
AcDbBlockEnd
  0
ENDSEC
  0
SECTION
  2
ENTITIES
  0
LINE
  5
48
100
AcDbEntity
  8
M0
 62
     4
100
AcDbLine
 10
55.100194
 20
270.076213
 11
55.100194
 21
190.876213
  0
LINE
  5
49
100
AcDbEntity
  8
M0
 62
     4
100
AcDbLine
 10
55.100194
 20
190.876213
 11
155.000194
 21
190.876213
  0
LINE
  5
4A
100
AcDbEntity
  8
M0
 62
     4
100
AcDbLine
 10
83.900194
 20
190.876213
 11
83.900194
 21
234.076213
  0
LINE
  5
4B
100
AcDbEntity
  8
M0
 62
     4
100
AcDbLine
 10
112.700194
 20
190.876213
 11
112.700194
 21
234.076213
  0
LINE
  5
4C
100
AcDbEntity
  8
M0
 62
     4
100
AcDbLine
 10
141.500194
 20
190.876213
 11
141.500194
 21
262.876213
  0
LINE
  5
4D
100
AcDbEntity
  8
M0
 62
     4
100
AcDbLine
 10
55.100194
 20
205.276213
 11
155.000194
 21
205.276213
  0
LINE
  5
4E
100
AcDbEntity
  8
M0
 62
     4
100
AcDbLine
 10
55.100194
 20
219.676213
 11
155.000194
 21
219.676213
  0
LINE
  5
4F
100
AcDbEntity
  8
M0
 62
     4
100
AcDbLine
 10
83.900194
 20
234.076213
 11
83.900194
 21
270.076213
  0
LINE
  5
50
100
AcDbEntity
  8
M0
 62
     4
100
AcDbLine
 10
69.500194
 20
190.876213
 11
69.500194
 21
270.076213
  0
LINE
  5
51
100
AcDbEntity
  8
M0
 62
     4
100
AcDbLine
 10
98.300194
 20
190.876213
 11
98.300194
 21
270.076213
  0
LINE
  5
52
100
AcDbEntity
  8
M0
 62
     4
100
AcDbLine
 10
127.100194
 20
190.876213
 11
127.100194
 21
270.076213
  0
LINE
  5
53
100
AcDbEntity
  8
M0
 62
     4
100
AcDbLine
 10
55.100194
 20
248.476213
 11
155.000194
 21
248.476213
  0
LINE
  5
54
100
AcDbEntity
  8
M0
 62
     4
100
AcDbLine
 10
55.100194
 20
234.076213
 11
155.000194
 21
234.076213
  0
LINE
  5
55
100
AcDbEntity
  8
M0
 62
     4
100
AcDbLine
 10
55.100194
 20
262.876213
 11
155.000194
 21
262.876213
  0
LINE
  5
56
100
AcDbEntity
  8
M0
 62
     4
100
AcDbLine
 10
112.700194
 20
242.670174
 11
112.700194
 21
270.076213
  0
LINE
  5
57
100
AcDbEntity
  8
M0
  6
DASHED
 62
     4
100
AcDbLine
 10
55.100194
 20
226.876213
 11
123.838208
 21
226.876213
  0
LINE
  5
58
100
AcDbEntity
  8
M0
 62
     4
100
AcDbLine
 10
124.569257
 20
226.721073
 11
137.180194
 21
221.116213
  0
LINE
  5
59
100
AcDbEntity
  8
M0
 62
     4
100
AcDbLine
 10
137.180194
 20
221.116213
 11
141.500194
 21
216.796213
  0
LINE
  5
5A
100
AcDbEntity
  8
M0
 62
     4
100
AcDbLine
 10
142.940194
 20
213.916213
 11
145.82028
 21
199.515785
  0
LINE
  5
5B
100
AcDbEntity
  8
M0
 62
     4
100
AcDbLine
 10
141.500194
 20
216.796213
 11
142.940194
 21
213.916213
  0
ARC
  5
5C
100
AcDbEntity
  8
M0
 62
     4
100
AcDbCircle
 10
123.838208
 20
225.076213
 40
1.8
100
AcDbArc
 50
66.037511
 51
90.0
  0
TEXT
  5
5D
100
AcDbEntity
  8
M0
 62
     4
100
AcDbText
 10
39.283639
 20
232.462638
 40
3.2256
  1
全
 41
1.25
  7
STANDARD
100
AcDbText
  0
TEXT
  5
5E
100
AcDbEntity
  8
M0
 62
     4
100
AcDbText
 10
39.283639
 20
228.914478
 40
3.2256
  1
揚
 41
1.25
  7
STANDARD
100
AcDbText
  0
TEXT
  5
5F
100
AcDbEntity
  8
M0
 62
     4
100
AcDbText
 10
39.283639
 20
225.366319
 40
3.2256
  1
程
 41
1.25
  7
STANDARD
100
AcDbText
  0
TEXT
  5
60
100
AcDbEntity
  8
M0
 62
     4
100
AcDbText
 10
39.283639
 20
221.818159
 40
3.2256
  1
　
 41
1.25
  7
STANDARD
100
AcDbText
  0
TEXT
  5
61
100
AcDbEntity
  8
M0
 62
     4
100
AcDbText
 10
39.283639
 20
218.269999
 40
3.2256
  1
ｍ
 41
1.25
  7
STANDARD
100
AcDbText
  0
ARC
  5
62
100
AcDbEntity
  8
M0
 62
     4
100
AcDbCircle
 10
41.299641
 20
218.001199
 40
4.8384
100
AcDbArc
 50
52.58592
 51
127.41408
  0
ARC
  5
63
100
AcDbEntity
  8
M0
 62
     4
100
AcDbCircle
 10
41.299641
 20
221.037773
 40
4.8384
100
AcDbArc
 50
232.58592
 51
307.41408
  0
TEXT
  5
64
100
AcDbEntity
  8
M0
 62
     4
100
AcDbText
 10
46.532013
 20
232.024183
 40
4.32
  1
３０
 41
0.611111
  7
STANDARD
100
AcDbText
  0
TEXT
  5
65
100
AcDbEntity
  8
M0
 62
     4
100
AcDbText
 10
46.532013
 20
217.624183
 40
4.32
  1
２０
 41
0.611111
  7
STANDARD
100
AcDbText
  0
TEXT
  5
66
100
AcDbEntity
  8
M0
 62
     4
100
AcDbText
 10
46.532013
 20
203.224185
 40
4.32
  1
１０
 41
0.611111
  7
STANDARD
100
AcDbText
  0
TEXT
  5
67
100
AcDbEntity
  8
M0
 62
     4
100
AcDbText
 10
49.41201
 20
188.82418
 40
4.32
  1
０
 41
0.611111
  7
STANDARD
100
AcDbText
  0
TEXT
  5
68
100
AcDbEntity
  8
M0
 62
     4
100
AcDbText
 10
52.292009
 20
185.438373
 40
4.32
  1
０
 41
0.611111
  7
STANDARD
100
AcDbText
  0
TEXT
  5
69
100
AcDbEntity
  8
M0
 62
     4
100
AcDbText
 10
81.092011
 20
185.438373
 40
4.32
  1
２０
 41
0.611111
  7
STANDARD
100
AcDbText
  0
TEXT
  5
6A
100
AcDbEntity
  8
M0
 62
     4
100
AcDbText
 10
109.892012
 20
185.438373
 40
4.32
  1
４０
 41
0.611111
  7
STANDARD
100
AcDbText
  0
TEXT
  5
6B
100
AcDbEntity
  8
M0
 62
     4
100
AcDbText
 10
90.766887
 20
179.671992
 40
4.8384
  1
揚水量（Ｌ／分）
 41
0.611111
  7
STANDARD
100
AcDbText
  0
TEXT
  5
6C
100
AcDbEntity
  8
M0
 62
     4
100
AcDbText
 10
138.692003
 20
185.438373
 40
4.32
  1
６０
 41
0.611111
  7
STANDARD
100
AcDbText
  0
TEXT
  5
6D
100
AcDbEntity
  8
M0
 62
     4
100
AcDbText
 10
66.69201
 20
185.438373
 40
4.32
  1
１０
 41
0.611111
  7
STANDARD
100
AcDbText
  0
TEXT
  5
6E
100
AcDbEntity
  8
M0
 62
     4
100
AcDbText
 10
95.492012
 20
185.438373
 40
4.32
  1
３０
 41
0.611111
  7
STANDARD
100
AcDbText
  0
TEXT
  5
6F
100
AcDbEntity
  8
M0
 62
     4
100
AcDbText
 10
124.292006
 20
185.438373
 40
4.32
  1
５０
 41
0.611111
  7
STANDARD
100
AcDbText
  0
TEXT
  5
70
100
AcDbEntity
  8
M0
 62
     4
100
AcDbText
 10
46.532013
 20
246.424183
 40
4.32
  1
４０
 41
0.611111
  7
STANDARD
100
AcDbText
  0
TEXT
  5
71
100
AcDbEntity
  8
M0
 62
     4
100
AcDbText
 10
46.532013
 20
260.824184
 40
4.32
  1
５０
 41
0.611111
  7
STANDARD
100
AcDbText
  0
ARC
  5
72
100
AcDbEntity
  8
M0
100
AcDbCircle
 10
-314.576671
 20
261.699649
 40
20.0
100
AcDbArc
 50
262.874984
 51
437.905243
  0
LINE
  5
73
100
AcDbEntity
  8
M0
 62
     4
100
AcDbLine
 10
66.329427
 20
273.805118
 11
66.329429
 21
278.989118
  0
LINE
  5
74
100
AcDbEntity
  8
M0
 62
     4
100
AcDbLine
 10
66.329429
 20
278.989118
 11
88.433427
 21
278.989118
  0
LINE
  5
75
100
AcDbEntity
  8
M0
 62
     4
100
AcDbLine
 10
88.433427
 20
278.989118
 11
88.433425
 21
273.805118
  0
LINE
  5
76
100
AcDbEntity
  8
M0
 62
     4
100
AcDbLine
 10
88.433425
 20
273.805118
 11
66.329427
 21
273.805118
  0
TEXT
  5
77
100
AcDbEntity
  8
M0
 62
     4
100
AcDbText
 10
66.926427
 20
274.237118
 40
4.32
  1
　浅井戸配管　　　標準ジェット（Ｊ７５－６Ｖ）使用時
 41
0.590278
  7
STANDARD
100
AcDbText
  0
TEXT
  5
78
100
AcDbEntity
  8
M0
 62
     4
100
AcDbText
 10
129.564676
 20
263.470042
 40
4.32
  1
吸込管径：３０ｍｍ
 41
0.590278
  7
STANDARD
100
AcDbText
  0
LINE
  5
79
100
AcDbEntity
  8
M0
 62
     4
100
AcDbLine
 10
38.090221
 20
272.299214
 11
59.136187
 21
272.299214
  0
LINE
  5
7A
100
AcDbEntity
  8
M0
 62
     4
100
AcDbLine
 10
59.136187
 20
280.87795
 11
38.090221
 21
280.87795
  0
LINE
  5
7B
100
AcDbEntity
  8
M0
 62
     4
100
AcDbLine
 10
38.090221
 20
280.87795
 11
38.090221
 21
272.299214
  0
LINE
  5
7C
100
AcDbEntity
  8
M0
 62
     4
100
AcDbLine
 10
59.136187
 20
280.87795
 11
59.136187
 21
272.299214
  0
TEXT
  5
7D
100
AcDbEntity
  8
M0
 62
     4
100
AcDbText
 10
40.287788
 20
274.112356
 40
4.86
  1
揚水性能
 41
0.740741
  7
STANDARD
100
AcDbText
  0
TEXT
  5
7E
100
AcDbEntity
  8
M0
 62
     4
100
AcDbText
 10
99.85375
 20
236.50027
 40
4.32
  1
吸上高さ６ｍ時
 41
0.590278
  7
STANDARD
100
AcDbText
  0
LINE
  5
7F
100
AcDbEntity
  8
M0
 62
     4
100
AcDbLine
 10
66.329427
 20
156.761317
 11
66.329429
 21
161.945317
  0
LINE
  5
80
100
AcDbEntity
  8
M0
 62
     4
100
AcDbLine
 10
66.329429
 20
161.945317
 11
88.433427
 21
161.945317
  0
LINE
  5
81
100
AcDbEntity
  8
M0
 62
     4
100
AcDbLine
 10
88.433427
 20
161.945317
 11
88.433425
 21
156.761317
  0
LINE
  5
82
100
AcDbEntity
  8
M0
 62
     4
100
AcDbLine
 10
88.433425
 20
156.761317
 11
66.329427
 21
156.761317
  0
TEXT
  5
83
100
AcDbEntity
  8
M0
 62
     4
100
AcDbText
 10
66.926427
 20
157.193317
 40
4.32
  1
　深井戸配管　　　標準ジェット（Ｊ７５－６Ｖ）使用時
 41
0.590278
  7
STANDARD
100
AcDbText
  0
TEXT
  5
84
100
AcDbEntity
  8
M0
 62
     4
100
AcDbText
 10
233.903734
 20
206.861518
 40
4.32
  1
吸上高さ１８ｍ時
 41
0.590278
  7
STANDARD
100
AcDbText
  0
TEXT
  5
85
100
AcDbEntity
  8
M0
 62
     4
100
AcDbText
 10
207.825904
 20
144.092952
 40
4.32
  1
吸上高さ３５ｍ時
 41
0.590278
  7
STANDARD
100
AcDbText
  0
TEXT
  5
86
100
AcDbEntity
  8
M0
 62
     4
100
AcDbText
 10
218.789659
 20
134.659274
 40
4.32
  1
吸上高さ３０ｍ時
 41
0.590278
  7
STANDARD
100
AcDbText
  0
TEXT
  5
87
100
AcDbEntity
  8
M0
 62
     4
100
AcDbText
 10
306.317472
 20
250.900271
 40
4.32
  1
吸上高さ２４ｍ時
 41
0.590278
  7
STANDARD
100
AcDbText
  0
TEXT
  5
88
100
AcDbEntity
  8
M0
 62
     4
100
AcDbText
 10
327.917478
 20
236.50027
 40
4.32
  1
吸上高さ１８ｍ時
 41
0.590278
  7
STANDARD
100
AcDbText
  0
TEXT
  5
89
100
AcDbEntity
  8
M0
 62
     4
100
AcDbText
 10
206.656171
 20
210.178889
 40
4.32
  1
吸上高さ２４ｍ時
 41
0.590278
  7
STANDARD
100
AcDbText
  0
LINE
  5
8A
100
AcDbEntity
  8
M0
100
AcDbLine
 10
189.349755
 20
190.876213
 11
254.149755
 21
190.876213
  0
LINE
  5
8B
100
AcDbEntity
  8
M0
100
AcDbLine
 10
189.349755
 20
270.076213
 11
189.349755
 21
190.876213
  0
LINE
  5
8C
100
AcDbEntity
  8
M0
100
AcDbLine
 10
218.149755
 20
190.876213
 11
218.149755
 21
207.896665
  0
LINE
  5
8D
100
AcDbEntity
  8
M0
100
AcDbLine
 10
246.949755
 20
190.876213
 11
246.949755
 21
205.276213
  0
LINE
  5
8E
100
AcDbEntity
  8
M0
100
AcDbLine
 10
189.349755
 20
205.276213
 11
254.149755
 21
205.276213
  0
LINE
  5
8F
100
AcDbEntity
  8
M0
100
AcDbLine
 10
189.349755
 20
219.676213
 11
254.149755
 21
219.676213
  0
LINE
  5
90
100
AcDbEntity
  8
M0
100
AcDbLine
 10
218.149755
 20
234.076213
 11
218.149755
 21
270.076213
  0
LINE
  5
91
100
AcDbEntity
  8
M0
100
AcDbLine
 10
203.749755
 20
190.876213
 11
203.749755
 21
270.076213
  0
LINE
  5
92
100
AcDbEntity
  8
M0
100
AcDbLine
 10
232.549755
 20
190.876213
 11
232.549755
 21
234.076213
  0
LINE
  5
93
100
AcDbEntity
  8
M0
100
AcDbLine
 10
189.349755
 20
248.476213
 11
254.149755
 21
248.476213
  0
LINE
  5
94
100
AcDbEntity
  8
M0
100
AcDbLine
 10
189.349755
 20
234.076213
 11
254.149755
 21
234.076213
  0
LINE
  5
95
100
AcDbEntity
  8
M0
100
AcDbLine
 10
189.349755
 20
262.876213
 11
254.149755
 21
262.876213
  0
ARC
  5
96
100
AcDbEntity
  8
M0
100
AcDbCircle
 10
175.263009
 20
218.05595
 40
4.8384
100
AcDbArc
 50
52.58592
 51
127.41408
  0
ARC
  5
97
100
AcDbEntity
  8
M0
100
AcDbCircle
 10
175.263009
 20
221.092523
 40
4.8384
100
AcDbArc
 50
232.58592
 51
307.41408
  0
TEXT
  5
98
100
AcDbEntity
  8
M0
100
AcDbText
 10
173.247003
 20
232.517388
 40
3.2256
  1
全
 41
1.25
  7
STANDARD
100
AcDbText
  0
TEXT
  5
99
100
AcDbEntity
  8
M0
100
AcDbText
 10
173.247003
 20
228.969228
 40
3.2256
  1
揚
 41
1.25
  7
STANDARD
100
AcDbText
  0
TEXT
  5
9A
100
AcDbEntity
  8
M0
100
AcDbText
 10
173.247003
 20
225.421068
 40
3.2256
  1
程
 41
1.25
  7
STANDARD
100
AcDbText
  0
TEXT
  5
9B
100
AcDbEntity
  8
M0
100
AcDbText
 10
173.247003
 20
221.872908
 40
3.2256
  1
　
 41
1.25
  7
STANDARD
100
AcDbText
  0
TEXT
  5
9C
100
AcDbEntity
  8
M0
100
AcDbText
 10
173.247003
 20
218.324749
 40
3.2256
  1
ｍ
 41
1.25
  7
STANDARD
100
AcDbText
  0
TEXT
  5
9D
100
AcDbEntity
  8
M0
100
AcDbText
 10
180.781578
 20
232.024184
 40
4.32
  1
３０
 41
0.611111
  7
STANDARD
100
AcDbText
  0
TEXT
  5
9E
100
AcDbEntity
  8
M0
100
AcDbText
 10
180.781578
 20
217.624186
 40
4.32
  1
２０
 41
0.611111
  7
STANDARD
100
AcDbText
  0
TEXT
  5
9F
100
AcDbEntity
  8
M0
100
AcDbText
 10
180.781578
 20
203.224181
 40
4.32
  1
１０
 41
0.611111
  7
STANDARD
100
AcDbText
  0
TEXT
  5
A0
100
AcDbEntity
  8
M0
100
AcDbText
 10
183.661575
 20
188.824183
 40
4.32
  1
０
 41
0.611111
  7
STANDARD
100
AcDbText
  0
TEXT
  5
A1
100
AcDbEntity
  8
M0
100
AcDbText
 10
186.541572
 20
185.438376
 40
4.32
  1
０
 41
0.611111
  7
STANDARD
100
AcDbText
  0
TEXT
  5
A2
100
AcDbEntity
  8
M0
100
AcDbText
 10
215.341568
 20
185.438376
 40
4.32
  1
２０
 41
0.611111
  7
STANDARD
100
AcDbText
  0
TEXT
  5
A3
100
AcDbEntity
  8
M0
100
AcDbText
 10
244.141584
 20
185.438376
 40
4.32
  1
４０
 41
0.611111
  7
STANDARD
100
AcDbText
  0
TEXT
  5
A4
100
AcDbEntity
  8
M0
100
AcDbText
 10
211.636417
 20
179.810949
 40
4.8384
  1
揚水量（Ｌ／分）
 41
0.611111
  7
STANDARD
100
AcDbText
  0
TEXT
  5
A5
100
AcDbEntity
  8
M0
100
AcDbText
 10
200.941566
 20
185.438376
 40
4.32
  1
１０
 41
0.611111
  7
STANDARD
100
AcDbText
  0
TEXT
  5
A6
100
AcDbEntity
  8
M0
100
AcDbText
 10
229.741585
 20
185.438376
 40
4.32
  1
３０
 41
0.611111
  7
STANDARD
100
AcDbText
  0
TEXT
  5
A7
100
AcDbEntity
  8
M0
100
AcDbText
 10
180.781578
 20
246.424186
 40
4.32
  1
４０
 41
0.611111
  7
STANDARD
100
AcDbText
  0
TEXT
  5
A8
100
AcDbEntity
  8
M0
100
AcDbText
 10
180.781578
 20
260.824187
 40
4.32
  1
５０
 41
0.611111
  7
STANDARD
100
AcDbText
  0
LINE
  5
A9
100
AcDbEntity
  8
M0
100
AcDbLine
 10
232.549755
 20
234.076213
 11
232.549755
 21
270.076213
  0
LINE
  5
AA
100
AcDbEntity
  8
M0
100
AcDbLine
 10
218.149755
 20
216.532312
 11
218.149755
 21
234.076213
  0
LINE
  5
AB
100
AcDbEntity
  8
M0
100
AcDbLine
 10
246.949755
 20
211.794927
 11
246.949755
 21
262.876213
  0
LINE
  5
AC
100
AcDbEntity
  8
M0
 62
     7
100
AcDbLine
 10
171.716355
 20
158.710116
 11
171.716356
 21
163.894116
  0
LINE
  5
AD
100
AcDbEntity
  8
M0
 62
     7
100
AcDbLine
 10
171.716356
 20
163.894116
 11
187.700357
 21
163.894116
  0
LINE
  5
AE
100
AcDbEntity
  8
M0
 62
     7
100
AcDbLine
 10
187.700357
 20
163.894116
 11
187.700356
 21
158.710116
  0
LINE
  5
AF
100
AcDbEntity
  8
M0
 62
     7
100
AcDbLine
 10
187.700356
 20
158.710116
 11
171.716355
 21
158.710116
  0
TEXT
  5
B0
100
AcDbEntity
  8
M0
 62
     7
100
AcDbText
 10
172.313355
 20
159.142116
 40
4.32
  1
　深井戸　　　専用ジェット（Ｊ７５－３５Ｖ）使用時
 41
0.590278
  7
STANDARD
100
AcDbText
  0
LINE
  5
B1
100
AcDbEntity
  8
M0
 62
     7
100
AcDbLine
 10
171.237499
 20
274.168173
 11
171.2375
 21
279.352173
  0
LINE
  5
B2
100
AcDbEntity
  8
M0
 62
     7
100
AcDbLine
 10
171.2375
 20
279.352173
 11
187.221501
 21
279.352173
  0
LINE
  5
B3
100
AcDbEntity
  8
M0
 62
     7
100
AcDbLine
 10
187.221501
 20
279.352173
 11
187.2215
 21
274.168173
  0
LINE
  5
B4
100
AcDbEntity
  8
M0
 62
     7
100
AcDbLine
 10
187.2215
 20
274.168173
 11
171.237499
 21
274.168173
  0
TEXT
  5
B5
100
AcDbEntity
  8
M0
 62
     7
100
AcDbText
 10
171.834499
 20
274.600173
 40
4.32
  1
　深井戸　　　専用ジェット（Ｊ７５－２４Ｖ）使用時
 41
0.590278
  7
STANDARD
100
AcDbText
  0
TEXT
  5
B6
100
AcDbEntity
  8
M0
 62
     6
100
AcDbText
 10
236.973375
 20
263.833925
 40
4.32
  1
圧力管径：３０ｍｍ
 41
0.590278
  7
STANDARD
100
AcDbText
  0
TEXT
  5
B7
100
AcDbEntity
  8
M0
 62
     6
100
AcDbText
 10
236.973375
 20
269.228007
 40
4.32
  1
吸込管径：３０ｍｍ
 41
0.590278
  7
STANDARD
100
AcDbText
  0
TEXT
  5
B8
100
AcDbEntity
  8
M0
 62
     6
100
AcDbText
 10
236.973375
 20
149.484206
 40
4.32
  1
吸込管径：３０ｍｍ
 41
0.590278
  7
STANDARD
100
AcDbText
  0
TEXT
  5
B9
100
AcDbEntity
  8
M0
 62
     6
100
AcDbText
 10
236.973375
 20
144.090125
 40
4.32
  1
圧力管径：３０ｍｍ
 41
0.590278
  7
STANDARD
100
AcDbText
  0
TEXT
  5
BA
100
AcDbEntity
  8
M0
 62
     6
100
AcDbText
 10
131.52382
 20
149.484206
 40
4.32
  1
吸込管径：３０ｍｍ
 41
0.590278
  7
STANDARD
100
AcDbText
  0
TEXT
  5
BB
100
AcDbEntity
  8
M0
 62
     6
100
AcDbText
 10
131.52382
 20
144.090125
 40
4.32
  1
圧力管径：２５ｍｍ
 41
0.590278
  7
STANDARD
100
AcDbText
  0
LINE
  5
BC
100
AcDbEntity
  8
M0
 62
   114
100
AcDbLine
 10
189.349755
 20
143.132409
 11
254.149755
 21
143.132409
  0
LINE
  5
BD
100
AcDbEntity
  8
M0
 62
   114
100
AcDbLine
 10
189.349755
 20
71.132409
 11
254.149755
 21
71.132409
  0
LINE
  5
BE
100
AcDbEntity
  8
M0
 62
   114
100
AcDbLine
 10
218.149755
 20
71.132409
 11
218.149755
 21
114.332409
  0
LINE
  5
BF
100
AcDbEntity
  8
M0
 62
   114
100
AcDbLine
 10
246.949755
 20
71.132409
 11
246.949755
 21
143.132409
  0
LINE
  5
C0
100
AcDbEntity
  8
M0
 62
   114
100
AcDbLine
 10
189.349755
 20
85.532409
 11
254.149755
 21
85.532409
  0
LINE
  5
C1
100
AcDbEntity
  8
M0
 62
   114
100
AcDbLine
 10
189.349755
 20
99.932409
 11
254.149755
 21
99.932409
  0
LINE
  5
C2
100
AcDbEntity
  8
M0
 62
   114
100
AcDbLine
 10
218.149755
 20
114.332409
 11
218.149755
 21
143.132409
  0
LINE
  5
C3
100
AcDbEntity
  8
M0
 62
   114
100
AcDbLine
 10
203.749755
 20
71.132409
 11
203.749755
 21
143.132409
  0
LINE
  5
C4
100
AcDbEntity
  8
M0
 62
   114
100
AcDbLine
 10
232.549755
 20
71.132409
 11
232.549755
 21
134.001561
  0
LINE
  5
C5
100
AcDbEntity
  8
M0
 62
   114
100
AcDbLine
 10
189.349755
 20
128.732409
 11
254.149755
 21
128.732409
  0
LINE
  5
C6
100
AcDbEntity
  8
M0
 62
   114
100
AcDbLine
 10
189.349755
 20
114.332409
 11
254.149755
 21
114.332409
  0
LINE
  5
C7
100
AcDbEntity
  8
M0
 62
   114
100
AcDbLine
 10
189.349755
 20
157.532409
 11
189.349755
 21
71.132409
  0
ARC
  5
C8
100
AcDbEntity
  8
M0
 62
   114
100
AcDbCircle
 10
174.301216
 20
99.827341
 40
4.8384
100
AcDbArc
 50
52.58592
 51
127.41408
  0
ARC
  5
C9
100
AcDbEntity
  8
M0
 62
   114
100
AcDbCircle
 10
174.301216
 20
102.863914
 40
4.8384
100
AcDbArc
 50
232.58592
 51
307.41408
  0
TEXT
  5
CA
100
AcDbEntity
  8
M0
 62
   114
100
AcDbText
 10
172.285218
 20
114.288776
 40
3.2256
  1
全
 41
1.25
  7
STANDARD
100
AcDbText
  0
TEXT
  5
CB
100
AcDbEntity
  8
M0
 62
   114
100
AcDbText
 10
172.285218
 20
110.740616
 40
3.2256
  1
揚
 41
1.25
  7
STANDARD
100
AcDbText
  0
TEXT
  5
CC
100
AcDbEntity
  8
M0
 62
   114
100
AcDbText
 10
172.285218
 20
107.192456
 40
3.2256
  1
程
 41
1.25
  7
STANDARD
100
AcDbText
  0
TEXT
  5
CD
100
AcDbEntity
  8
M0
 62
   114
100
AcDbText
 10
172.285218
 20
103.644296
 40
3.2256
  1
　
 41
1.25
  7
STANDARD
100
AcDbText
  0
TEXT
  5
CE
100
AcDbEntity
  8
M0
 62
   114
100
AcDbText
 10
172.285218
 20
100.096137
 40
3.2256
  1
ｍ
 41
1.25
  7
STANDARD
100
AcDbText
  0
TEXT
  5
CF
100
AcDbEntity
  8
M0
 62
   114
100
AcDbText
 10
180.781578
 20
112.280382
 40
4.32
  1
３０
 41
0.611111
  7
STANDARD
100
AcDbText
  0
TEXT
  5
D0
100
AcDbEntity
  8
M0
 62
   114
100
AcDbText
 10
180.781578
 20
97.880384
 40
4.32
  1
２０
 41
0.611111
  7
STANDARD
100
AcDbText
  0
TEXT
  5
D1
100
AcDbEntity
  8
M0
 62
   114
100
AcDbText
 10
180.781578
 20
83.480383
 40
4.32
  1
１０
 41
0.611111
  7
STANDARD
100
AcDbText
  0
TEXT
  5
D2
100
AcDbEntity
  8
M0
 62
   114
100
AcDbText
 10
183.661571
 20
69.080381
 40
4.32
  1
０
 41
0.611111
  7
STANDARD
100
AcDbText
  0
TEXT
  5
D3
100
AcDbEntity
  8
M0
 62
   114
100
AcDbText
 10
186.541576
 20
63.894575
 40
4.32
  1
０
 41
0.611111
  7
STANDARD
100
AcDbText
  0
TEXT
  5
D4
100
AcDbEntity
  8
M0
 62
   114
100
AcDbText
 10
215.341562
 20
63.894575
 40
4.32
  1
２０
 41
0.611111
  7
STANDARD
100
AcDbText
  0
TEXT
  5
D5
100
AcDbEntity
  8
M0
 62
   114
100
AcDbText
 10
244.141576
 20
63.894575
 40
4.32
  1
４０
 41
0.611111
  7
STANDARD
100
AcDbText
  0
TEXT
  5
D6
100
AcDbEntity
  8
M0
 62
   114
100
AcDbText
 10
210.891631
 20
57.075796
 40
4.8384
  1
揚水量（Ｌ／分）
 41
0.611111
  7
STANDARD
100
AcDbText
  0
TEXT
  5
D7
100
AcDbEntity
  8
M0
 62
   114
100
AcDbText
 10
200.941578
 20
63.894575
 40
4.32
  1
１０
 41
0.611111
  7
STANDARD
100
AcDbText
  0
TEXT
  5
D8
100
AcDbEntity
  8
M0
 62
   114
100
AcDbText
 10
229.741577
 20
63.894575
 40
4.32
  1
３０
 41
0.611111
  7
STANDARD
100
AcDbText
  0
TEXT
  5
D9
100
AcDbEntity
  8
M0
 62
   114
100
AcDbText
 10
180.781578
 20
126.680383
 40
4.32
  1
４０
 41
0.611111
  7
STANDARD
100
AcDbText
  0
TEXT
  5
DA
100
AcDbEntity
  8
M0
 62
   114
100
AcDbText
 10
180.781578
 20
141.080383
 40
4.32
  1
５０
 41
0.611111
  7
STANDARD
100
AcDbText
  0
LINE
  5
DB
100
AcDbEntity
  8
M0
 62
   114
100
AcDbLine
 10
232.549755
 20
139.787217
 11
232.549755
 21
157.532409
  0
LINE
  5
DC
100
AcDbEntity
  8
M0
 62
   114
100
AcDbLine
 10
189.349755
 20
157.532409
 11
254.149755
 21
157.532409
  0
TEXT
  5
DD
100
AcDbEntity
  8
M0
 62
   114
100
AcDbText
 10
181.220146
 20
152.704979
 40
4.32
  1
６０
 41
0.611111
  7
STANDARD
100
AcDbText
  0
LINE
  5
DE
100
AcDbEntity
  8
M0
 62
   114
100
AcDbLine
 10
203.749755
 20
143.132409
 11
203.749755
 21
157.532409
  0
LINE
  5
DF
100
AcDbEntity
  8
M0
 62
   114
100
AcDbLine
 10
218.149755
 20
150.118905
 11
218.149755
 21
157.532409
  0
LINE
  5
E0
100
AcDbEntity
  8
M0
 62
     2
100
AcDbLine
 10
55.100194
 20
71.132409
 11
155.000194
 21
71.132409
  0
LINE
  5
E1
100
AcDbEntity
  8
M0
 62
     2
100
AcDbLine
 10
55.100194
 20
150.332409
 11
55.100194
 21
71.132409
  0
LINE
  5
E2
100
AcDbEntity
  8
M0
 62
     2
100
AcDbLine
 10
83.900194
 20
71.132409
 11
83.900194
 21
114.332409
  0
LINE
  5
E3
100
AcDbEntity
  8
M0
 62
     2
100
AcDbLine
 10
112.700194
 20
72.572409
 11
112.700194
 21
115.772409
  0
LINE
  5
E4
100
AcDbEntity
  8
M0
 62
     2
100
AcDbLine
 10
141.500194
 20
71.132409
 11
141.500194
 21
143.132409
  0
LINE
  5
E5
100
AcDbEntity
  8
M0
 62
     2
100
AcDbLine
 10
55.100194
 20
85.532409
 11
155.000194
 21
85.532409
  0
LINE
  5
E6
100
AcDbEntity
  8
M0
 62
     2
100
AcDbLine
 10
55.100194
 20
99.932409
 11
155.000194
 21
99.932409
  0
LINE
  5
E7
100
AcDbEntity
  8
M0
 62
     2
100
AcDbLine
 10
83.900194
 20
114.332409
 11
83.900194
 21
150.332409
  0
LINE
  5
E8
100
AcDbEntity
  8
M0
 62
     2
100
AcDbLine
 10
69.500194
 20
71.132409
 11
69.500194
 21
150.332409
  0
LINE
  5
E9
100
AcDbEntity
  8
M0
 62
     2
100
AcDbLine
 10
98.300194
 20
71.132409
 11
98.300194
 21
150.332409
  0
LINE
  5
EA
100
AcDbEntity
  8
M0
 62
     2
100
AcDbLine
 10
127.100194
 20
71.132409
 11
127.100194
 21
150.332409
  0
LINE
  5
EB
100
AcDbEntity
  8
M0
 62
     2
100
AcDbLine
 10
55.100194
 20
128.732409
 11
155.000194
 21
128.732409
  0
LINE
  5
EC
100
AcDbEntity
  8
M0
 62
     2
100
AcDbLine
 10
55.100194
 20
114.332409
 11
155.000194
 21
114.332409
  0
LINE
  5
ED
100
AcDbEntity
  8
M0
 62
     2
100
AcDbLine
 10
55.100194
 20
143.132409
 11
155.000194
 21
143.132409
  0
ARC
  5
EE
100
AcDbEntity
  8
M0
 62
     2
100
AcDbCircle
 10
40.103113
 20
121.4116
 40
4.8384
100
AcDbArc
 50
52.58592
 51
127.41408
  0
ARC
  5
EF
100
AcDbEntity
  8
M0
 62
     2
100
AcDbCircle
 10
40.103113
 20
124.448173
 40
4.8384
100
AcDbArc
 50
232.58592
 51
307.41408
  0
TEXT
  5
F0
100
AcDbEntity
  8
M0
 62
     2
100
AcDbText
 10
38.08711
 20
135.873046
 40
3.2256
  1
全
 41
1.25
  7
STANDARD
100
AcDbText
  0
TEXT
  5
F1
100
AcDbEntity
  8
M0
 62
     2
100
AcDbText
 10
38.08711
 20
132.324886
 40
3.2256
  1
揚
 41
1.25
  7
STANDARD
100
AcDbText
  0
TEXT
  5
F2
100
AcDbEntity
  8
M0
 62
     2
100
AcDbText
 10
38.08711
 20
128.776727
 40
3.2256
  1
程
 41
1.25
  7
STANDARD
100
AcDbText
  0
TEXT
  5
F3
100
AcDbEntity
  8
M0
 62
     2
100
AcDbText
 10
38.08711
 20
125.228567
 40
3.2256
  1
　
 41
1.25
  7
STANDARD
100
AcDbText
  0
TEXT
  5
F4
100
AcDbEntity
  8
M0
 62
     2
100
AcDbText
 10
38.08711
 20
121.680407
 40
3.2256
  1
ｍ
 41
1.25
  7
STANDARD
100
AcDbText
  0
TEXT
  5
F5
100
AcDbEntity
  8
M0
 62
     2
100
AcDbText
 10
46.532017
 20
112.280382
 40
4.32
  1
３０
 41
0.611111
  7
STANDARD
100
AcDbText
  0
TEXT
  5
F6
100
AcDbEntity
  8
M0
 62
     2
100
AcDbText
 10
46.532017
 20
97.88038
 40
4.32
  1
２０
 41
0.611111
  7
STANDARD
100
AcDbText
  0
TEXT
  5
F7
100
AcDbEntity
  8
M0
 62
     2
100
AcDbText
 10
46.532017
 20
83.480381
 40
4.32
  1
１０
 41
0.611111
  7
STANDARD
100
AcDbText
  0
TEXT
  5
F8
100
AcDbEntity
  8
M0
 62
     2
100
AcDbText
 10
49.412014
 20
69.080381
 40
4.32
  1
０
 41
0.611111
  7
STANDARD
100
AcDbText
  0
TEXT
  5
F9
100
AcDbEntity
  8
M0
 62
     2
100
AcDbText
 10
52.292012
 20
63.894573
 40
4.32
  1
０
 41
0.611111
  7
STANDARD
100
AcDbText
  0
TEXT
  5
FA
100
AcDbEntity
  8
M0
 62
     2
100
AcDbText
 10
81.092007
 20
63.894573
 40
4.32
  1
２０
 41
0.611111
  7
STANDARD
100
AcDbText
  0
TEXT
  5
FB
100
AcDbEntity
  8
M0
 62
     2
100
AcDbText
 10
109.892014
 20
63.894573
 40
4.32
  1
４０
 41
0.611111
  7
STANDARD
100
AcDbText
  0
TEXT
  5
FC
100
AcDbEntity
  8
M0
 62
     2
100
AcDbText
 10
90.766884
 20
56.664865
 40
4.8384
  1
揚水量（Ｌ／分）
 41
0.611111
  7
STANDARD
100
AcDbText
  0
TEXT
  5
FD
100
AcDbEntity
  8
M0
 62
     2
100
AcDbText
 10
138.692011
 20
63.894573
 40
4.32
  1
６０
 41
0.611111
  7
STANDARD
100
AcDbText
  0
TEXT
  5
FE
100
AcDbEntity
  8
M0
 62
     2
100
AcDbText
 10
66.692005
 20
63.894573
 40
4.32
  1
１０
 41
0.611111
  7
STANDARD
100
AcDbText
  0
TEXT
  5
FF
100
AcDbEntity
  8
M0
 62
     2
100
AcDbText
 10
95.492016
 20
63.894573
 40
4.32
  1
３０
 41
0.611111
  7
STANDARD
100
AcDbText
  0
TEXT
  5
100
100
AcDbEntity
  8
M0
 62
     2
100
AcDbText
 10
124.292008
 20
63.894573
 40
4.32
  1
５０
 41
0.611111
  7
STANDARD
100
AcDbText
  0
TEXT
  5
101
100
AcDbEntity
  8
M0
 62
     2
100
AcDbText
 10
46.532017
 20
126.68038
 40
4.32
  1
４０
 41
0.611111
  7
STANDARD
100
AcDbText
  0
TEXT
  5
102
100
AcDbEntity
  8
M0
 62
     2
100
AcDbText
 10
46.532017
 20
141.080381
 40
4.32
  1
５０
 41
0.611111
  7
STANDARD
100
AcDbText
  0
LINE
  5
103
100
AcDbEntity
  8
M0
 62
     2
100
AcDbLine
 10
112.700194
 20
123.513264
 11
112.700194
 21
150.332409
  0
LINE
  5
104
100
AcDbEntity
  8
M0
 62
     2
100
AcDbLine
 10
111.260194
 20
114.332409
 11
125.660194
 21
110.012409
  0
LINE
  5
105
100
AcDbEntity
  8
M0
 62
     2
100
AcDbLine
 10
127.100194
 20
93.41613
 11
127.100194
 21
107.826825
  0
LINE
  5
106
100
AcDbEntity
  8
M0
 62
     2
100
AcDbLine
 10
125.660194
 20
110.012409
 11
126.572986
 21
109.099617
  0
ARC
  5
107
100
AcDbEntity
  8
M0
 62
     2
100
AcDbCircle
 10
125.300194
 20
107.826825
 40
1.8
100
AcDbArc
 50
0.0
 51
45.0
  0
LINE
  5
108
100
AcDbEntity
  8
M0
  6
DASHED
 62
     2
100
AcDbLine
 10
55.100194
 20
115.772409
 11
108.380194
 21
115.772409
  0
TEXT
  5
109
100
AcDbEntity
  8
M0
 62
     2
100
AcDbText
 10
99.85375
 20
116.756468
 40
4.32
  1
吸上高さ１２ｍ時
 41
0.590278
  7
STANDARD
100
AcDbText
  0
LINE
  5
10A
100
AcDbEntity
  8
M0
 62
     2
100
AcDbLine
 10
108.760256
 20
115.582378
 11
111.260194
 21
114.332409
  0
ARC
  5
10B
100
AcDbEntity
  8
M0
 62
     2
100
AcDbCircle
 10
107.955272
 20
113.972409
 40
1.8
100
AcDbArc
 50
63.434949
 51
90.0
  0
LINE
  5
10C
100
AcDbEntity
  8
M0
 62
     6
100
AcDbLine
 10
290.363912
 20
190.876213
 11
355.163912
 21
190.876213
  0
LINE
  5
10D
100
AcDbEntity
  8
M0
 62
     6
100
AcDbLine
 10
290.363912
 20
270.076213
 11
290.363912
 21
190.876213
  0
LINE
  5
10E
100
AcDbEntity
  8
M0
 62
     6
100
AcDbLine
 10
319.163912
 20
190.876213
 11
319.163912
 21
234.076213
  0
LINE
  5
10F
100
AcDbEntity
  8
M0
 62
     6
100
AcDbLine
 10
347.963912
 20
190.876213
 11
347.963912
 21
234.076213
  0
LINE
  5
110
100
AcDbEntity
  8
M0
 62
     6
100
AcDbLine
 10
290.363912
 20
205.276213
 11
355.163912
 21
205.276213
  0
LINE
  5
111
100
AcDbEntity
  8
M0
 62
     6
100
AcDbLine
 10
290.363912
 20
219.676213
 11
355.163912
 21
219.676213
  0
LINE
  5
112
100
AcDbEntity
  8
M0
 62
     6
100
AcDbLine
 10
319.163912
 20
234.076213
 11
319.163912
 21
248.476213
  0
LINE
  5
113
100
AcDbEntity
  8
M0
 62
     6
100
AcDbLine
 10
304.763912
 20
190.876213
 11
304.763912
 21
270.076213
  0
LINE
  5
114
100
AcDbEntity
  8
M0
 62
     6
100
AcDbLine
 10
333.563912
 20
190.876213
 11
333.563912
 21
234.076213
  0
LINE
  5
115
100
AcDbEntity
  8
M0
 62
     6
100
AcDbLine
 10
290.363912
 20
248.476213
 11
355.163912
 21
248.476213
  0
LINE
  5
116
100
AcDbEntity
  8
M0
 62
     6
100
AcDbLine
 10
290.363912
 20
234.076213
 11
355.163912
 21
234.076213
  0
LINE
  5
117
100
AcDbEntity
  8
M0
 62
     6
100
AcDbLine
 10
290.363912
 20
262.876213
 11
355.163912
 21
262.876213
  0
LINE
  5
118
100
AcDbEntity
  8
M0
  6
DASHED
 62
     6
100
AcDbLine
 10
290.363912
 20
252.796213
 11
301.76278
 21
252.796213
  0
LINE
  5
119
100
AcDbEntity
  8
M0
 62
     6
100
AcDbLine
 10
304.763912
 20
242.58829
 11
304.763912
 21
228.061209
  0
LINE
  5
11A
100
AcDbEntity
  8
M0
 62
     6
100
AcDbLine
 10
303.544689
 20
251.250771
 11
304.745821
 21
242.842849
  0
LINE
  5
11B
100
AcDbEntity
  8
M0
  6
DASHED
 62
     6
100
AcDbLine
 10
290.363912
 20
244.156213
 11
316.823912
 21
244.156213
  0
LINE
  5
11C
100
AcDbEntity
  8
M0
 62
     6
100
AcDbLine
 10
318.263912
 20
243.436213
 11
323.902784
 21
235.917717
  0
LINE
  5
11D
100
AcDbEntity
  8
M0
 62
     6
100
AcDbLine
 10
324.923912
 20
228.316213
 11
324.923912
 21
218.176207
  0
LINE
  5
11E
100
AcDbEntity
  8
M0
 62
     6
100
AcDbLine
 10
324.253851
 20
235.016823
 11
324.923912
 21
228.316213
  0
ARC
  5
11F
100
AcDbEntity
  8
M0
 62
     6
100
AcDbCircle
 10
301.76278
 20
250.996213
 40
1.8
100
AcDbArc
 50
8.130102
 51
90.0
  0
ARC
  5
120
100
AcDbEntity
  8
M0
 62
     6
100
AcDbCircle
 10
302.963912
 20
242.58829
 40
1.8
100
AcDbArc
 50
0.0
 51
8.130102
  0
ARC
  5
121
100
AcDbEntity
  8
M0
 62
     6
100
AcDbCircle
 10
316.823912
 20
242.356213
 40
1.8
100
AcDbArc
 50
36.869898
 51
90.0
  0
ARC
  5
122
100
AcDbEntity
  8
M0
 62
     6
100
AcDbCircle
 10
322.462784
 20
234.837717
 40
1.8
100
AcDbArc
 50
5.710593
 51
36.869898
  0
ARC
  5
123
100
AcDbEntity
  8
M0
 62
     6
100
AcDbCircle
 10
276.363671
 20
216.326862
 40
4.8384
100
AcDbArc
 50
52.58592
 51
127.41408
  0
ARC
  5
124
100
AcDbEntity
  8
M0
 62
     6
100
AcDbCircle
 10
276.363671
 20
219.363435
 40
4.8384
100
AcDbArc
 50
232.58592
 51
307.41408
  0
TEXT
  5
125
100
AcDbEntity
  8
M0
 62
     6
100
AcDbText
 10
274.347675
 20
230.788304
 40
3.2256
  1
全
 41
1.25
  7
STANDARD
100
AcDbText
  0
TEXT
  5
126
100
AcDbEntity
  8
M0
 62
     6
100
AcDbText
 10
274.347675
 20
227.240144
 40
3.2256
  1
揚
 41
1.25
  7
STANDARD
100
AcDbText
  0
TEXT
  5
127
100
AcDbEntity
  8
M0
 62
     6
100
AcDbText
 10
274.347675
 20
223.691984
 40
3.2256
  1
程
 41
1.25
  7
STANDARD
100
AcDbText
  0
TEXT
  5
128
100
AcDbEntity
  8
M0
 62
     6
100
AcDbText
 10
274.347675
 20
220.143824
 40
3.2256
  1
　
 41
1.25
  7
STANDARD
100
AcDbText
  0
TEXT
  5
129
100
AcDbEntity
  8
M0
 62
     6
100
AcDbText
 10
274.347675
 20
216.595665
 40
3.2256
  1
ｍ
 41
1.25
  7
STANDARD
100
AcDbText
  0
TEXT
  5
12A
100
AcDbEntity
  8
M0
 62
     6
100
AcDbText
 10
281.795729
 20
232.024184
 40
4.32
  1
３０
 41
0.611111
  7
STANDARD
100
AcDbText
  0
TEXT
  5
12B
100
AcDbEntity
  8
M0
 62
     6
100
AcDbText
 10
281.795729
 20
217.624182
 40
4.32
  1
２０
 41
0.611111
  7
STANDARD
100
AcDbText
  0
TEXT
  5
12C
100
AcDbEntity
  8
M0
 62
     6
100
AcDbText
 10
281.795729
 20
203.224189
 40
4.32
  1
１０
 41
0.611111
  7
STANDARD
100
AcDbText
  0
TEXT
  5
12D
100
AcDbEntity
  8
M0
 62
     6
100
AcDbText
 10
284.675726
 20
188.824181
 40
4.32
  1
０
 41
0.611111
  7
STANDARD
100
AcDbText
  0
TEXT
  5
12E
100
AcDbEntity
  8
M0
 62
     6
100
AcDbText
 10
287.555735
 20
185.438373
 40
4.32
  1
０
 41
0.611111
  7
STANDARD
100
AcDbText
  0
TEXT
  5
12F
100
AcDbEntity
  8
M0
 62
     6
100
AcDbText
 10
316.355708
 20
185.438373
 40
4.32
  1
２０
 41
0.611111
  7
STANDARD
100
AcDbText
  0
TEXT
  5
130
100
AcDbEntity
  8
M0
 62
     6
100
AcDbText
 10
345.155735
 20
185.438373
 40
4.32
  1
４０
 41
0.611111
  7
STANDARD
100
AcDbText
  0
TEXT
  5
131
100
AcDbEntity
  8
M0
 62
     6
100
AcDbText
 10
311.302721
 20
179.747613
 40
4.8384
  1
揚水量（Ｌ／分）
 41
0.611111
  7
STANDARD
100
AcDbText
  0
TEXT
  5
132
100
AcDbEntity
  8
M0
 62
     6
100
AcDbText
 10
301.955736
 20
185.438373
 40
4.32
  1
１０
 41
0.611111
  7
STANDARD
100
AcDbText
  0
TEXT
  5
133
100
AcDbEntity
  8
M0
 62
     6
100
AcDbText
 10
330.755736
 20
185.438373
 40
4.32
  1
３０
 41
0.611111
  7
STANDARD
100
AcDbText
  0
TEXT
  5
134
100
AcDbEntity
  8
M0
 62
     6
100
AcDbText
 10
281.795729
 20
246.424186
 40
4.32
  1
４０
 41
0.611111
  7
STANDARD
100
AcDbText
  0
TEXT
  5
135
100
AcDbEntity
  8
M0
 62
     6
100
AcDbText
 10
281.795729
 20
260.824187
 40
4.32
  1
５０
 41
0.611111
  7
STANDARD
100
AcDbText
  0
LINE
  5
136
100
AcDbEntity
  8
M0
 62
     6
100
AcDbLine
 10
319.163912
 20
257.162245
 11
319.163912
 21
270.076213
  0
LINE
  5
137
100
AcDbEntity
  8
M0
 62
     6
100
AcDbLine
 10
333.563912
 20
242.538243
 11
333.563912
 21
270.076213
  0
LINE
  5
138
100
AcDbEntity
  8
M0
 62
     6
100
AcDbLine
 10
347.963912
 20
242.538243
 11
347.963912
 21
262.876213
  0
LINE
  5
139
100
AcDbEntity
  8
M0
100
AcDbLine
 10
272.230558
 20
275.314162
 11
272.23056
 21
280.498162
  0
LINE
  5
13A
100
AcDbEntity
  8
M0
100
AcDbLine
 10
272.23056
 20
280.498162
 11
288.214562
 21
280.498162
  0
LINE
  5
13B
100
AcDbEntity
  8
M0
100
AcDbLine
 10
288.214562
 20
280.498162
 11
288.214561
 21
275.314162
  0
LINE
  5
13C
100
AcDbEntity
  8
M0
100
AcDbLine
 10
288.214561
 20
275.314162
 11
272.230558
 21
275.314162
  0
TEXT
  5
13D
100
AcDbEntity
  8
M0
100
AcDbText
 10
272.827558
 20
275.746162
 40
4.32
  1
　深井戸　　　シングルジェット（Ｊ４０－２４ＳＶ）使用時
 41
0.590278
  7
STANDARD
100
AcDbText
  0
TEXT
  5
13E
100
AcDbEntity
  8
M0
100
AcDbText
 10
337.708959
 20
264.00089
 40
4.32
  1
吸込管（Ｂ）３０ｍｍ
 41
0.590278
  7
STANDARD
100
AcDbText
  0
LINE
  5
13F
100
AcDbEntity
  8
M0
  6
DASHED
100
AcDbLine
 10
189.349755
 20
252.796213
 11
210.204171
 21
252.796213
  0
ARC
  5
140
100
AcDbEntity
  8
M0
100
AcDbCircle
 10
210.204171
 20
250.996213
 40
1.8
100
AcDbArc
 50
45.0
 51
90.0
  0
LINE
  5
141
100
AcDbEntity
  8
M0
100
AcDbLine
 10
211.476963
 20
252.269005
 11
213.829755
 21
249.916213
  0
LINE
  5
142
100
AcDbEntity
  8
M0
100
AcDbLine
 10
213.829755
 20
249.916213
 11
224.548216
 21
242.770572
  0
ARC
  5
143
100
AcDbEntity
  8
M0
100
AcDbCircle
 10
223.549755
 20
241.272882
 40
1.8
100
AcDbArc
 50
0.0
 51
56.309932
  0
LINE
  5
144
100
AcDbEntity
  8
M0
100
AcDbLine
 10
225.349755
 20
241.272882
 11
225.349755
 21
227.931626
  0
LINE
  5
145
100
AcDbEntity
  8
M0
  6
DASHED
100
AcDbLine
 10
189.349755
 20
244.156213
 11
224.851184
 21
244.156213
  0
ARC
  5
146
100
AcDbEntity
  8
M0
100
AcDbCircle
 10
224.851184
 20
242.356213
 40
1.8
100
AcDbArc
 50
59.036243
 51
90.0
  0
LINE
  5
147
100
AcDbEntity
  8
M0
100
AcDbLine
 10
232.445002
 20
239.899064
 11
225.777277
 21
243.8997
  0
LINE
  5
148
100
AcDbEntity
  8
M0
100
AcDbLine
 10
232.66204
 20
239.788091
 11
241.53881
 21
235.983761
  0
ARC
  5
149
100
AcDbEntity
  8
M0
100
AcDbCircle
 10
240.829755
 20
234.329299
 40
1.8
100
AcDbArc
 50
0.0
 51
66.801409
  0
LINE
  5
14A
100
AcDbEntity
  8
M0
100
AcDbLine
 10
242.629755
 20
217.90983
 11
242.629755
 21
234.329299
  0
LINE
  5
14B
100
AcDbEntity
  8
M0
  6
DASHED
100
AcDbLine
 10
189.349755
 20
148.892409
 11
201.564171
 21
148.892409
  0
ARC
  5
14C
100
AcDbEntity
  8
M0
100
AcDbCircle
 10
201.564171
 20
147.092409
 40
1.8
100
AcDbArc
 50
45.0
 51
90.0
  0
LINE
  5
14D
100
AcDbEntity
  8
M0
100
AcDbLine
 10
202.836963
 20
148.365201
 11
207.542548
 21
143.659617
  0
ARC
  5
14E
100
AcDbEntity
  8
M0
100
AcDbCircle
 10
206.269755
 20
142.386825
 40
1.8
100
AcDbArc
 50
0.0
 51
45.0
  0
LINE
  5
14F
100
AcDbEntity
  8
M0
100
AcDbLine
 10
208.069755
 20
142.386825
 11
208.069755
 21
122.974346
  0
LINE
  5
150
100
AcDbEntity
  8
M0
  6
DASHED
100
AcDbLine
 10
189.349755
 20
141.692409
 11
209.875526
 21
141.692409
  0
ARC
  5
151
100
AcDbEntity
  8
M0
100
AcDbCircle
 10
209.875526
 20
139.892409
 40
1.8
100
AcDbArc
 50
28.342976
 51
90.0
  0
LINE
  5
152
100
AcDbEntity
  8
M0
100
AcDbLine
 10
211.459744
 20
140.746956
 11
213.613974
 21
136.753297
  0
LINE
  5
153
100
AcDbEntity
  8
M0
100
AcDbLine
 10
213.829755
 20
115.772409
 11
213.829755
 21
135.898749
  0
ARC
  5
154
100
AcDbEntity
  8
M0
100
AcDbCircle
 10
212.029755
 20
135.898749
 40
1.8
100
AcDbArc
 50
0.0
 51
28.342976
  0
TEXT
  5
155
100
AcDbEntity
  8
M0
100
AcDbText
 10
57.164127
 20
174.262596
 40
4.32
  1
※破線部域では６０ｋＰａの圧力変動があります。
 41
0.652006
  7
STANDARD
100
AcDbText
  0
TEXT
  5
156
100
AcDbEntity
  8
M0
100
AcDbText
 10
191.413688
 20
174.262596
 40
4.32
  1
※破線部域では６０ｋＰａの圧力変動があります。
 41
0.652006
  7
STANDARD
100
AcDbText
  0
TEXT
  5
157
100
AcDbEntity
  8
M0
100
AcDbText
 10
292.427845
 20
174.262596
 40
4.32
  1
※破線部域では６０ｋＰａの圧力変動があります。
 41
0.652006
  7
STANDARD
100
AcDbText
  0
TEXT
  5
158
100
AcDbEntity
  8
M0
100
AcDbText
 10
57.164127
 20
51.518792
 40
4.32
  1
※破線部域では６０ｋＰａの圧力変動があります。
 41
0.652006
  7
STANDARD
100
AcDbText
  0
TEXT
  5
159
100
AcDbEntity
  8
M0
100
AcDbText
 10
191.413688
 20
51.518792
 40
4.32
  1
※破線部域では６０ｋＰａの圧力変動があります。
 41
0.652006
  7
STANDARD
100
AcDbText
  0
ENDSEC
  0
SECTION
  2
OBJECTS
  0
DICTIONARY
  5
C
100
AcDbDictionary
  3
ACAD_GROUP
350
D
  3
ACAD_MLINESTYLE
350
E
  0
DICTIONARY
  5
D
102
{ACAD_REACTORS
330
C
102
}
100
AcDbDictionary
  0
DICTIONARY
  5
E
102
{ACAD_REACTORS
330
C
102
}
100
AcDbDictionary
  3
STANDARD
350
13
  0
MLINESTYLE
  5
13
102
{ACAD_REACTORS
330
E
102
}
100
AcDbMlineStyle
  2
STANDARD
 70
     0
  3

 62
     0
 51
90.0
 52
90.0
 71
     2
 49
0.5
 62
   256
  6
BYLAYER
 49
-0.5
 62
   256
  6
BYLAYER
  0
ENDSEC
  0
EOF
