  0
SECTION
  2
HEADER
  9
$ACADVER
  1
AC1012
  9
$INSBASE
 10
0.0
 20
0.0
  9
$VIEWCTR
 10
7.531722
 20
4.5
  9
$VIEWSIZE
 40
9.0
  9
$SNAPMODE
 70
     0
  9
$SNAPUNIT
 10
1.0
 20
1.0
  9
$SNAPBASE
 10
0.0
 20
0.0
  9
$SNAPANG
 50
0.0
  9
$SNAPSTYLE
 70
     0
  9
$SNAPISOPAIR
 70
     0
  9
$GRIDMODE
 70
     0
  9
$GRIDUNIT
 10
0.0
 20
0.0
  9
$ORTHOMODE
 70
     0
  9
$REGENMODE
 70
     1
  9
$FILLMODE
 70
     1
  9
$QTEXTMODE
 70
     0
  9
$DRAGMODE
 70
     2
  9
$LTSCALE
 40
1.0
  9
$OSMODE
 70
     0
  9
$ATTMODE
 70
     1
  9
$TEXTSIZE
 40
0.2
  9
$TRACEWID
 40
0.05
  9
$TEXTSTYLE
  7
STANDARD
  9
$CELTYPE
  6
BYLAYER
  9
$CECOLOR
 62
   256
  9
$DIMSCALE
 40
1.0
  9
$DIMASZ
 40
0.18
  9
$DIMEXO
 40
0.0625
  9
$DIMDLI
 40
0.38
  9
$DIMRND
 40
0.0
  9
$DIMDLE
 40
0.0
  9
$DIMEXE
 40
0.18
  9
$DIMTP
 40
0.0
  9
$DIMTM
 40
0.0
  9
$DIMTXT
 40
0.18
  9
$DIMCEN
 40
0.09
  9
$DIMTSZ
 40
0.0
  9
$DIMTOL
 70
     0
  9
$DIMLIM
 70
     0
  9
$DIMTIH
 70
     1
  9
$DIMTOH
 70
     1
  9
$DIMSE1
 70
     0
  9
$DIMSE2
 70
     0
  9
$DIMTAD
 70
     0
  9
$DIMZIN
 70
     0
  9
$DIMBLK
  1

  9
$LUNITS
 70
     2
  9
$LUPREC
 70
     4
  9
$AXISMODE
 70
     0
  9
$AXISUNIT
 10
0.0
 20
0.0
  9
$SKETCHINC
 40
0.1
  9
$FILLETRAD
 40
0.0
  9
$AUNITS
 70
     0
  9
$AUPREC
 70
     0
  9
$MENU
  1
ACAD
  9
$ELEVATION
 40
0.0
  9
$THICKNESS
 40
0.0
  9
$VIEWDIR
 10
0.0
 20
0.0
 30
1.0
  9
$LIMCHECK
 70
     0
  9
$BLIPMODE
 70
     1
  9
$CHAMFERA
 40
0.0
  9
$CHAMFERB
 40
0.0
  9
$FASTZOOM
 70
     1
  9
$SKPOLY
 70
     0
  9
$TDCREATE
 40
0000000.0000000000
  9
$TDUPDATE
 40
0000000.0000000000
  9
$TDINDWG
 40
0.0000000000
  9
$TDUSRTIMER
 40
0.0000000000
  9
$USRTIMER
 70
     1
  9
$ANGBASE
 50
0.0
  9
$ANGDIR
 70
     0
  9
$PDMODE
 70
     0
  9
$PDSIZE
 40
0.0
  9
$PLINEWID
 40
0.0
  9
$COORDS
 70
     0
  9
$USERI1
 70
     0
  9
$USERI2
 70
     0
  9
$USERI3
 70
     0
  9
$USERI4
 70
     0
  9
$USERI5
 70
     0
  9
$USERR1
 40
0.0
  9
$USERR2
 40
0.0
  9
$USERR3
 40
0.0
  9
$USERR4
 40
0.0
  9
$USERR5
 40
0.0
  9
$CLAYER
  8
M0
  9
$EXTMIN
 10
0.0
 20
0.0
  9
$EXTMAX
 10
420.0
 20
297.0
  9
$LIMMIN
 10
0.0
 20
0.0
  9
$LIMMAX
 10
420.0
 20
297.0
  9
$HANDSEED
  5
154
  0
ENDSEC
  0
SECTION
  2
CLASSES
  0
ENDSEC
  0
SECTION
  2
TABLES
  0
TABLE
  2
VPORT
  5
8
100
AcDbSymbolTable
 70
     2
  0
VPORT
  5
14
100
AcDbSymbolTableRecord
100
AcDbViewportTableRecord
  2
*ACTIVE
 70
     0
 10
0.0
 20
0.0
 11
1.0
 21
1.0
 12
484.0
 22
297.0
 13
0.0
 23
0.0
 14
1.0
 24
1.0
 15
0.0
 25
0.0
 16
0.0
 26
0.0
 36
1.0
 17
0.0
 27
0.0
 37
0.0
 40
594.0
 41
2.0
 42
50.0
 43
0.0
 44
0.0
 50
0.0
 51
0.0
 71
     0
 72
   100
 73
     1
 74
     1
 75
     0
 76
     0
 77
     0
 78
     0
  0
ENDTAB
  0
TABLE
  2
LTYPE
  5
5
100
AcDbSymbolTable
 70
     5
  0
LTYPE
  5
15
100
AcDbSymbolTableRecord
100
AcDbLinetypeTableRecord
  2
BYBLOCK
 70
     0
  3

 72
    65
 73
     0
 40
0.0
  0
LTYPE
  5
16
100
AcDbSymbolTableRecord
100
AcDbLinetypeTableRecord
  2
BYLAYER
 70
     0
  3

 72
    65
 73
     0
 40
0.0
  0
LTYPE
  5
17
100
AcDbSymbolTableRecord
100
AcDbLinetypeTableRecord
  2
CONTINUOUS
 70
    64
  3
Solid line
 72
    65
 73
     0
 40
0.0
  0
LTYPE
  5
18
100
AcDbSymbolTableRecord
100
AcDbLinetypeTableRecord
  2
DASHED
 70
    64
  3
__ __ __ __ __ __ __ __ __ __ __ __ __ __ __ __
 72
    65
 73
     2
 40
0.75
 49
0.5
 74
     0
 49
-0.25
 74
     0
  0
LTYPE
  5
19
100
AcDbSymbolTableRecord
100
AcDbLinetypeTableRecord
  2
DASHDOT
 70
    64
  3
__ . __ . __ . __ . __ . __ . __ . __ . __ . __
 72
    65
 73
     4
 40
1.0
 49
0.5
 74
     0
 49
-0.25
 74
     0
 49
0.0
 74
     0
 49
-0.25
 74
     0
  0
LTYPE
  5
1A
100
AcDbSymbolTableRecord
100
AcDbLinetypeTableRecord
  2
DIVIDE
 70
    64
  3
____ . . ____ . . ____ . . ____ . . ____ . . __
 72
    65
 73
     6
 40
1.25
 49
0.5
 74
     0
 49
-0.25
 74
     0
 49
0.0
 74
     0
 49
-0.25
 74
     0
 49
0.0
 74
     0
 49
-0.25
 74
     0
  0
LTYPE
  5
1B
100
AcDbSymbolTableRecord
100
AcDbLinetypeTableRecord
  2
DOT
 70
    64
  3
. . . . . . . . . . . . . . . . . . . . . . . .
 72
    65
 73
     2
 40
0.25
 49
0.0
 74
     0
 49
-0.25
 74
     0
  0
ENDTAB
  0
TABLE
  2
LAYER
  5
2
100
AcDbSymbolTable
 70
   102
  0
LAYER
  5
F
100
AcDbSymbolTableRecord
100
AcDbLayerTableRecord
  2
0
 70
     0
 62
     7
  6
CONTINUOUS
  0
LAYER
  5
1C
100
AcDbSymbolTableRecord
100
AcDbLayerTableRecord
  2
DEFPOINTS
 70
     0
 62
     7
  6
CONTINUOUS
  0
LAYER
  5
1D
100
AcDbSymbolTableRecord
100
AcDbLayerTableRecord
  2
M0
 70
     0
 62
     3
  6
CONTINUOUS
  0
ENDTAB
  0
TABLE
  2
STYLE
  5
3
100
AcDbSymbolTable
 70
     2
  0
STYLE
  5
10
100
AcDbSymbolTableRecord
100
AcDbTextStyleTableRecord
  2
STANDARD
 70
     0
 40
0.0
 41
1.0
 50
0.0
 71
     0
 42
0.2
  3
txt
  4
BIGFONT
  0
ENDTAB
  0
TABLE
  2
VIEW
  5
6
100
AcDbSymbolTable
 70
     0
  0
ENDTAB
  0
TABLE
  2
UCS
  5
7
100
AcDbSymbolTable
 70
     0
  0
ENDTAB
  0
TABLE
  2
APPID
  5
9
100
AcDbSymbolTable
 70
     1
  0
APPID
  5
11
100
AcDbSymbolTableRecord
100
AcDbRegAppTableRecord
  2
ACAD
 70
     0
  0
ENDTAB
  0
TABLE
  2
DIMSTYLE
  5
A
100
AcDbSymbolTable
 70
     2
  0
DIMSTYLE
105
24
100
AcDbSymbolTableRecord
100
AcDbDimStyleTableRecord
  2
STANDARD
 70
     0
  3

  4

  5

  6
_OPEN
  7
_OPEN
 40
1.0
 41
3.0
 42
0.0
 43
8.0
 44
1.5
 45
0.0
 46
0.0
 47
0.0
 48
0.0
140
3.5
141
0.09
142
0.0
143
0.03937
144
1.0
145
0.0
146
1.0
147
1.0
 71
     0
 72
     0
 73
     0
 74
     0
 75
     0
 76
     0
 77
     3
 78
     8
170
     0
171
     2
172
     0
173
     1
174
     0
175
     0
176
     0
177
     0
178
     0
270
     2
271
     2
272
     4
273
     2
274
     2
340
10
275
     0
280
     0
281
     0
282
     0
283
     1
284
     0
285
     0
286
     0
287
     3
288
     0
  0
DIMSTYLE
105
25
100
AcDbSymbolTableRecord
100
AcDbDimStyleTableRecord
  2
LEADSTYL
 70
     0
  3

  4

  5

  6
_OPEN
  7
_OPEN
 40
1.0
 41
3.0
 42
0.0625
 43
0.38
 44
0.18
 45
0.0
 46
0.0
 47
0.0
 48
0.0
140
3.2
141
0.09
142
0.0
143
25.4
144
1.0
145
0.0
146
1.0
147
1.0
 71
     0
 72
     0
 73
     1
 74
     1
 75
     0
 76
     0
 77
     0
 78
     0
170
     0
171
     2
172
     0
173
     1
174
     0
175
     0
176
     0
177
     0
178
     0
270
     2
271
     4
272
     4
273
     2
274
     2
340
10
275
     0
280
     0
281
     0
282
     0
283
     1
284
     0
285
     0
286
     0
287
     3
288
     0
  0
ENDTAB
  0
TABLE
  2
BLOCK_RECORD
  5
1
100
AcDbSymbolTable
 70
     6
  0
BLOCK_RECORD
  5
1E
100
AcDbSymbolTableRecord
100
AcDbBlockTableRecord
  2
*MODEL_SPACE
  0
BLOCK_RECORD
  5
21
100
AcDbSymbolTableRecord
100
AcDbBlockTableRecord
  2
*PAPER_SPACE
  0
BLOCK_RECORD
  5
26
100
AcDbSymbolTableRecord
100
AcDbBlockTableRecord
  2
_NONE
  0
BLOCK_RECORD
  5
2A
100
AcDbSymbolTableRecord
100
AcDbBlockTableRecord
  2
_OPEN
  0
BLOCK_RECORD
  5
30
100
AcDbSymbolTableRecord
100
AcDbBlockTableRecord
  2
_CLOSED
  0
BLOCK_RECORD
  5
37
100
AcDbSymbolTableRecord
100
AcDbBlockTableRecord
  2
_ORIGIN
  0
BLOCK_RECORD
  5
3C
100
AcDbSymbolTableRecord
100
AcDbBlockTableRecord
  2
_DOT
  0
BLOCK_RECORD
  5
44
100
AcDbSymbolTableRecord
100
AcDbBlockTableRecord
  2
_OBLIQUE
  0
ENDTAB
  0
ENDSEC
  0
SECTION
  2
BLOCKS
  0
BLOCK
  5
1F
100
AcDbEntity
  8
0
100
AcDbBlockBegin
  2
*MODEL_SPACE
 70
     0
 10
0.0
 20
0.0
 30
0.0
  3
*MODEL_SPACE
  1

  0
ENDBLK
  5
20
100
AcDbEntity
  8
0
100
AcDbBlockEnd
  0
BLOCK
  5
22
100
AcDbEntity
 67
     1
  8
0
100
AcDbBlockBegin
  2
*PAPER_SPACE
 70
     0
 10
0.0
 20
0.0
 30
0.0
  3
*PAPER_SPACE
  1

  0
ENDBLK
  5
23
100
AcDbEntity
 67
     1
  8
0
100
AcDbBlockEnd
  0
BLOCK
  5
27
100
AcDbEntity
  8
0
100
AcDbBlockBegin
  2
_NONE
 70
     0
 10
0.0
 20
0.0
  0
CIRCLE
  5
28
100
AcDbEntity
  8
0
 62
     0
100
AcDbCircle
 10
0.0
 20
0.0
 40
0.25
  0
ENDBLK
  5
29
100
AcDbEntity
  8
0
100
AcDbBlockEnd
  0
BLOCK
  5
2B
100
AcDbEntity
  8
0
100
AcDbBlockBegin
  2
_OPEN
 70
     0
 10
0.0
 20
0.0
  0
LINE
  5
2C
100
AcDbEntity
  8
0
 62
     0
100
AcDbLine
 10
-0.965926
 20
0.258819
 11
0.0
 21
0.0
  0
LINE
  5
2D
100
AcDbEntity
  8
0
 62
     0
100
AcDbLine
 10
0.0
 20
0.0
 11
-0.965926
 21
-0.258819
  0
LINE
  5
2E
100
AcDbEntity
  8
0
 62
     0
100
AcDbLine
 10
0.0
 20
0.0
 11
-1.0
 21
0.0
  0
ENDBLK
  5
2F
100
AcDbEntity
  8
0
100
AcDbBlockEnd
  0
BLOCK
  5
31
100
AcDbEntity
  8
0
100
AcDbBlockBegin
  2
_CLOSED
 70
     0
 10
0.0
 20
0.0
  0
LINE
  5
32
100
AcDbEntity
  8
0
 62
     0
100
AcDbLine
 10
-0.965926
 20
0.258819
 11
0.0
 21
0.0
  0
LINE
  5
33
100
AcDbEntity
  8
0
 62
     0
100
AcDbLine
 10
0.0
 20
0.0
 11
-0.965926
 21
-0.258819
  0
LINE
  5
34
100
AcDbEntity
  8
0
 62
     0
100
AcDbLine
 10
-0.965926
 20
0.258819
 11
-0.965926
 21
-0.258819
  0
LINE
  5
35
100
AcDbEntity
  8
0
 62
     0
100
AcDbLine
 10
0.0
 20
0.0
 11
-1.0
 21
0.0
  0
ENDBLK
  5
36
100
AcDbEntity
  8
0
100
AcDbBlockEnd
  0
BLOCK
  5
38
100
AcDbEntity
  8
0
100
AcDbBlockBegin
  2
_ORIGIN
 70
     0
 10
0.0
 20
0.0
  0
CIRCLE
  5
39
100
AcDbEntity
  8
0
 62
     0
100
AcDbCircle
 10
0.0
 20
0.0
 40
0.5
  0
LINE
  5
3A
100
AcDbEntity
  8
0
 62
     0
100
AcDbLine
 10
0.0
 20
0.0
 11
-1.0
 21
0.0
  0
ENDBLK
  5
3B
100
AcDbEntity
  8
0
100
AcDbBlockEnd
  0
BLOCK
  5
3D
100
AcDbEntity
  8
0
100
AcDbBlockBegin
  2
_DOT
 70
     0
 10
0.0
 20
0.0
  0
POLYLINE
  5
3E
100
AcDbEntity
  8
0
 62
     0
100
AcDb2dPolyline
 66
     1
 70
     1
 40
0.5
 41
0.5
  0
VERTEX
  5
3F
100
AcDbEntity
  8
0
 62
     0
100
AcDbVertex
100
AcDb2dVertex
 10
-0.25
 20
0.0
 42
1.0
  0
VERTEX
  5
40
100
AcDbEntity
  8
0
 62
     0
100
AcDbVertex
100
AcDb2dVertex
 10
0.25
 20
0.0
 42
1.0
  0
SEQEND
  5
41
100
AcDbEntity
  8
0
 62
     0
  0
LINE
  5
42
100
AcDbEntity
  8
0
 62
     0
100
AcDbLine
 10
-0.5
 20
0.0
 11
-1.0
 21
0.0
  0
ENDBLK
  5
43
100
AcDbEntity
  8
0
100
AcDbBlockEnd
  0
BLOCK
  5
45
100
AcDbEntity
  8
0
100
AcDbBlockBegin
  2
_OBLIQUE
 70
     0
 10
0.0
 20
0.0
  0
LINE
  5
46
100
AcDbEntity
  8
0
 62
     0
100
AcDbLine
 10
-0.353553
 20
-0.353553
 11
0.353553
 21
0.353553
  0
ENDBLK
  5
47
100
AcDbEntity
  8
0
100
AcDbBlockEnd
  0
ENDSEC
  0
SECTION
  2
ENTITIES
  0
LINE
  5
48
100
AcDbEntity
  8
M0
 62
     2
100
AcDbLine
 10
56.112234
 20
64.246107
 11
156.012234
 21
64.246107
  0
LINE
  5
49
100
AcDbEntity
  8
M0
 62
     2
100
AcDbLine
 10
56.112234
 20
143.446107
 11
56.112234
 21
64.246107
  0
LINE
  5
4A
100
AcDbEntity
  8
M0
 62
     2
100
AcDbLine
 10
84.912234
 20
64.246107
 11
84.912234
 21
107.446107
  0
LINE
  5
4B
100
AcDbEntity
  8
M0
 62
     2
100
AcDbLine
 10
113.712234
 20
65.686107
 11
113.712234
 21
108.886107
  0
LINE
  5
4C
100
AcDbEntity
  8
M0
 62
     2
100
AcDbLine
 10
142.512234
 20
64.246107
 11
142.512234
 21
136.246107
  0
LINE
  5
4D
100
AcDbEntity
  8
M0
 62
     2
100
AcDbLine
 10
56.112234
 20
78.646107
 11
156.012234
 21
78.646107
  0
LINE
  5
4E
100
AcDbEntity
  8
M0
 62
     2
100
AcDbLine
 10
56.112234
 20
93.046107
 11
156.012234
 21
93.046107
  0
LINE
  5
4F
100
AcDbEntity
  8
M0
 62
     2
100
AcDbLine
 10
84.912234
 20
107.446107
 11
84.912234
 21
143.446107
  0
LINE
  5
50
100
AcDbEntity
  8
M0
 62
     2
100
AcDbLine
 10
70.512234
 20
64.246107
 11
70.512234
 21
143.446107
  0
LINE
  5
51
100
AcDbEntity
  8
M0
 62
     2
100
AcDbLine
 10
99.312234
 20
64.246107
 11
99.312234
 21
143.446107
  0
LINE
  5
52
100
AcDbEntity
  8
M0
 62
     2
100
AcDbLine
 10
128.112234
 20
64.246107
 11
128.112234
 21
108.886107
  0
LINE
  5
53
100
AcDbEntity
  8
M0
 62
     2
100
AcDbLine
 10
56.112234
 20
121.846107
 11
156.012234
 21
121.846107
  0
LINE
  5
54
100
AcDbEntity
  8
M0
 62
     2
100
AcDbLine
 10
56.112234
 20
107.446107
 11
156.012234
 21
107.446107
  0
LINE
  5
55
100
AcDbEntity
  8
M0
 62
     2
100
AcDbLine
 10
56.112234
 20
136.246107
 11
156.012234
 21
136.246107
  0
ARC
  5
56
100
AcDbEntity
  8
M0
 62
     2
100
AcDbCircle
 10
41.115153
 20
114.525298
 40
4.8384
100
AcDbArc
 50
52.58592
 51
127.41408
  0
ARC
  5
57
100
AcDbEntity
  8
M0
 62
     2
100
AcDbCircle
 10
41.115153
 20
117.561871
 40
4.8384
100
AcDbArc
 50
232.58592
 51
307.41408
  0
TEXT
  5
58
100
AcDbEntity
  8
M0
 62
     2
100
AcDbText
 10
39.09915
 20
128.986744
 40
3.2256
  1
全
 41
1.25
  7
STANDARD
100
AcDbText
  0
TEXT
  5
59
100
AcDbEntity
  8
M0
 62
     2
100
AcDbText
 10
39.09915
 20
125.438584
 40
3.2256
  1
揚
 41
1.25
  7
STANDARD
100
AcDbText
  0
TEXT
  5
5A
100
AcDbEntity
  8
M0
 62
     2
100
AcDbText
 10
39.09915
 20
121.890424
 40
3.2256
  1
程
 41
1.25
  7
STANDARD
100
AcDbText
  0
TEXT
  5
5B
100
AcDbEntity
  8
M0
 62
     2
100
AcDbText
 10
39.09915
 20
118.342265
 40
3.2256
  1
　
 41
1.25
  7
STANDARD
100
AcDbText
  0
TEXT
  5
5C
100
AcDbEntity
  8
M0
 62
     2
100
AcDbText
 10
39.09915
 20
114.794105
 40
3.2256
  1
ｍ
 41
1.25
  7
STANDARD
100
AcDbText
  0
TEXT
  5
5D
100
AcDbEntity
  8
M0
 62
     2
100
AcDbText
 10
47.544057
 20
105.394079
 40
4.32
  1
３０
 41
0.611111
  7
STANDARD
100
AcDbText
  0
TEXT
  5
5E
100
AcDbEntity
  8
M0
 62
     2
100
AcDbText
 10
47.544057
 20
90.994078
 40
4.32
  1
２０
 41
0.611111
  7
STANDARD
100
AcDbText
  0
TEXT
  5
5F
100
AcDbEntity
  8
M0
 62
     2
100
AcDbText
 10
47.544057
 20
76.594078
 40
4.32
  1
１０
 41
0.611111
  7
STANDARD
100
AcDbText
  0
TEXT
  5
60
100
AcDbEntity
  8
M0
 62
     2
100
AcDbText
 10
50.424054
 20
62.194079
 40
4.32
  1
０
 41
0.611111
  7
STANDARD
100
AcDbText
  0
TEXT
  5
61
100
AcDbEntity
  8
M0
 62
     2
100
AcDbText
 10
53.304051
 20
57.008271
 40
4.32
  1
０
 41
0.611111
  7
STANDARD
100
AcDbText
  0
TEXT
  5
62
100
AcDbEntity
  8
M0
 62
     2
100
AcDbText
 10
82.104047
 20
57.008271
 40
4.32
  1
２０
 41
0.611111
  7
STANDARD
100
AcDbText
  0
TEXT
  5
63
100
AcDbEntity
  8
M0
 62
     2
100
AcDbText
 10
110.904054
 20
57.008271
 40
4.32
  1
４０
 41
0.611111
  7
STANDARD
100
AcDbText
  0
TEXT
  5
64
100
AcDbEntity
  8
M0
 62
     2
100
AcDbText
 10
91.778923
 20
49.778563
 40
4.8384
  1
揚水量（Ｌ／分）
 41
0.611111
  7
STANDARD
100
AcDbText
  0
TEXT
  5
65
100
AcDbEntity
  8
M0
 62
     2
100
AcDbText
 10
139.704051
 20
57.008271
 40
4.32
  1
６０
 41
0.611111
  7
STANDARD
100
AcDbText
  0
TEXT
  5
66
100
AcDbEntity
  8
M0
 62
     2
100
AcDbText
 10
67.704045
 20
57.008271
 40
4.32
  1
１０
 41
0.611111
  7
STANDARD
100
AcDbText
  0
TEXT
  5
67
100
AcDbEntity
  8
M0
 62
     2
100
AcDbText
 10
96.504056
 20
57.008271
 40
4.32
  1
３０
 41
0.611111
  7
STANDARD
100
AcDbText
  0
TEXT
  5
68
100
AcDbEntity
  8
M0
 62
     2
100
AcDbText
 10
125.304048
 20
57.008271
 40
4.32
  1
５０
 41
0.611111
  7
STANDARD
100
AcDbText
  0
TEXT
  5
69
100
AcDbEntity
  8
M0
 62
     2
100
AcDbText
 10
47.544057
 20
119.794077
 40
4.32
  1
４０
 41
0.611111
  7
STANDARD
100
AcDbText
  0
TEXT
  5
6A
100
AcDbEntity
  8
M0
 62
     2
100
AcDbText
 10
47.544057
 20
134.194079
 40
4.32
  1
５０
 41
0.611111
  7
STANDARD
100
AcDbText
  0
LINE
  5
6B
100
AcDbEntity
  8
M0
 62
     2
100
AcDbLine
 10
113.712234
 20
116.626962
 11
113.712234
 21
143.446107
  0
TEXT
  5
6C
100
AcDbEntity
  8
M0
 62
     2
100
AcDbText
 10
110.992202
 20
109.870165
 40
4.32
  1
吸上高さ１２ｍ時
 41
0.590278
  7
STANDARD
100
AcDbText
  0
TEXT
  5
6D
100
AcDbEntity
  8
M0
 62
     2
100
AcDbText
 10
58.176164
 20
44.632489
 40
4.32
  1
※破線部域では６０ｋＰａの圧力変動があります。
 41
0.652006
  7
STANDARD
100
AcDbText
  0
TEXT
  5
6E
100
AcDbEntity
  8
M0
 62
     2
100
AcDbText
 10
132.535861
 20
137.203821
 40
4.32
  1
圧力管径：２５ｍｍ
 41
0.590278
  7
STANDARD
100
AcDbText
  0
TEXT
  5
6F
100
AcDbEntity
  8
M0
 62
     2
100
AcDbText
 10
132.535861
 20
142.597903
 40
4.32
  1
吸込管径：３０ｍｍ
 41
0.590278
  7
STANDARD
100
AcDbText
  0
LINE
  5
70
100
AcDbEntity
  8
M0
 62
     2
100
AcDbLine
 10
67.341468
 20
149.875017
 11
67.341469
 21
155.059017
  0
LINE
  5
71
100
AcDbEntity
  8
M0
 62
     2
100
AcDbLine
 10
67.341469
 20
155.059017
 11
89.445467
 21
155.059017
  0
LINE
  5
72
100
AcDbEntity
  8
M0
 62
     2
100
AcDbLine
 10
89.445467
 20
155.059017
 11
89.445466
 21
149.875017
  0
LINE
  5
73
100
AcDbEntity
  8
M0
 62
     2
100
AcDbLine
 10
89.445466
 20
149.875017
 11
67.341468
 21
149.875017
  0
TEXT
  5
74
100
AcDbEntity
  8
M0
 62
     2
100
AcDbText
 10
67.938468
 20
150.307017
 40
4.32
  1
　深井戸配管　　　標準ジェット（Ｊ７５－６Ｗ）使用時
 41
0.590278
  7
STANDARD
100
AcDbText
  0
LINE
  5
75
100
AcDbEntity
  8
M0
 62
     2
100
AcDbLine
 10
128.112234
 20
116.626962
 11
128.112234
 21
143.446107
  0
LINE
  5
76
100
AcDbEntity
  8
M0
 62
   114
100
AcDbLine
 10
190.361795
 20
136.246107
 11
255.161795
 21
136.246107
  0
LINE
  5
77
100
AcDbEntity
  8
M0
 62
   114
100
AcDbLine
 10
190.361795
 20
64.246107
 11
255.161795
 21
64.246107
  0
LINE
  5
78
100
AcDbEntity
  8
M0
 62
   114
100
AcDbLine
 10
219.161795
 20
64.246107
 11
219.161795
 21
107.446107
  0
LINE
  5
79
100
AcDbEntity
  8
M0
 62
   114
100
AcDbLine
 10
247.961795
 20
64.246107
 11
247.961795
 21
136.246107
  0
LINE
  5
7A
100
AcDbEntity
  8
M0
 62
   114
100
AcDbLine
 10
190.361795
 20
78.646107
 11
255.161795
 21
78.646107
  0
LINE
  5
7B
100
AcDbEntity
  8
M0
 62
   114
100
AcDbLine
 10
190.361795
 20
93.046107
 11
255.161795
 21
93.046107
  0
LINE
  5
7C
100
AcDbEntity
  8
M0
 62
   114
100
AcDbLine
 10
219.161795
 20
107.446107
 11
219.161795
 21
126.391545
  0
LINE
  5
7D
100
AcDbEntity
  8
M0
 62
   114
100
AcDbLine
 10
204.761795
 20
64.246107
 11
204.761795
 21
136.246107
  0
LINE
  5
7E
100
AcDbEntity
  8
M0
 62
   114
100
AcDbLine
 10
233.561795
 20
64.246107
 11
233.561795
 21
127.115259
  0
LINE
  5
7F
100
AcDbEntity
  8
M0
 62
   114
100
AcDbLine
 10
190.361795
 20
121.846107
 11
255.161795
 21
121.846107
  0
LINE
  5
80
100
AcDbEntity
  8
M0
 62
   114
100
AcDbLine
 10
190.361795
 20
107.446107
 11
255.161795
 21
107.446107
  0
LINE
  5
81
100
AcDbEntity
  8
M0
 62
   114
100
AcDbLine
 10
190.361795
 20
150.646107
 11
190.361795
 21
64.246107
  0
ARC
  5
82
100
AcDbEntity
  8
M0
 62
   114
100
AcDbCircle
 10
175.313256
 20
92.941039
 40
4.8384
100
AcDbArc
 50
52.58592
 51
127.41408
  0
ARC
  5
83
100
AcDbEntity
  8
M0
 62
   114
100
AcDbCircle
 10
175.313256
 20
95.977612
 40
4.8384
100
AcDbArc
 50
232.58592
 51
307.41408
  0
TEXT
  5
84
100
AcDbEntity
  8
M0
 62
   114
100
AcDbText
 10
173.297258
 20
107.402473
 40
3.2256
  1
全
 41
1.25
  7
STANDARD
100
AcDbText
  0
TEXT
  5
85
100
AcDbEntity
  8
M0
 62
   114
100
AcDbText
 10
173.297258
 20
103.854314
 40
3.2256
  1
揚
 41
1.25
  7
STANDARD
100
AcDbText
  0
TEXT
  5
86
100
AcDbEntity
  8
M0
 62
   114
100
AcDbText
 10
173.297258
 20
100.306154
 40
3.2256
  1
程
 41
1.25
  7
STANDARD
100
AcDbText
  0
TEXT
  5
87
100
AcDbEntity
  8
M0
 62
   114
100
AcDbText
 10
173.297258
 20
96.757994
 40
3.2256
  1
　
 41
1.25
  7
STANDARD
100
AcDbText
  0
TEXT
  5
88
100
AcDbEntity
  8
M0
 62
   114
100
AcDbText
 10
173.297258
 20
93.209834
 40
3.2256
  1
ｍ
 41
1.25
  7
STANDARD
100
AcDbText
  0
TEXT
  5
89
100
AcDbEntity
  8
M0
 62
   114
100
AcDbText
 10
181.793618
 20
105.394079
 40
4.32
  1
３０
 41
0.611111
  7
STANDARD
100
AcDbText
  0
TEXT
  5
8A
100
AcDbEntity
  8
M0
 62
   114
100
AcDbText
 10
181.793618
 20
90.994082
 40
4.32
  1
２０
 41
0.611111
  7
STANDARD
100
AcDbText
  0
TEXT
  5
8B
100
AcDbEntity
  8
M0
 62
   114
100
AcDbText
 10
181.793618
 20
76.59408
 40
4.32
  1
１０
 41
0.611111
  7
STANDARD
100
AcDbText
  0
TEXT
  5
8C
100
AcDbEntity
  8
M0
 62
   114
100
AcDbText
 10
184.673611
 20
62.194079
 40
4.32
  1
０
 41
0.611111
  7
STANDARD
100
AcDbText
  0
TEXT
  5
8D
100
AcDbEntity
  8
M0
 62
   114
100
AcDbText
 10
187.553616
 20
57.008272
 40
4.32
  1
０
 41
0.611111
  7
STANDARD
100
AcDbText
  0
TEXT
  5
8E
100
AcDbEntity
  8
M0
 62
   114
100
AcDbText
 10
216.353602
 20
57.008272
 40
4.32
  1
２０
 41
0.611111
  7
STANDARD
100
AcDbText
  0
TEXT
  5
8F
100
AcDbEntity
  8
M0
 62
   114
100
AcDbText
 10
245.153616
 20
57.008272
 40
4.32
  1
４０
 41
0.611111
  7
STANDARD
100
AcDbText
  0
TEXT
  5
90
100
AcDbEntity
  8
M0
 62
   114
100
AcDbText
 10
211.903671
 20
50.189493
 40
4.8384
  1
揚水量（Ｌ／分）
 41
0.611111
  7
STANDARD
100
AcDbText
  0
TEXT
  5
91
100
AcDbEntity
  8
M0
 62
   114
100
AcDbText
 10
201.953617
 20
57.008272
 40
4.32
  1
１０
 41
0.611111
  7
STANDARD
100
AcDbText
  0
TEXT
  5
92
100
AcDbEntity
  8
M0
 62
   114
100
AcDbText
 10
230.753617
 20
57.008272
 40
4.32
  1
３０
 41
0.611111
  7
STANDARD
100
AcDbText
  0
TEXT
  5
93
100
AcDbEntity
  8
M0
 62
   114
100
AcDbText
 10
181.793618
 20
119.794081
 40
4.32
  1
４０
 41
0.611111
  7
STANDARD
100
AcDbText
  0
TEXT
  5
94
100
AcDbEntity
  8
M0
 62
   114
100
AcDbText
 10
181.793618
 20
134.194081
 40
4.32
  1
５０
 41
0.611111
  7
STANDARD
100
AcDbText
  0
LINE
  5
95
100
AcDbEntity
  8
M0
 62
   114
100
AcDbLine
 10
233.561795
 20
132.900914
 11
233.561795
 21
150.646107
  0
LINE
  5
96
100
AcDbEntity
  8
M0
 62
   114
100
AcDbLine
 10
190.361795
 20
150.646107
 11
255.161795
 21
150.646107
  0
TEXT
  5
97
100
AcDbEntity
  8
M0
 62
   114
100
AcDbText
 10
182.232186
 20
145.818676
 40
4.32
  1
６０
 41
0.611111
  7
STANDARD
100
AcDbText
  0
LINE
  5
98
100
AcDbEntity
  8
M0
 62
   114
100
AcDbLine
 10
204.761795
 20
136.246107
 11
204.761795
 21
144.074987
  0
TEXT
  5
99
100
AcDbEntity
  8
M0
 62
   114
100
AcDbText
 10
192.425728
 20
44.632487
 40
4.32
  1
※破線部域では６０ｋＰａの圧力変動があります。
 41
0.652006
  7
STANDARD
100
AcDbText
  0
TEXT
  5
9A
100
AcDbEntity
  8
M0
 62
   114
100
AcDbText
 10
217.315611
 20
127.772972
 40
4.32
  1
吸上高さ３０ｍ時
 41
0.590278
  7
STANDARD
100
AcDbText
  0
TEXT
  5
9B
100
AcDbEntity
  8
M0
 62
   114
100
AcDbText
 10
202.43743
 20
145.041749
 40
4.32
  1
吸上高さ３５ｍ時
 41
0.590278
  7
STANDARD
100
AcDbText
  0
TEXT
  5
9C
100
AcDbEntity
  8
M0
 62
   114
100
AcDbText
 10
237.985415
 20
138.754983
 40
4.32
  1
圧力管径：３０ｍｍ
 41
0.590278
  7
STANDARD
100
AcDbText
  0
TEXT
  5
9D
100
AcDbEntity
  8
M0
 62
   114
100
AcDbText
 10
237.985415
 20
144.149063
 40
4.32
  1
吸込管径：３０ｍｍ
 41
0.590278
  7
STANDARD
100
AcDbText
  0
LINE
  5
9E
100
AcDbEntity
  8
M0
 62
   114
100
AcDbLine
 10
172.728396
 20
151.823814
 11
172.728397
 21
157.007814
  0
LINE
  5
9F
100
AcDbEntity
  8
M0
 62
   114
100
AcDbLine
 10
172.728397
 20
157.007814
 11
188.712396
 21
157.007814
  0
LINE
  5
A0
100
AcDbEntity
  8
M0
 62
   114
100
AcDbLine
 10
188.712396
 20
157.007814
 11
188.712395
 21
151.823814
  0
LINE
  5
A1
100
AcDbEntity
  8
M0
 62
   114
100
AcDbLine
 10
188.712395
 20
151.823814
 11
172.728396
 21
151.823814
  0
TEXT
  5
A2
100
AcDbEntity
  8
M0
 62
   114
100
AcDbText
 10
173.325396
 20
152.255814
 40
4.32
  1
　深井戸　　　専用ジェット（Ｊ７５－３５Ｗ）使用時
 41
0.590278
  7
STANDARD
100
AcDbText
  0
LINE
  5
A3
100
AcDbEntity
  8
M0
 62
   114
100
AcDbLine
 10
219.161795
 20
133.266584
 11
219.161795
 21
144.137773
  0
LINE
  5
A4
100
AcDbEntity
  8
M0
 62
     6
100
AcDbLine
 10
291.375952
 20
183.98991
 11
356.175952
 21
183.98991
  0
LINE
  5
A5
100
AcDbEntity
  8
M0
 62
     6
100
AcDbLine
 10
291.375952
 20
263.18991
 11
291.375952
 21
183.98991
  0
LINE
  5
A6
100
AcDbEntity
  8
M0
 62
     6
100
AcDbLine
 10
320.175952
 20
183.98991
 11
320.175952
 21
227.18991
  0
LINE
  5
A7
100
AcDbEntity
  8
M0
 62
     6
100
AcDbLine
 10
348.975952
 20
183.98991
 11
348.975952
 21
227.18991
  0
LINE
  5
A8
100
AcDbEntity
  8
M0
 62
     6
100
AcDbLine
 10
291.375952
 20
198.38991
 11
356.175952
 21
198.38991
  0
LINE
  5
A9
100
AcDbEntity
  8
M0
 62
     6
100
AcDbLine
 10
291.375952
 20
212.78991
 11
356.175952
 21
212.78991
  0
LINE
  5
AA
100
AcDbEntity
  8
M0
 62
     6
100
AcDbLine
 10
320.175952
 20
227.18991
 11
320.175952
 21
246.700818
  0
LINE
  5
AB
100
AcDbEntity
  8
M0
 62
     6
100
AcDbLine
 10
305.775952
 20
183.98991
 11
305.775952
 21
263.18991
  0
LINE
  5
AC
100
AcDbEntity
  8
M0
 62
     6
100
AcDbLine
 10
334.575952
 20
183.98991
 11
334.575952
 21
227.18991
  0
LINE
  5
AD
100
AcDbEntity
  8
M0
 62
     6
100
AcDbLine
 10
291.375952
 20
241.58991
 11
356.175952
 21
241.58991
  0
LINE
  5
AE
100
AcDbEntity
  8
M0
 62
     6
100
AcDbLine
 10
291.375952
 20
227.18991
 11
356.175952
 21
227.18991
  0
LINE
  5
AF
100
AcDbEntity
  8
M0
 62
     6
100
AcDbLine
 10
291.375952
 20
255.98991
 11
356.175952
 21
255.98991
  0
ARC
  5
B0
100
AcDbEntity
  8
M0
 62
     6
100
AcDbCircle
 10
277.375711
 20
209.440559
 40
4.8384
100
AcDbArc
 50
52.58592
 51
127.41408
  0
ARC
  5
B1
100
AcDbEntity
  8
M0
 62
     6
100
AcDbCircle
 10
277.375711
 20
212.477133
 40
4.8384
100
AcDbArc
 50
232.58592
 51
307.41408
  0
TEXT
  5
B2
100
AcDbEntity
  8
M0
 62
     6
100
AcDbText
 10
275.359715
 20
223.902001
 40
3.2256
  1
全
 41
1.25
  7
STANDARD
100
AcDbText
  0
TEXT
  5
B3
100
AcDbEntity
  8
M0
 62
     6
100
AcDbText
 10
275.359715
 20
220.353841
 40
3.2256
  1
揚
 41
1.25
  7
STANDARD
100
AcDbText
  0
TEXT
  5
B4
100
AcDbEntity
  8
M0
 62
     6
100
AcDbText
 10
275.359715
 20
216.805682
 40
3.2256
  1
程
 41
1.25
  7
STANDARD
100
AcDbText
  0
TEXT
  5
B5
100
AcDbEntity
  8
M0
 62
     6
100
AcDbText
 10
275.359715
 20
213.257522
 40
3.2256
  1
　
 41
1.25
  7
STANDARD
100
AcDbText
  0
TEXT
  5
B6
100
AcDbEntity
  8
M0
 62
     6
100
AcDbText
 10
275.359715
 20
209.709362
 40
3.2256
  1
ｍ
 41
1.25
  7
STANDARD
100
AcDbText
  0
TEXT
  5
B7
100
AcDbEntity
  8
M0
 62
     6
100
AcDbText
 10
282.807769
 20
225.137882
 40
4.32
  1
３０
 41
0.611111
  7
STANDARD
100
AcDbText
  0
TEXT
  5
B8
100
AcDbEntity
  8
M0
 62
     6
100
AcDbText
 10
282.807769
 20
210.73788
 40
4.32
  1
２０
 41
0.611111
  7
STANDARD
100
AcDbText
  0
TEXT
  5
B9
100
AcDbEntity
  8
M0
 62
     6
100
AcDbText
 10
282.807769
 20
196.337886
 40
4.32
  1
１０
 41
0.611111
  7
STANDARD
100
AcDbText
  0
TEXT
  5
BA
100
AcDbEntity
  8
M0
 62
     6
100
AcDbText
 10
285.687766
 20
181.937879
 40
4.32
  1
０
 41
0.611111
  7
STANDARD
100
AcDbText
  0
TEXT
  5
BB
100
AcDbEntity
  8
M0
 62
     6
100
AcDbText
 10
288.567775
 20
178.552071
 40
4.32
  1
０
 41
0.611111
  7
STANDARD
100
AcDbText
  0
TEXT
  5
BC
100
AcDbEntity
  8
M0
 62
     6
100
AcDbText
 10
317.367748
 20
178.552071
 40
4.32
  1
２０
 41
0.611111
  7
STANDARD
100
AcDbText
  0
TEXT
  5
BD
100
AcDbEntity
  8
M0
 62
     6
100
AcDbText
 10
346.167775
 20
178.552071
 40
4.32
  1
４０
 41
0.611111
  7
STANDARD
100
AcDbText
  0
TEXT
  5
BE
100
AcDbEntity
  8
M0
 62
     6
100
AcDbText
 10
312.31476
 20
172.861311
 40
4.8384
  1
揚水量（Ｌ／分）
 41
0.611111
  7
STANDARD
100
AcDbText
  0
TEXT
  5
BF
100
AcDbEntity
  8
M0
 62
     6
100
AcDbText
 10
302.967776
 20
178.552071
 40
4.32
  1
１０
 41
0.611111
  7
STANDARD
100
AcDbText
  0
TEXT
  5
C0
100
AcDbEntity
  8
M0
 62
     6
100
AcDbText
 10
331.767776
 20
178.552071
 40
4.32
  1
３０
 41
0.611111
  7
STANDARD
100
AcDbText
  0
TEXT
  5
C1
100
AcDbEntity
  8
M0
 62
     6
100
AcDbText
 10
282.807769
 20
239.537883
 40
4.32
  1
４０
 41
0.611111
  7
STANDARD
100
AcDbText
  0
TEXT
  5
C2
100
AcDbEntity
  8
M0
 62
     6
100
AcDbText
 10
282.807769
 20
253.937885
 40
4.32
  1
５０
 41
0.611111
  7
STANDARD
100
AcDbText
  0
LINE
  5
C3
100
AcDbEntity
  8
M0
 62
     6
100
AcDbLine
 10
320.175952
 20
253.820994
 11
320.175952
 21
263.18991
  0
LINE
  5
C4
100
AcDbEntity
  8
M0
 62
     6
100
AcDbLine
 10
334.575952
 20
227.18991
 11
334.575952
 21
263.18991
  0
LINE
  5
C5
100
AcDbEntity
  8
M0
 62
     6
100
AcDbLine
 10
348.975952
 20
227.18991
 11
348.975952
 21
255.98991
  0
TEXT
  5
C6
100
AcDbEntity
  8
M0
 62
     6
100
AcDbText
 10
293.439883
 20
167.376293
 40
4.32
  1
※破線部域では６０ｋＰａの圧力変動があります。
 41
0.652006
  7
STANDARD
100
AcDbText
  0
TEXT
  5
C7
100
AcDbEntity
  8
M0
 62
     6
100
AcDbText
 10
307.329512
 20
248.374172
 40
4.32
  1
吸上高さ２４ｍ時
 41
0.590278
  7
STANDARD
100
AcDbText
  0
LINE
  5
C8
100
AcDbEntity
  8
M0
 62
     6
100
AcDbLine
 10
273.242596
 20
268.427859
 11
273.242598
 21
273.611859
  0
LINE
  5
C9
100
AcDbEntity
  8
M0
 62
     6
100
AcDbLine
 10
273.242598
 20
273.611859
 11
289.226597
 21
273.611859
  0
LINE
  5
CA
100
AcDbEntity
  8
M0
 62
     6
100
AcDbLine
 10
289.226597
 20
273.611859
 11
289.226595
 21
268.427859
  0
LINE
  5
CB
100
AcDbEntity
  8
M0
 62
     6
100
AcDbLine
 10
289.226595
 20
268.427859
 11
273.242596
 21
268.427859
  0
TEXT
  5
CC
100
AcDbEntity
  8
M0
 62
     6
100
AcDbText
 10
273.839597
 20
268.859859
 40
4.32
  1
　深井戸　　　シングルジェット（Ｊ４０－２４ＳＷ）使用時
 41
0.590278
  7
STANDARD
100
AcDbText
  0
TEXT
  5
CD
100
AcDbEntity
  8
M0
 62
     6
100
AcDbText
 10
338.720999
 20
258.869907
 40
4.32
  1
吸込管径：３０ｍｍ
 41
0.590278
  7
STANDARD
100
AcDbText
  0
LINE
  5
CE
100
AcDbEntity
  8
M0
  6
DASHED
100
AcDbLine
 10
56.112234
 20
227.18991
 11
109.320234
 21
227.18991
  0
LINE
  5
CF
100
AcDbEntity
  8
M0
100
AcDbLine
 10
109.320234
 20
227.18991
 11
138.480234
 21
214.22991
  0
LINE
  5
D0
100
AcDbEntity
  8
M0
100
AcDbLine
 10
138.480234
 20
214.22991
 11
142.800234
 21
209.90991
  0
LINE
  5
D1
100
AcDbEntity
  8
M0
100
AcDbLine
 10
142.800234
 20
209.90991
 11
144.240234
 21
207.02991
  0
LINE
  5
D2
100
AcDbEntity
  8
M0
100
AcDbLine
 10
144.240234
 20
207.02991
 11
147.120319
 21
192.629483
  0
LINE
  5
D3
100
AcDbEntity
  8
M0
100
AcDbLine
 10
190.361795
 20
183.98991
 11
255.161795
 21
183.98991
  0
LINE
  5
D4
100
AcDbEntity
  8
M0
100
AcDbLine
 10
190.361795
 20
263.18991
 11
190.361795
 21
183.98991
  0
LINE
  5
D5
100
AcDbEntity
  8
M0
100
AcDbLine
 10
219.161795
 20
183.98991
 11
219.161795
 21
212.78991
  0
LINE
  5
D6
100
AcDbEntity
  8
M0
100
AcDbLine
 10
247.961795
 20
183.98991
 11
247.961795
 21
202.146412
  0
LINE
  5
D7
100
AcDbEntity
  8
M0
100
AcDbLine
 10
190.361795
 20
198.38991
 11
255.161795
 21
198.38991
  0
LINE
  5
D8
100
AcDbEntity
  8
M0
100
AcDbLine
 10
190.361795
 20
212.78991
 11
255.161795
 21
212.78991
  0
LINE
  5
D9
100
AcDbEntity
  8
M0
100
AcDbLine
 10
219.161795
 20
227.18991
 11
219.161795
 21
263.18991
  0
LINE
  5
DA
100
AcDbEntity
  8
M0
100
AcDbLine
 10
204.761795
 20
183.98991
 11
204.761795
 21
263.18991
  0
LINE
  5
DB
100
AcDbEntity
  8
M0
100
AcDbLine
 10
233.561795
 20
183.98991
 11
233.561795
 21
227.18991
  0
LINE
  5
DC
100
AcDbEntity
  8
M0
100
AcDbLine
 10
190.361795
 20
241.58991
 11
255.161795
 21
241.58991
  0
LINE
  5
DD
100
AcDbEntity
  8
M0
100
AcDbLine
 10
190.361795
 20
227.18991
 11
255.161795
 21
227.18991
  0
LINE
  5
DE
100
AcDbEntity
  8
M0
100
AcDbLine
 10
190.361795
 20
255.98991
 11
255.161795
 21
255.98991
  0
ARC
  5
DF
100
AcDbEntity
  8
M0
100
AcDbCircle
 10
176.275049
 20
211.169647
 40
4.8384
100
AcDbArc
 50
52.58592
 51
127.41408
  0
ARC
  5
E0
100
AcDbEntity
  8
M0
100
AcDbCircle
 10
176.275049
 20
214.206221
 40
4.8384
100
AcDbArc
 50
232.58592
 51
307.41408
  0
TEXT
  5
E1
100
AcDbEntity
  8
M0
100
AcDbText
 10
174.259043
 20
225.631085
 40
3.2256
  1
全
 41
1.25
  7
STANDARD
100
AcDbText
  0
TEXT
  5
E2
100
AcDbEntity
  8
M0
100
AcDbText
 10
174.259043
 20
222.082925
 40
3.2256
  1
揚
 41
1.25
  7
STANDARD
100
AcDbText
  0
TEXT
  5
E3
100
AcDbEntity
  8
M0
100
AcDbText
 10
174.259043
 20
218.534766
 40
3.2256
  1
程
 41
1.25
  7
STANDARD
100
AcDbText
  0
TEXT
  5
E4
100
AcDbEntity
  8
M0
100
AcDbText
 10
174.259043
 20
214.986606
 40
3.2256
  1
　
 41
1.25
  7
STANDARD
100
AcDbText
  0
TEXT
  5
E5
100
AcDbEntity
  8
M0
100
AcDbText
 10
174.259043
 20
211.438446
 40
3.2256
  1
ｍ
 41
1.25
  7
STANDARD
100
AcDbText
  0
TEXT
  5
E6
100
AcDbEntity
  8
M0
100
AcDbText
 10
181.793618
 20
225.137882
 40
4.32
  1
３０
 41
0.611111
  7
STANDARD
100
AcDbText
  0
TEXT
  5
E7
100
AcDbEntity
  8
M0
100
AcDbText
 10
181.793618
 20
210.737884
 40
4.32
  1
２０
 41
0.611111
  7
STANDARD
100
AcDbText
  0
TEXT
  5
E8
100
AcDbEntity
  8
M0
100
AcDbText
 10
181.793618
 20
196.337879
 40
4.32
  1
１０
 41
0.611111
  7
STANDARD
100
AcDbText
  0
TEXT
  5
E9
100
AcDbEntity
  8
M0
100
AcDbText
 10
184.673615
 20
181.937881
 40
4.32
  1
０
 41
0.611111
  7
STANDARD
100
AcDbText
  0
TEXT
  5
EA
100
AcDbEntity
  8
M0
100
AcDbText
 10
187.553612
 20
178.552074
 40
4.32
  1
０
 41
0.611111
  7
STANDARD
100
AcDbText
  0
TEXT
  5
EB
100
AcDbEntity
  8
M0
100
AcDbText
 10
216.353608
 20
178.552074
 40
4.32
  1
２０
 41
0.611111
  7
STANDARD
100
AcDbText
  0
TEXT
  5
EC
100
AcDbEntity
  8
M0
100
AcDbText
 10
245.153624
 20
178.552074
 40
4.32
  1
４０
 41
0.611111
  7
STANDARD
100
AcDbText
  0
TEXT
  5
ED
100
AcDbEntity
  8
M0
100
AcDbText
 10
212.648456
 20
172.924647
 40
4.8384
  1
揚水量（Ｌ／分）
 41
0.611111
  7
STANDARD
100
AcDbText
  0
TEXT
  5
EE
100
AcDbEntity
  8
M0
100
AcDbText
 10
201.953606
 20
178.552074
 40
4.32
  1
１０
 41
0.611111
  7
STANDARD
100
AcDbText
  0
TEXT
  5
EF
100
AcDbEntity
  8
M0
100
AcDbText
 10
230.753624
 20
178.552074
 40
4.32
  1
３０
 41
0.611111
  7
STANDARD
100
AcDbText
  0
TEXT
  5
F0
100
AcDbEntity
  8
M0
100
AcDbText
 10
181.793618
 20
239.537883
 40
4.32
  1
４０
 41
0.611111
  7
STANDARD
100
AcDbText
  0
TEXT
  5
F1
100
AcDbEntity
  8
M0
100
AcDbText
 10
181.793618
 20
253.937885
 40
4.32
  1
５０
 41
0.611111
  7
STANDARD
100
AcDbText
  0
LINE
  5
F2
100
AcDbEntity
  8
M0
100
AcDbLine
 10
233.561795
 20
227.18991
 11
233.561795
 21
263.18991
  0
LINE
  5
F3
100
AcDbEntity
  8
M0
100
AcDbLine
 10
219.161795
 20
220.24004
 11
219.161795
 21
227.18991
  0
LINE
  5
F4
100
AcDbEntity
  8
M0
100
AcDbLine
 10
247.961795
 20
209.262734
 11
247.961795
 21
255.98991
  0
TEXT
  5
F5
100
AcDbEntity
  8
M0
100
AcDbText
 10
234.915774
 20
203.318733
 40
4.32
  1
吸上高さ１８ｍ時
 41
0.590278
  7
STANDARD
100
AcDbText
  0
TEXT
  5
F6
100
AcDbEntity
  8
M0
100
AcDbText
 10
207.668207
 20
214.229911
 40
4.32
  1
吸上高さ２４ｍ時
 41
0.590278
  7
STANDARD
100
AcDbText
  0
TEXT
  5
F7
100
AcDbEntity
  8
M0
100
AcDbText
 10
237.985415
 20
256.94762
 40
4.32
  1
圧力管径：３０ｍｍ
 41
0.590278
  7
STANDARD
100
AcDbText
  0
TEXT
  5
F8
100
AcDbEntity
  8
M0
100
AcDbText
 10
237.985415
 20
262.341708
 40
4.32
  1
吸込管径：３０ｍｍ
 41
0.590278
  7
STANDARD
100
AcDbText
  0
LINE
  5
F9
100
AcDbEntity
  8
M0
100
AcDbLine
 10
172.249537
 20
267.28187
 11
172.249538
 21
272.465871
  0
LINE
  5
FA
100
AcDbEntity
  8
M0
100
AcDbLine
 10
172.249538
 20
272.465871
 11
188.233541
 21
272.465871
  0
LINE
  5
FB
100
AcDbEntity
  8
M0
100
AcDbLine
 10
188.233541
 20
272.465871
 11
188.23354
 21
267.28187
  0
LINE
  5
FC
100
AcDbEntity
  8
M0
100
AcDbLine
 10
188.23354
 20
267.28187
 11
172.249537
 21
267.28187
  0
TEXT
  5
FD
100
AcDbEntity
  8
M0
100
AcDbText
 10
172.846537
 20
267.71387
 40
4.32
  1
　深井戸　　　専用ジェット（Ｊ７５－２４Ｗ）使用時
 41
0.590278
  7
STANDARD
100
AcDbText
  0
TEXT
  5
FE
100
AcDbEntity
  8
M0
100
AcDbText
 10
192.425732
 20
167.376293
 40
4.32
  1
※破線部域では６０ｋＰａの圧力変動があります。
 41
0.652006
  7
STANDARD
100
AcDbText
  0
LINE
  5
FF
100
AcDbEntity
  8
M0
  6
DASHED
 62
    74
100
AcDbLine
 10
190.361795
 20
142.006107
 11
206.287643
 21
142.006107
  0
LINE
  5
100
100
AcDbEntity
  8
M0
 62
    74
100
AcDbLine
 10
208.928007
 20
140.430352
 11
214.626014
 21
129.866994
  0
ARC
  5
101
100
AcDbEntity
  8
M0
 62
    74
100
AcDbCircle
 10
213.041795
 20
129.012447
 40
1.8
100
AcDbArc
 50
0.0
 51
28.342976
  0
LINE
  5
102
100
AcDbEntity
  8
M0
 62
    74
100
AcDbLine
 10
214.841795
 20
107.446107
 11
214.841795
 21
129.012447
  0
ARC
  5
103
100
AcDbEntity
  8
M0
 62
    74
100
AcDbCircle
 10
206.287643
 20
139.006107
 40
3.0
100
AcDbArc
 50
28.342976
 51
90.0
  0
LINE
  5
104
100
AcDbEntity
  8
M0
  6
DASHED
 62
     4
100
AcDbLine
 10
190.361795
 20
244.46991
 11
213.530843
 21
244.46991
  0
LINE
  5
105
100
AcDbEntity
  8
M0
 62
     4
100
AcDbLine
 10
233.457042
 20
233.012762
 11
215.07433
 21
244.042389
  0
LINE
  5
106
100
AcDbEntity
  8
M0
 62
     4
100
AcDbLine
 10
233.67408
 20
232.901788
 11
242.55085
 21
229.097458
  0
ARC
  5
107
100
AcDbEntity
  8
M0
 62
     4
100
AcDbCircle
 10
241.841795
 20
227.442997
 40
1.8
100
AcDbArc
 50
0.0
 51
66.801409
  0
LINE
  5
108
100
AcDbEntity
  8
M0
 62
     4
100
AcDbLine
 10
243.641795
 20
209.90991
 11
243.641795
 21
227.442997
  0
ARC
  5
109
100
AcDbEntity
  8
M0
 62
     4
100
AcDbCircle
 10
213.530843
 20
241.46991
 40
3.0
100
AcDbArc
 50
59.036243
 51
90.0
  0
LINE
  5
10A
100
AcDbEntity
  8
M0
  6
DASHED
 62
   234
100
AcDbLine
 10
56.112234
 20
116.086107
 11
93.811894
 21
116.086107
  0
LINE
  5
10B
100
AcDbEntity
  8
M0
 62
   234
100
AcDbLine
 10
112.272234
 20
107.446107
 11
126.672234
 21
103.126107
  0
LINE
  5
10C
100
AcDbEntity
  8
M0
 62
   234
100
AcDbLine
 10
96.047962
 20
115.558243
 11
112.272234
 21
107.446107
  0
LINE
  5
10D
100
AcDbEntity
  8
M0
 62
   234
100
AcDbLine
 10
126.672234
 20
103.126107
 11
127.585026
 21
102.213314
  0
ARC
  5
10E
100
AcDbEntity
  8
M0
 62
   234
100
AcDbCircle
 10
126.312234
 20
100.940522
 40
1.8
100
AcDbArc
 50
0.0
 51
45.0
  0
LINE
  5
10F
100
AcDbEntity
  8
M0
 62
   234
100
AcDbLine
 10
128.112234
 20
81.526107
 11
128.112234
 21
100.940522
  0
ARC
  5
110
100
AcDbEntity
  8
M0
 62
   234
100
AcDbCircle
 10
93.811894
 20
111.086107
 40
5.0
100
AcDbArc
 50
63.434949
 51
90.0
  0
LINE
  5
111
100
AcDbEntity
  8
M0
  6
DASHED
 62
     5
100
AcDbLine
 10
190.361795
 20
253.10991
 11
203.519154
 21
253.10991
  0
LINE
  5
112
100
AcDbEntity
  8
M0
 62
     5
100
AcDbLine
 10
205.640475
 20
252.23123
 11
213.785859
 21
244.085846
  0
ARC
  5
113
100
AcDbEntity
  8
M0
 62
     5
100
AcDbCircle
 10
224.561795
 20
235.82991
 40
1.8
100
AcDbArc
 50
0.0
 51
56.309932
  0
LINE
  5
114
100
AcDbEntity
  8
M0
 62
     5
100
AcDbLine
 10
226.361795
 20
235.82991
 11
226.361795
 21
218.54991
  0
ARC
  5
115
100
AcDbEntity
  8
M0
 62
     5
100
AcDbCircle
 10
203.519154
 20
250.10991
 40
3.0
100
AcDbArc
 50
45.0
 51
90.0
  0
LINE
  5
116
100
AcDbEntity
  8
M0
 62
     5
100
AcDbLine
 10
225.560255
 20
237.327601
 11
216.160154
 21
242.328532
  0
ARC
  5
117
100
AcDbEntity
  8
M0
 62
     5
100
AcDbCircle
 10
220.856927
 20
251.156914
 40
10.0
100
AcDbArc
 50
225.0
 51
241.986654
  0
LINE
  5
118
100
AcDbEntity
  8
M0
 62
     4
100
AcDbLine
 10
32.396985
 20
266.332821
 11
53.442951
 21
266.332821
  0
LINE
  5
119
100
AcDbEntity
  8
M0
 62
     4
100
AcDbLine
 10
53.442951
 20
274.911558
 11
32.396985
 21
274.911558
  0
LINE
  5
11A
100
AcDbEntity
  8
M0
 62
     4
100
AcDbLine
 10
32.396985
 20
274.911558
 11
32.396985
 21
266.332821
  0
LINE
  5
11B
100
AcDbEntity
  8
M0
 62
     4
100
AcDbLine
 10
53.442951
 20
274.911558
 11
53.442951
 21
266.332821
  0
TEXT
  5
11C
100
AcDbEntity
  8
M0
 62
     4
100
AcDbText
 10
34.639962
 20
268.192189
 40
4.86
  1
揚水性能
 41
0.740741
  7
STANDARD
100
AcDbText
  0
LINE
  5
11D
100
AcDbEntity
  8
M0
 62
     4
100
AcDbLine
 10
56.112234
 20
263.18991
 11
56.112234
 21
183.98991
  0
LINE
  5
11E
100
AcDbEntity
  8
M0
 62
     4
100
AcDbLine
 10
56.112234
 20
183.98991
 11
156.012234
 21
183.98991
  0
LINE
  5
11F
100
AcDbEntity
  8
M0
 62
     4
100
AcDbLine
 10
84.912234
 20
183.98991
 11
84.912234
 21
227.18991
  0
LINE
  5
120
100
AcDbEntity
  8
M0
 62
     4
100
AcDbLine
 10
113.712234
 20
183.98991
 11
113.712234
 21
227.18991
  0
LINE
  5
121
100
AcDbEntity
  8
M0
 62
     4
100
AcDbLine
 10
142.512234
 20
183.98991
 11
142.512234
 21
255.98991
  0
LINE
  5
122
100
AcDbEntity
  8
M0
 62
     4
100
AcDbLine
 10
56.112234
 20
198.38991
 11
156.012234
 21
198.38991
  0
LINE
  5
123
100
AcDbEntity
  8
M0
 62
     4
100
AcDbLine
 10
56.112234
 20
212.78991
 11
156.012234
 21
212.78991
  0
LINE
  5
124
100
AcDbEntity
  8
M0
 62
     4
100
AcDbLine
 10
84.912234
 20
227.18991
 11
84.912234
 21
263.18991
  0
LINE
  5
125
100
AcDbEntity
  8
M0
 62
     4
100
AcDbLine
 10
70.512234
 20
183.98991
 11
70.512234
 21
263.18991
  0
LINE
  5
126
100
AcDbEntity
  8
M0
 62
     4
100
AcDbLine
 10
99.312234
 20
183.98991
 11
99.312234
 21
263.18991
  0
LINE
  5
127
100
AcDbEntity
  8
M0
 62
     4
100
AcDbLine
 10
128.112234
 20
183.98991
 11
128.112234
 21
263.18991
  0
LINE
  5
128
100
AcDbEntity
  8
M0
 62
     4
100
AcDbLine
 10
56.112234
 20
241.58991
 11
156.012234
 21
241.58991
  0
LINE
  5
129
100
AcDbEntity
  8
M0
 62
     4
100
AcDbLine
 10
56.112234
 20
227.18991
 11
156.012234
 21
227.18991
  0
LINE
  5
12A
100
AcDbEntity
  8
M0
 62
     4
100
AcDbLine
 10
56.112234
 20
255.98991
 11
156.012234
 21
255.98991
  0
LINE
  5
12B
100
AcDbEntity
  8
M0
 62
     4
100
AcDbLine
 10
113.712234
 20
235.783872
 11
113.712234
 21
263.18991
  0
TEXT
  5
12C
100
AcDbEntity
  8
M0
 62
     4
100
AcDbText
 10
139.704042
 20
178.552072
 40
4.32
  1
６０
 41
0.611111
  7
STANDARD
100
AcDbText
  0
TEXT
  5
12D
100
AcDbEntity
  8
M0
 62
     4
100
AcDbText
 10
125.304047
 20
178.552072
 40
4.32
  1
５０
 41
0.611111
  7
STANDARD
100
AcDbText
  0
TEXT
  5
12E
100
AcDbEntity
  8
M0
 62
     4
100
AcDbText
 10
110.904053
 20
178.552072
 40
4.32
  1
４０
 41
0.611111
  7
STANDARD
100
AcDbText
  0
TEXT
  5
12F
100
AcDbEntity
  8
M0
 62
     4
100
AcDbText
 10
91.77893
 20
172.785691
 40
4.8384
  1
揚水量（Ｌ／分）
 41
0.611111
  7
STANDARD
100
AcDbText
  0
TEXT
  5
130
100
AcDbEntity
  8
M0
 62
     4
100
AcDbText
 10
58.17617
 20
167.376294
 40
4.32
  1
※破線部域では６０ｋＰａの圧力変動があります。
 41
0.652006
  7
STANDARD
100
AcDbText
  0
TEXT
  5
131
100
AcDbEntity
  8
M0
 62
     4
100
AcDbText
 10
96.504051
 20
178.552072
 40
4.32
  1
３０
 41
0.611111
  7
STANDARD
100
AcDbText
  0
TEXT
  5
132
100
AcDbEntity
  8
M0
 62
     4
100
AcDbText
 10
82.104054
 20
178.552072
 40
4.32
  1
２０
 41
0.611111
  7
STANDARD
100
AcDbText
  0
TEXT
  5
133
100
AcDbEntity
  8
M0
 62
     4
100
AcDbText
 10
67.704052
 20
178.552072
 40
4.32
  1
１０
 41
0.611111
  7
STANDARD
100
AcDbText
  0
TEXT
  5
134
100
AcDbEntity
  8
M0
 62
     4
100
AcDbText
 10
53.30405
 20
178.552072
 40
4.32
  1
０
 41
0.611111
  7
STANDARD
100
AcDbText
  0
TEXT
  5
135
100
AcDbEntity
  8
M0
 62
     4
100
AcDbText
 10
50.424053
 20
181.937879
 40
4.32
  1
０
 41
0.611111
  7
STANDARD
100
AcDbText
  0
TEXT
  5
136
100
AcDbEntity
  8
M0
 62
     4
100
AcDbText
 10
47.544056
 20
196.337882
 40
4.32
  1
１０
 41
0.611111
  7
STANDARD
100
AcDbText
  0
TEXT
  5
137
100
AcDbEntity
  8
M0
 62
     4
100
AcDbText
 10
47.544056
 20
210.73788
 40
4.32
  1
２０
 41
0.611111
  7
STANDARD
100
AcDbText
  0
TEXT
  5
138
100
AcDbEntity
  8
M0
 62
     4
100
AcDbText
 10
40.295682
 20
225.576336
 40
3.2256
  1
全
 41
1.25
  7
STANDARD
100
AcDbText
  0
TEXT
  5
139
100
AcDbEntity
  8
M0
 62
     4
100
AcDbText
 10
40.295682
 20
222.028176
 40
3.2256
  1
揚
 41
1.25
  7
STANDARD
100
AcDbText
  0
TEXT
  5
13A
100
AcDbEntity
  8
M0
 62
     4
100
AcDbText
 10
40.295682
 20
218.480016
 40
3.2256
  1
程
 41
1.25
  7
STANDARD
100
AcDbText
  0
TEXT
  5
13B
100
AcDbEntity
  8
M0
 62
     4
100
AcDbText
 10
40.295682
 20
214.931856
 40
3.2256
  1
　
 41
1.25
  7
STANDARD
100
AcDbText
  0
TEXT
  5
13C
100
AcDbEntity
  8
M0
 62
     4
100
AcDbText
 10
40.295682
 20
211.383697
 40
3.2256
  1
ｍ
 41
1.25
  7
STANDARD
100
AcDbText
  0
ARC
  5
13D
100
AcDbEntity
  8
M0
 62
     4
100
AcDbCircle
 10
42.311681
 20
214.15147
 40
4.8384
100
AcDbArc
 50
232.58592
 51
307.41408
  0
ARC
  5
13E
100
AcDbEntity
  8
M0
 62
     4
100
AcDbCircle
 10
42.311681
 20
211.114897
 40
4.8384
100
AcDbArc
 50
52.58592
 51
127.41408
  0
TEXT
  5
13F
100
AcDbEntity
  8
M0
 62
     4
100
AcDbText
 10
47.544056
 20
225.137881
 40
4.32
  1
３０
 41
0.611111
  7
STANDARD
100
AcDbText
  0
TEXT
  5
140
100
AcDbEntity
  8
M0
 62
     4
100
AcDbText
 10
47.544056
 20
239.537881
 40
4.32
  1
４０
 41
0.611111
  7
STANDARD
100
AcDbText
  0
TEXT
  5
141
100
AcDbEntity
  8
M0
 62
     4
100
AcDbText
 10
47.544056
 20
253.937881
 40
4.32
  1
５０
 41
0.611111
  7
STANDARD
100
AcDbText
  0
TEXT
  5
142
100
AcDbEntity
  8
M0
 62
     4
100
AcDbText
 10
100.865789
 20
229.613968
 40
4.32
  1
吸上高さ６ｍ時
 41
0.590278
  7
STANDARD
100
AcDbText
  0
TEXT
  5
143
100
AcDbEntity
  8
M0
 62
     4
100
AcDbText
 10
130.576715
 20
258.86991
 40
4.32
  1
吸込管径：３０ｍｍ
 41
0.590278
  7
STANDARD
100
AcDbText
  0
LINE
  5
144
100
AcDbEntity
  8
M0
 62
     4
100
AcDbLine
 10
67.341467
 20
266.918816
 11
67.341468
 21
272.102816
  0
LINE
  5
145
100
AcDbEntity
  8
M0
 62
     4
100
AcDbLine
 10
67.341468
 20
272.102816
 11
89.445466
 21
272.102816
  0
LINE
  5
146
100
AcDbEntity
  8
M0
 62
     4
100
AcDbLine
 10
89.445466
 20
272.102816
 11
89.445465
 21
266.918816
  0
LINE
  5
147
100
AcDbEntity
  8
M0
 62
     4
100
AcDbLine
 10
89.445465
 20
266.918816
 11
67.341467
 21
266.918816
  0
TEXT
  5
148
100
AcDbEntity
  8
M0
 62
     4
100
AcDbText
 10
67.938467
 20
267.350816
 40
4.32
  1
　浅井戸配管　　　標準ジェット（Ｊ７５－６Ｗ）使用時
 41
0.590278
  7
STANDARD
100
AcDbText
  0
LINE
  5
149
100
AcDbEntity
  8
M0
 62
     1
100
AcDbLine
 10
305.775952
 20
235.701988
 11
305.775952
 21
218.54991
  0
LINE
  5
14A
100
AcDbEntity
  8
M0
 62
     1
100
AcDbLine
 10
303.675342
 20
250.534174
 11
305.757861
 21
235.956547
  0
ARC
  5
14B
100
AcDbEntity
  8
M0
 62
     1
100
AcDbCircle
 10
303.975952
 20
235.701988
 40
1.8
100
AcDbArc
 50
0.0
 51
8.130102
  0
LINE
  5
14C
100
AcDbEntity
  8
M0
  6
DASHED
 62
     1
100
AcDbLine
 10
291.375952
 20
253.10991
 11
300.705494
 21
253.10991
  0
ARC
  5
14D
100
AcDbEntity
  8
M0
 62
     1
100
AcDbCircle
 10
300.705494
 20
250.10991
 40
3.0
100
AcDbArc
 50
8.130102
 51
90.0
  0
LINE
  5
14E
100
AcDbEntity
  8
M0
  6
DASHED
 62
    34
100
AcDbLine
 10
190.361795
 20
149.206107
 11
194.825017
 21
149.206107
  0
ARC
  5
14F
100
AcDbEntity
  8
M0
 62
    34
100
AcDbCircle
 10
205.841795
 20
136.246107
 40
1.8
100
AcDbArc
 50
0.0
 51
45.0
  0
LINE
  5
150
100
AcDbEntity
  8
M0
 62
    34
100
AcDbLine
 10
207.641795
 20
136.246107
 11
207.641795
 21
114.646107
  0
LINE
  5
151
100
AcDbEntity
  8
M0
 62
    34
100
AcDbLine
 10
207.114587
 20
137.518899
 11
197.010264
 21
148.261513
  0
ARC
  5
152
100
AcDbEntity
  8
M0
 62
    34
100
AcDbCircle
 10
194.825017
 20
146.206107
 40
3.0
100
AcDbArc
 50
43.246267
 51
90.0
  0
ENDSEC
  0
SECTION
  2
OBJECTS
  0
DICTIONARY
  5
C
100
AcDbDictionary
  3
ACAD_GROUP
350
D
  3
ACAD_MLINESTYLE
350
E
  0
DICTIONARY
  5
D
102
{ACAD_REACTORS
330
C
102
}
100
AcDbDictionary
  0
DICTIONARY
  5
E
102
{ACAD_REACTORS
330
C
102
}
100
AcDbDictionary
  3
STANDARD
350
13
  0
MLINESTYLE
  5
13
102
{ACAD_REACTORS
330
E
102
}
100
AcDbMlineStyle
  2
STANDARD
 70
     0
  3

 62
     0
 51
90.0
 52
90.0
 71
     2
 49
0.5
 62
   256
  6
BYLAYER
 49
-0.5
 62
   256
  6
BYLAYER
  0
ENDSEC
  0
EOF
