  0
SECTION
  2
HEADER
  9
$ACADVER
  1
AC1012
  9
$INSBASE
 10
0.0
 20
0.0
  9
$VIEWCTR
 10
7.531722
 20
4.5
  9
$VIEWSIZE
 40
9.0
  9
$SNAPMODE
 70
     0
  9
$SNAPUNIT
 10
1.0
 20
1.0
  9
$SNAPBASE
 10
0.0
 20
0.0
  9
$SNAPANG
 50
0.0
  9
$SNAPSTYLE
 70
     0
  9
$SNAPISOPAIR
 70
     0
  9
$GRIDMODE
 70
     0
  9
$GRIDUNIT
 10
0.0
 20
0.0
  9
$ORTHOMODE
 70
     0
  9
$REGENMODE
 70
     1
  9
$FILLMODE
 70
     1
  9
$QTEXTMODE
 70
     0
  9
$DRAGMODE
 70
     2
  9
$LTSCALE
 40
1.0
  9
$OSMODE
 70
     0
  9
$ATTMODE
 70
     1
  9
$TEXTSIZE
 40
0.2
  9
$TRACEWID
 40
0.05
  9
$TEXTSTYLE
  7
STANDARD
  9
$CELTYPE
  6
BYLAYER
  9
$CECOLOR
 62
   256
  9
$DIMSCALE
 40
1.0
  9
$DIMASZ
 40
0.18
  9
$DIMEXO
 40
0.0625
  9
$DIMDLI
 40
0.38
  9
$DIMRND
 40
0.0
  9
$DIMDLE
 40
0.0
  9
$DIMEXE
 40
0.18
  9
$DIMTP
 40
0.0
  9
$DIMTM
 40
0.0
  9
$DIMTXT
 40
0.18
  9
$DIMCEN
 40
0.09
  9
$DIMTSZ
 40
0.0
  9
$DIMTOL
 70
     0
  9
$DIMLIM
 70
     0
  9
$DIMTIH
 70
     1
  9
$DIMTOH
 70
     1
  9
$DIMSE1
 70
     0
  9
$DIMSE2
 70
     0
  9
$DIMTAD
 70
     0
  9
$DIMZIN
 70
     0
  9
$DIMBLK
  1

  9
$LUNITS
 70
     2
  9
$LUPREC
 70
     4
  9
$AXISMODE
 70
     0
  9
$AXISUNIT
 10
0.0
 20
0.0
  9
$SKETCHINC
 40
0.1
  9
$FILLETRAD
 40
0.0
  9
$AUNITS
 70
     0
  9
$AUPREC
 70
     0
  9
$MENU
  1
ACAD
  9
$ELEVATION
 40
0.0
  9
$THICKNESS
 40
0.0
  9
$VIEWDIR
 10
0.0
 20
0.0
 30
1.0
  9
$LIMCHECK
 70
     0
  9
$BLIPMODE
 70
     1
  9
$CHAMFERA
 40
0.0
  9
$CHAMFERB
 40
0.0
  9
$FASTZOOM
 70
     1
  9
$SKPOLY
 70
     0
  9
$TDCREATE
 40
0000000.0000000000
  9
$TDUPDATE
 40
0000000.0000000000
  9
$TDINDWG
 40
0.0000000000
  9
$TDUSRTIMER
 40
0.0000000000
  9
$USRTIMER
 70
     1
  9
$ANGBASE
 50
0.0
  9
$ANGDIR
 70
     0
  9
$PDMODE
 70
     0
  9
$PDSIZE
 40
0.0
  9
$PLINEWID
 40
0.0
  9
$COORDS
 70
     0
  9
$USERI1
 70
     0
  9
$USERI2
 70
     0
  9
$USERI3
 70
     0
  9
$USERI4
 70
     0
  9
$USERI5
 70
     0
  9
$USERR1
 40
0.0
  9
$USERR2
 40
0.0
  9
$USERR3
 40
0.0
  9
$USERR4
 40
0.0
  9
$USERR5
 40
0.0
  9
$CLAYER
  8
M0
  9
$EXTMIN
 10
0.0
 20
0.0
  9
$EXTMAX
 10
420.0
 20
297.0
  9
$LIMMIN
 10
0.0
 20
0.0
  9
$LIMMAX
 10
420.0
 20
297.0
  9
$HANDSEED
  5
E2
  0
ENDSEC
  0
SECTION
  2
CLASSES
  0
ENDSEC
  0
SECTION
  2
TABLES
  0
TABLE
  2
VPORT
  5
8
100
AcDbSymbolTable
 70
     2
  0
VPORT
  5
14
100
AcDbSymbolTableRecord
100
AcDbViewportTableRecord
  2
*ACTIVE
 70
     0
 10
0.0
 20
0.0
 11
1.0
 21
1.0
 12
484.0
 22
297.0
 13
0.0
 23
0.0
 14
1.0
 24
1.0
 15
0.0
 25
0.0
 16
0.0
 26
0.0
 36
1.0
 17
0.0
 27
0.0
 37
0.0
 40
594.0
 41
2.0
 42
50.0
 43
0.0
 44
0.0
 50
0.0
 51
0.0
 71
     0
 72
   100
 73
     1
 74
     1
 75
     0
 76
     0
 77
     0
 78
     0
  0
ENDTAB
  0
TABLE
  2
LTYPE
  5
5
100
AcDbSymbolTable
 70
     5
  0
LTYPE
  5
15
100
AcDbSymbolTableRecord
100
AcDbLinetypeTableRecord
  2
BYBLOCK
 70
     0
  3

 72
    65
 73
     0
 40
0.0
  0
LTYPE
  5
16
100
AcDbSymbolTableRecord
100
AcDbLinetypeTableRecord
  2
BYLAYER
 70
     0
  3

 72
    65
 73
     0
 40
0.0
  0
LTYPE
  5
17
100
AcDbSymbolTableRecord
100
AcDbLinetypeTableRecord
  2
CONTINUOUS
 70
    64
  3
Solid line
 72
    65
 73
     0
 40
0.0
  0
LTYPE
  5
18
100
AcDbSymbolTableRecord
100
AcDbLinetypeTableRecord
  2
DASHED
 70
    64
  3
__ __ __ __ __ __ __ __ __ __ __ __ __ __ __ __
 72
    65
 73
     2
 40
0.75
 49
0.5
 74
     0
 49
-0.25
 74
     0
  0
LTYPE
  5
19
100
AcDbSymbolTableRecord
100
AcDbLinetypeTableRecord
  2
DASHDOT
 70
    64
  3
__ . __ . __ . __ . __ . __ . __ . __ . __ . __
 72
    65
 73
     4
 40
1.0
 49
0.5
 74
     0
 49
-0.25
 74
     0
 49
0.0
 74
     0
 49
-0.25
 74
     0
  0
LTYPE
  5
1A
100
AcDbSymbolTableRecord
100
AcDbLinetypeTableRecord
  2
DIVIDE
 70
    64
  3
____ . . ____ . . ____ . . ____ . . ____ . . __
 72
    65
 73
     6
 40
1.25
 49
0.5
 74
     0
 49
-0.25
 74
     0
 49
0.0
 74
     0
 49
-0.25
 74
     0
 49
0.0
 74
     0
 49
-0.25
 74
     0
  0
LTYPE
  5
1B
100
AcDbSymbolTableRecord
100
AcDbLinetypeTableRecord
  2
DOT
 70
    64
  3
. . . . . . . . . . . . . . . . . . . . . . . .
 72
    65
 73
     2
 40
0.25
 49
0.0
 74
     0
 49
-0.25
 74
     0
  0
ENDTAB
  0
TABLE
  2
LAYER
  5
2
100
AcDbSymbolTable
 70
   102
  0
LAYER
  5
F
100
AcDbSymbolTableRecord
100
AcDbLayerTableRecord
  2
0
 70
     0
 62
     7
  6
CONTINUOUS
  0
LAYER
  5
1C
100
AcDbSymbolTableRecord
100
AcDbLayerTableRecord
  2
DEFPOINTS
 70
     0
 62
     7
  6
CONTINUOUS
  0
LAYER
  5
1D
100
AcDbSymbolTableRecord
100
AcDbLayerTableRecord
  2
M0
 70
     0
 62
     3
  6
CONTINUOUS
  0
ENDTAB
  0
TABLE
  2
STYLE
  5
3
100
AcDbSymbolTable
 70
     2
  0
STYLE
  5
10
100
AcDbSymbolTableRecord
100
AcDbTextStyleTableRecord
  2
STANDARD
 70
     0
 40
0.0
 41
1.0
 50
0.0
 71
     0
 42
0.2
  3
txt
  4
BIGFONT
  0
ENDTAB
  0
TABLE
  2
VIEW
  5
6
100
AcDbSymbolTable
 70
     0
  0
ENDTAB
  0
TABLE
  2
UCS
  5
7
100
AcDbSymbolTable
 70
     0
  0
ENDTAB
  0
TABLE
  2
APPID
  5
9
100
AcDbSymbolTable
 70
     1
  0
APPID
  5
11
100
AcDbSymbolTableRecord
100
AcDbRegAppTableRecord
  2
ACAD
 70
     0
  0
ENDTAB
  0
TABLE
  2
DIMSTYLE
  5
A
100
AcDbSymbolTable
 70
     2
  0
DIMSTYLE
105
24
100
AcDbSymbolTableRecord
100
AcDbDimStyleTableRecord
  2
STANDARD
 70
     0
  3

  4

  5

  6
_OPEN
  7
_OPEN
 40
1.0
 41
3.0
 42
0.0
 43
8.0
 44
1.5
 45
0.0
 46
0.0
 47
0.0
 48
0.0
140
3.5
141
0.09
142
0.0
143
0.03937
144
1.0
145
0.0
146
1.0
147
1.0
 71
     0
 72
     0
 73
     0
 74
     0
 75
     0
 76
     0
 77
     3
 78
     8
170
     0
171
     2
172
     0
173
     1
174
     0
175
     0
176
     0
177
     0
178
     0
270
     2
271
     2
272
     4
273
     2
274
     2
340
10
275
     0
280
     0
281
     0
282
     0
283
     1
284
     0
285
     0
286
     0
287
     3
288
     0
  0
DIMSTYLE
105
25
100
AcDbSymbolTableRecord
100
AcDbDimStyleTableRecord
  2
LEADSTYL
 70
     0
  3

  4

  5

  6
_OPEN
  7
_OPEN
 40
1.0
 41
3.0
 42
0.0625
 43
0.38
 44
0.18
 45
0.0
 46
0.0
 47
0.0
 48
0.0
140
3.2
141
0.09
142
0.0
143
25.4
144
1.0
145
0.0
146
1.0
147
1.0
 71
     0
 72
     0
 73
     1
 74
     1
 75
     0
 76
     0
 77
     0
 78
     0
170
     0
171
     2
172
     0
173
     1
174
     0
175
     0
176
     0
177
     0
178
     0
270
     2
271
     4
272
     4
273
     2
274
     2
340
10
275
     0
280
     0
281
     0
282
     0
283
     1
284
     0
285
     0
286
     0
287
     3
288
     0
  0
ENDTAB
  0
TABLE
  2
BLOCK_RECORD
  5
1
100
AcDbSymbolTable
 70
     6
  0
BLOCK_RECORD
  5
1E
100
AcDbSymbolTableRecord
100
AcDbBlockTableRecord
  2
*MODEL_SPACE
  0
BLOCK_RECORD
  5
21
100
AcDbSymbolTableRecord
100
AcDbBlockTableRecord
  2
*PAPER_SPACE
  0
BLOCK_RECORD
  5
26
100
AcDbSymbolTableRecord
100
AcDbBlockTableRecord
  2
_NONE
  0
BLOCK_RECORD
  5
2A
100
AcDbSymbolTableRecord
100
AcDbBlockTableRecord
  2
_OPEN
  0
BLOCK_RECORD
  5
30
100
AcDbSymbolTableRecord
100
AcDbBlockTableRecord
  2
_CLOSED
  0
BLOCK_RECORD
  5
37
100
AcDbSymbolTableRecord
100
AcDbBlockTableRecord
  2
_ORIGIN
  0
BLOCK_RECORD
  5
3C
100
AcDbSymbolTableRecord
100
AcDbBlockTableRecord
  2
_DOT
  0
BLOCK_RECORD
  5
44
100
AcDbSymbolTableRecord
100
AcDbBlockTableRecord
  2
_OBLIQUE
  0
ENDTAB
  0
ENDSEC
  0
SECTION
  2
BLOCKS
  0
BLOCK
  5
1F
100
AcDbEntity
  8
0
100
AcDbBlockBegin
  2
*MODEL_SPACE
 70
     0
 10
0.0
 20
0.0
 30
0.0
  3
*MODEL_SPACE
  1

  0
ENDBLK
  5
20
100
AcDbEntity
  8
0
100
AcDbBlockEnd
  0
BLOCK
  5
22
100
AcDbEntity
 67
     1
  8
0
100
AcDbBlockBegin
  2
*PAPER_SPACE
 70
     0
 10
0.0
 20
0.0
 30
0.0
  3
*PAPER_SPACE
  1

  0
ENDBLK
  5
23
100
AcDbEntity
 67
     1
  8
0
100
AcDbBlockEnd
  0
BLOCK
  5
27
100
AcDbEntity
  8
0
100
AcDbBlockBegin
  2
_NONE
 70
     0
 10
0.0
 20
0.0
  0
CIRCLE
  5
28
100
AcDbEntity
  8
0
 62
     0
100
AcDbCircle
 10
0.0
 20
0.0
 40
0.25
  0
ENDBLK
  5
29
100
AcDbEntity
  8
0
100
AcDbBlockEnd
  0
BLOCK
  5
2B
100
AcDbEntity
  8
0
100
AcDbBlockBegin
  2
_OPEN
 70
     0
 10
0.0
 20
0.0
  0
LINE
  5
2C
100
AcDbEntity
  8
0
 62
     0
100
AcDbLine
 10
-0.965926
 20
0.258819
 11
0.0
 21
0.0
  0
LINE
  5
2D
100
AcDbEntity
  8
0
 62
     0
100
AcDbLine
 10
0.0
 20
0.0
 11
-0.965926
 21
-0.258819
  0
LINE
  5
2E
100
AcDbEntity
  8
0
 62
     0
100
AcDbLine
 10
0.0
 20
0.0
 11
-1.0
 21
0.0
  0
ENDBLK
  5
2F
100
AcDbEntity
  8
0
100
AcDbBlockEnd
  0
BLOCK
  5
31
100
AcDbEntity
  8
0
100
AcDbBlockBegin
  2
_CLOSED
 70
     0
 10
0.0
 20
0.0
  0
LINE
  5
32
100
AcDbEntity
  8
0
 62
     0
100
AcDbLine
 10
-0.965926
 20
0.258819
 11
0.0
 21
0.0
  0
LINE
  5
33
100
AcDbEntity
  8
0
 62
     0
100
AcDbLine
 10
0.0
 20
0.0
 11
-0.965926
 21
-0.258819
  0
LINE
  5
34
100
AcDbEntity
  8
0
 62
     0
100
AcDbLine
 10
-0.965926
 20
0.258819
 11
-0.965926
 21
-0.258819
  0
LINE
  5
35
100
AcDbEntity
  8
0
 62
     0
100
AcDbLine
 10
0.0
 20
0.0
 11
-1.0
 21
0.0
  0
ENDBLK
  5
36
100
AcDbEntity
  8
0
100
AcDbBlockEnd
  0
BLOCK
  5
38
100
AcDbEntity
  8
0
100
AcDbBlockBegin
  2
_ORIGIN
 70
     0
 10
0.0
 20
0.0
  0
CIRCLE
  5
39
100
AcDbEntity
  8
0
 62
     0
100
AcDbCircle
 10
0.0
 20
0.0
 40
0.5
  0
LINE
  5
3A
100
AcDbEntity
  8
0
 62
     0
100
AcDbLine
 10
0.0
 20
0.0
 11
-1.0
 21
0.0
  0
ENDBLK
  5
3B
100
AcDbEntity
  8
0
100
AcDbBlockEnd
  0
BLOCK
  5
3D
100
AcDbEntity
  8
0
100
AcDbBlockBegin
  2
_DOT
 70
     0
 10
0.0
 20
0.0
  0
POLYLINE
  5
3E
100
AcDbEntity
  8
0
 62
     0
100
AcDb2dPolyline
 66
     1
 70
     1
 40
0.5
 41
0.5
  0
VERTEX
  5
3F
100
AcDbEntity
  8
0
 62
     0
100
AcDbVertex
100
AcDb2dVertex
 10
-0.25
 20
0.0
 42
1.0
  0
VERTEX
  5
40
100
AcDbEntity
  8
0
 62
     0
100
AcDbVertex
100
AcDb2dVertex
 10
0.25
 20
0.0
 42
1.0
  0
SEQEND
  5
41
100
AcDbEntity
  8
0
 62
     0
  0
LINE
  5
42
100
AcDbEntity
  8
0
 62
     0
100
AcDbLine
 10
-0.5
 20
0.0
 11
-1.0
 21
0.0
  0
ENDBLK
  5
43
100
AcDbEntity
  8
0
100
AcDbBlockEnd
  0
BLOCK
  5
45
100
AcDbEntity
  8
0
100
AcDbBlockBegin
  2
_OBLIQUE
 70
     0
 10
0.0
 20
0.0
  0
LINE
  5
46
100
AcDbEntity
  8
0
 62
     0
100
AcDbLine
 10
-0.353553
 20
-0.353553
 11
0.353553
 21
0.353553
  0
ENDBLK
  5
47
100
AcDbEntity
  8
0
100
AcDbBlockEnd
  0
ENDSEC
  0
SECTION
  2
ENTITIES
  0
LINE
  5
48
100
AcDbEntity
  8
M0
100
AcDbLine
 10
69.168111
 20
263.813541
 11
69.168111
 21
273.813541
  0
LINE
  5
49
100
AcDbEntity
  8
M0
100
AcDbLine
 10
69.168111
 20
273.813541
 11
39.168111
 21
273.813541
  0
LINE
  5
4A
100
AcDbEntity
  8
M0
100
AcDbLine
 10
39.168111
 20
273.813541
 11
39.168111
 21
263.813541
  0
LINE
  5
4B
100
AcDbEntity
  8
M0
100
AcDbLine
 10
39.168111
 20
263.813541
 11
69.168111
 21
263.813541
  0
TEXT
  5
4C
100
AcDbEntity
  8
M0
100
AcDbText
 10
41.983537
 20
265.017647
 40
7.0
  1
揚水性能
 41
0.780952
  7
STANDARD
100
AcDbText
  0
LINE
  5
4D
100
AcDbEntity
  8
M0
100
AcDbLine
 10
88.188985
 20
253.333541
 11
88.188987
 21
259.093541
  0
LINE
  5
4E
100
AcDbEntity
  8
M0
100
AcDbLine
 10
88.188987
 20
259.093541
 11
112.748989
 21
259.093541
  0
LINE
  5
4F
100
AcDbEntity
  8
M0
100
AcDbLine
 10
112.748989
 20
259.093541
 11
112.748988
 21
253.333541
  0
LINE
  5
50
100
AcDbEntity
  8
M0
100
AcDbLine
 10
112.748988
 20
253.333541
 11
88.188985
 21
253.333541
  0
TEXT
  5
51
100
AcDbEntity
  8
M0
100
AcDbText
 10
88.852319
 20
253.813541
 40
4.8
  1
　浅井戸配管　　　標準ジェット（Ｊ１５－６Ｓ）使用時
 41
0.590278
  7
STANDARD
100
AcDbText
  0
TEXT
  5
52
100
AcDbEntity
  8
M0
100
AcDbText
 10
182.680734
 20
240.069324
 40
4.8
  1
吸込管径：２０ｍｍ
 41
0.590278
  7
STANDARD
100
AcDbText
  0
LINE
  5
53
100
AcDbEntity
  8
M0
100
AcDbLine
 10
265.551211
 20
253.333541
 11
265.551213
 21
259.093541
  0
LINE
  5
54
100
AcDbEntity
  8
M0
100
AcDbLine
 10
265.551213
 20
259.093541
 11
290.111212
 21
259.093541
  0
LINE
  5
55
100
AcDbEntity
  8
M0
100
AcDbLine
 10
290.111212
 20
259.093541
 11
290.11121
 21
253.333541
  0
LINE
  5
56
100
AcDbEntity
  8
M0
100
AcDbLine
 10
290.11121
 20
253.333541
 11
265.551211
 21
253.333541
  0
TEXT
  5
57
100
AcDbEntity
  8
M0
100
AcDbText
 10
266.214545
 20
253.813541
 40
4.8
  1
　深井戸配管　　　標準ジェット（Ｊ１５－６Ｓ）使用時
 41
0.590278
  7
STANDARD
100
AcDbText
  0
TEXT
  5
58
100
AcDbEntity
  8
M0
100
AcDbText
 10
353.042952
 20
246.069324
 40
4.8
  1
吸込管径：２５ｍｍ
 41
0.590278
  7
STANDARD
100
AcDbText
  0
TEXT
  5
59
100
AcDbEntity
  8
M0
100
AcDbText
 10
353.042952
 20
240.075901
 40
4.8
  1
圧力管径：２０ｍｍ
 41
0.590278
  7
STANDARD
100
AcDbText
  0
ARC
  5
5A
100
AcDbEntity
  8
M0
100
AcDbCircle
 10
75.462475
 20
194.367528
 40
7.68
100
AcDbArc
 50
52.58592
 51
127.41408
  0
ARC
  5
5B
100
AcDbEntity
  8
M0
100
AcDbCircle
 10
75.462475
 20
199.187486
 40
7.68
100
AcDbArc
 50
232.58592
 51
307.41408
  0
ARC
  5
5C
100
AcDbEntity
  8
M0
100
AcDbCircle
 10
245.137444
 20
193.868991
 40
7.68
100
AcDbArc
 50
52.58592
 51
127.41408
  0
ARC
  5
5D
100
AcDbEntity
  8
M0
100
AcDbCircle
 10
245.137444
 20
198.688949
 40
7.68
100
AcDbArc
 50
232.58592
 51
307.41408
  0
ARC
  5
5E
100
AcDbEntity
  8
M0
100
AcDbCircle
 10
76.769054
 20
62.950785
 40
7.68
100
AcDbArc
 50
52.58592
 51
127.41408
  0
ARC
  5
5F
100
AcDbEntity
  8
M0
100
AcDbCircle
 10
76.769054
 20
67.770743
 40
7.68
100
AcDbArc
 50
232.58592
 51
307.41408
  0
TEXT
  5
60
100
AcDbEntity
  8
M0
100
AcDbText
 10
72.262478
 20
217.322197
 40
5.12
  1
全
 41
1.25
  7
STANDARD
100
AcDbText
  0
TEXT
  5
61
100
AcDbEntity
  8
M0
100
AcDbText
 10
72.262478
 20
211.690198
 40
5.12
  1
揚
 41
1.25
  7
STANDARD
100
AcDbText
  0
TEXT
  5
62
100
AcDbEntity
  8
M0
100
AcDbText
 10
72.262478
 20
206.058198
 40
5.12
  1
程
 41
1.25
  7
STANDARD
100
AcDbText
  0
TEXT
  5
63
100
AcDbEntity
  8
M0
100
AcDbText
 10
72.262478
 20
200.426198
 40
5.12
  1
　
 41
1.25
  7
STANDARD
100
AcDbText
  0
TEXT
  5
64
100
AcDbEntity
  8
M0
100
AcDbText
 10
72.262478
 20
194.794198
 40
5.12
  1
ｍ
 41
1.25
  7
STANDARD
100
AcDbText
  0
TEXT
  5
65
100
AcDbEntity
  8
M0
100
AcDbText
 10
83.456255
 20
224.48773
 40
4.8
  1
３０
 41
0.611111
  7
STANDARD
100
AcDbText
  0
TEXT
  5
66
100
AcDbEntity
  8
M0
100
AcDbText
 10
83.456255
 20
208.48773
 40
4.8
  1
２０
 41
0.611111
  7
STANDARD
100
AcDbText
  0
TEXT
  5
67
100
AcDbEntity
  8
M0
100
AcDbText
 10
83.456255
 20
192.487737
 40
4.8
  1
１０
 41
0.611111
  7
STANDARD
100
AcDbText
  0
TEXT
  5
68
100
AcDbEntity
  8
M0
100
AcDbText
 10
86.656259
 20
176.487737
 40
4.8
  1
０
 41
0.611111
  7
STANDARD
100
AcDbText
  0
TEXT
  5
69
100
AcDbEntity
  8
M0
100
AcDbText
 10
89.856256
 20
170.725729
 40
4.8
  1
０
 41
0.611111
  7
STANDARD
100
AcDbText
  0
TEXT
  5
6A
100
AcDbEntity
  8
M0
100
AcDbText
 10
121.856256
 20
170.725729
 40
4.8
  1
１０
 41
0.611111
  7
STANDARD
100
AcDbText
  0
TEXT
  5
6B
100
AcDbEntity
  8
M0
100
AcDbText
 10
153.85626
 20
170.725729
 40
4.8
  1
２０
 41
0.611111
  7
STANDARD
100
AcDbText
  0
TEXT
  5
6C
100
AcDbEntity
  8
M0
100
AcDbText
 10
132.67012
 20
158.318639
 40
7.68
  1
揚水量（Ｌ／分）
 41
0.611111
  7
STANDARD
100
AcDbText
  0
TEXT
  5
6D
100
AcDbEntity
  8
M0
100
AcDbText
 10
185.856252
 20
170.725729
 40
4.8
  1
３０
 41
0.611111
  7
STANDARD
100
AcDbText
  0
TEXT
  5
6E
100
AcDbEntity
  8
M0
100
AcDbText
 10
241.937439
 20
216.823662
 40
5.12
  1
全
 41
1.25
  7
STANDARD
100
AcDbText
  0
TEXT
  5
6F
100
AcDbEntity
  8
M0
100
AcDbText
 10
241.937439
 20
211.191662
 40
5.12
  1
揚
 41
1.25
  7
STANDARD
100
AcDbText
  0
TEXT
  5
70
100
AcDbEntity
  8
M0
100
AcDbText
 10
241.937439
 20
205.559663
 40
5.12
  1
程
 41
1.25
  7
STANDARD
100
AcDbText
  0
TEXT
  5
71
100
AcDbEntity
  8
M0
100
AcDbText
 10
241.937439
 20
199.927663
 40
5.12
  1
　
 41
1.25
  7
STANDARD
100
AcDbText
  0
TEXT
  5
72
100
AcDbEntity
  8
M0
100
AcDbText
 10
241.937439
 20
194.295663
 40
5.12
  1
ｍ
 41
1.25
  7
STANDARD
100
AcDbText
  0
TEXT
  5
73
100
AcDbEntity
  8
M0
100
AcDbText
 10
254.002802
 20
225.476179
 40
4.8
  1
３０
 41
0.611111
  7
STANDARD
100
AcDbText
  0
TEXT
  5
74
100
AcDbEntity
  8
M0
100
AcDbText
 10
254.002802
 20
209.476179
 40
4.8
  1
２０
 41
0.611111
  7
STANDARD
100
AcDbText
  0
TEXT
  5
75
100
AcDbEntity
  8
M0
100
AcDbText
 10
254.002802
 20
193.476171
 40
4.8
  1
１０
 41
0.611111
  7
STANDARD
100
AcDbText
  0
TEXT
  5
76
100
AcDbEntity
  8
M0
100
AcDbText
 10
257.202814
 20
177.476171
 40
4.8
  1
０
 41
0.611111
  7
STANDARD
100
AcDbText
  0
TEXT
  5
77
100
AcDbEntity
  8
M0
100
AcDbText
 10
260.402811
 20
171.714162
 40
4.8
  1
０
 41
0.611111
  7
STANDARD
100
AcDbText
  0
TEXT
  5
78
100
AcDbEntity
  8
M0
100
AcDbText
 10
292.402803
 20
171.714162
 40
4.8
  1
１０
 41
0.611111
  7
STANDARD
100
AcDbText
  0
TEXT
  5
79
100
AcDbEntity
  8
M0
100
AcDbText
 10
324.402796
 20
171.714162
 40
4.8
  1
２０
 41
0.611111
  7
STANDARD
100
AcDbText
  0
TEXT
  5
7A
100
AcDbEntity
  8
M0
100
AcDbText
 10
298.813873
 20
157.820104
 40
7.68
  1
揚水量（Ｌ／分）
 41
0.611111
  7
STANDARD
100
AcDbText
  0
TEXT
  5
7B
100
AcDbEntity
  8
M0
100
AcDbText
 10
356.402796
 20
171.714162
 40
4.8
  1
３０
 41
0.611111
  7
STANDARD
100
AcDbText
  0
TEXT
  5
7C
100
AcDbEntity
  8
M0
100
AcDbText
 10
73.56905
 20
85.905457
 40
5.12
  1
全
 41
1.25
  7
STANDARD
100
AcDbText
  0
TEXT
  5
7D
100
AcDbEntity
  8
M0
100
AcDbText
 10
73.56905
 20
80.273457
 40
5.12
  1
揚
 41
1.25
  7
STANDARD
100
AcDbText
  0
TEXT
  5
7E
100
AcDbEntity
  8
M0
100
AcDbText
 10
73.56905
 20
74.641457
 40
5.12
  1
程
 41
1.25
  7
STANDARD
100
AcDbText
  0
TEXT
  5
7F
100
AcDbEntity
  8
M0
100
AcDbText
 10
73.56905
 20
69.009457
 40
5.12
  1
　
 41
1.25
  7
STANDARD
100
AcDbText
  0
TEXT
  5
80
100
AcDbEntity
  8
M0
100
AcDbText
 10
73.56905
 20
63.377457
 40
5.12
  1
ｍ
 41
1.25
  7
STANDARD
100
AcDbText
  0
TEXT
  5
81
100
AcDbEntity
  8
M0
100
AcDbText
 10
85.490198
 20
93.211011
 40
4.8
  1
３０
 41
0.611111
  7
STANDARD
100
AcDbText
  0
TEXT
  5
82
100
AcDbEntity
  8
M0
100
AcDbText
 10
85.490198
 20
77.211011
 40
4.8
  1
２０
 41
0.611111
  7
STANDARD
100
AcDbText
  0
TEXT
  5
83
100
AcDbEntity
  8
M0
100
AcDbText
 10
85.490198
 20
61.211011
 40
4.8
  1
１０
 41
0.611111
  7
STANDARD
100
AcDbText
  0
TEXT
  5
84
100
AcDbEntity
  8
M0
100
AcDbText
 10
88.690195
 20
45.211011
 40
4.8
  1
０
 41
0.611111
  7
STANDARD
100
AcDbText
  0
TEXT
  5
85
100
AcDbEntity
  8
M0
100
AcDbText
 10
91.890192
 20
39.449003
 40
4.8
  1
０
 41
0.611111
  7
STANDARD
100
AcDbText
  0
TEXT
  5
86
100
AcDbEntity
  8
M0
100
AcDbText
 10
123.890192
 20
39.449003
 40
4.8
  1
１０
 41
0.611111
  7
STANDARD
100
AcDbText
  0
TEXT
  5
87
100
AcDbEntity
  8
M0
100
AcDbText
 10
155.890188
 20
39.449003
 40
4.8
  1
２０
 41
0.611111
  7
STANDARD
100
AcDbText
  0
TEXT
  5
88
100
AcDbEntity
  8
M0
100
AcDbText
 10
136.964653
 20
26.087003
 40
7.68
  1
揚水量（Ｌ／分）
 41
0.611111
  7
STANDARD
100
AcDbText
  0
TEXT
  5
89
100
AcDbEntity
  8
M0
100
AcDbText
 10
187.890187
 20
39.449003
 40
4.8
  1
３０
 41
0.611111
  7
STANDARD
100
AcDbText
  0
TEXT
  5
8A
100
AcDbEntity
  8
M0
100
AcDbText
 10
340.402811
 20
171.714162
 40
4.8
  1
２５
 41
0.611111
  7
STANDARD
100
AcDbText
  0
TEXT
  5
8B
100
AcDbEntity
  8
M0
100
AcDbText
 10
308.402803
 20
171.714162
 40
4.8
  1
１５
 41
0.611111
  7
STANDARD
100
AcDbText
  0
TEXT
  5
8C
100
AcDbEntity
  8
M0
100
AcDbText
 10
276.402803
 20
171.714162
 40
4.8
  1
５
 41
0.611111
  7
STANDARD
100
AcDbText
  0
TEXT
  5
8D
100
AcDbEntity
  8
M0
100
AcDbText
 10
105.856256
 20
170.725729
 40
4.8
  1
５
 41
0.611111
  7
STANDARD
100
AcDbText
  0
TEXT
  5
8E
100
AcDbEntity
  8
M0
100
AcDbText
 10
137.85626
 20
170.725729
 40
4.8
  1
１５
 41
0.611111
  7
STANDARD
100
AcDbText
  0
TEXT
  5
8F
100
AcDbEntity
  8
M0
100
AcDbText
 10
169.856251
 20
170.725729
 40
4.8
  1
２５
 41
0.611111
  7
STANDARD
100
AcDbText
  0
TEXT
  5
90
100
AcDbEntity
  8
M0
100
AcDbText
 10
107.890192
 20
39.449003
 40
4.8
  1
５
 41
0.611111
  7
STANDARD
100
AcDbText
  0
TEXT
  5
91
100
AcDbEntity
  8
M0
100
AcDbText
 10
139.890192
 20
39.449003
 40
4.8
  1
１５
 41
0.611111
  7
STANDARD
100
AcDbText
  0
TEXT
  5
92
100
AcDbEntity
  8
M0
100
AcDbText
 10
171.890186
 20
39.449003
 40
4.8
  1
２５
 41
0.611111
  7
STANDARD
100
AcDbText
  0
LINE
  5
93
100
AcDbEntity
  8
M0
100
AcDbLine
 10
92.976459
 20
234.767764
 11
92.976459
 21
178.767764
  0
LINE
  5
94
100
AcDbEntity
  8
M0
100
AcDbLine
 10
92.976459
 20
178.767764
 11
203.976459
 21
178.767764
  0
LINE
  5
95
100
AcDbEntity
  8
M0
100
AcDbLine
 10
124.976459
 20
178.767764
 11
124.976459
 21
210.767764
  0
LINE
  5
96
100
AcDbEntity
  8
M0
100
AcDbLine
 10
156.976459
 20
178.767764
 11
156.976459
 21
234.767764
  0
LINE
  5
97
100
AcDbEntity
  8
M0
100
AcDbLine
 10
188.976459
 20
178.767764
 11
188.976459
 21
234.767764
  0
LINE
  5
98
100
AcDbEntity
  8
M0
100
AcDbLine
 10
92.976459
 20
194.767764
 11
203.976459
 21
194.767764
  0
LINE
  5
99
100
AcDbEntity
  8
M0
100
AcDbLine
 10
92.976459
 20
210.767764
 11
124.976459
 21
210.767764
  0
LINE
  5
9A
100
AcDbEntity
  8
M0
100
AcDbLine
 10
92.976459
 20
226.767764
 11
203.976459
 21
226.767764
  0
LINE
  5
9B
100
AcDbEntity
  8
M0
100
AcDbLine
 10
124.976459
 20
226.767764
 11
124.976459
 21
234.767764
  0
LINE
  5
9C
100
AcDbEntity
  8
M0
100
AcDbLine
 10
263.523006
 20
235.756205
 11
263.523006
 21
179.756205
  0
LINE
  5
9D
100
AcDbEntity
  8
M0
100
AcDbLine
 10
263.523006
 20
179.756205
 11
374.523006
 21
179.756205
  0
LINE
  5
9E
100
AcDbEntity
  8
M0
100
AcDbLine
 10
295.523006
 20
179.756205
 11
295.523006
 21
213.568553
  0
LINE
  5
9F
100
AcDbEntity
  8
M0
100
AcDbLine
 10
327.523006
 20
179.756205
 11
327.523006
 21
235.756205
  0
LINE
  5
A0
100
AcDbEntity
  8
M0
100
AcDbLine
 10
359.523006
 20
179.756205
 11
359.523006
 21
235.756205
  0
LINE
  5
A1
100
AcDbEntity
  8
M0
100
AcDbLine
 10
263.523006
 20
195.756205
 11
374.523006
 21
195.756205
  0
LINE
  5
A2
100
AcDbEntity
  8
M0
100
AcDbLine
 10
263.523006
 20
227.756205
 11
374.523006
 21
227.756205
  0
LINE
  5
A3
100
AcDbEntity
  8
M0
100
AcDbLine
 10
295.523006
 20
227.756205
 11
295.523006
 21
235.756205
  0
LINE
  5
A4
100
AcDbEntity
  8
M0
100
AcDbLine
 10
95.010399
 20
103.491041
 11
95.010399
 21
47.491041
  0
LINE
  5
A5
100
AcDbEntity
  8
M0
100
AcDbLine
 10
95.010399
 20
47.491041
 11
206.010399
 21
47.491041
  0
LINE
  5
A6
100
AcDbEntity
  8
M0
100
AcDbLine
 10
127.010399
 20
47.491041
 11
127.010399
 21
82.470689
  0
LINE
  5
A7
100
AcDbEntity
  8
M0
100
AcDbLine
 10
159.010399
 20
47.491041
 11
159.010399
 21
103.491041
  0
LINE
  5
A8
100
AcDbEntity
  8
M0
100
AcDbLine
 10
191.010399
 20
47.491041
 11
191.010399
 21
103.491041
  0
LINE
  5
A9
100
AcDbEntity
  8
M0
100
AcDbLine
 10
95.010399
 20
63.491041
 11
206.010399
 21
63.491041
  0
LINE
  5
AA
100
AcDbEntity
  8
M0
100
AcDbLine
 10
95.010399
 20
95.491041
 11
206.010399
 21
95.491041
  0
LINE
  5
AB
100
AcDbEntity
  8
M0
100
AcDbLine
 10
127.010399
 20
95.491041
 11
127.010399
 21
103.491041
  0
LINE
  5
AC
100
AcDbEntity
  8
M0
100
AcDbLine
 10
95.010399
 20
79.491041
 11
206.010399
 21
79.491041
  0
LINE
  5
AD
100
AcDbEntity
  8
M0
100
AcDbLine
 10
374.523006
 20
211.756205
 11
263.523006
 21
211.756205
  0
LINE
  5
AE
100
AcDbEntity
  8
M0
100
AcDbLine
 10
311.523006
 20
179.756205
 11
311.523006
 21
236.227258
  0
LINE
  5
AF
100
AcDbEntity
  8
M0
100
AcDbLine
 10
343.523006
 20
179.756205
 11
343.523006
 21
235.756205
  0
LINE
  5
B0
100
AcDbEntity
  8
M0
100
AcDbLine
 10
279.523006
 20
179.756205
 11
279.523006
 21
235.756205
  0
LINE
  5
B1
100
AcDbEntity
  8
M0
100
AcDbLine
 10
108.976459
 20
178.767764
 11
108.976459
 21
234.767764
  0
LINE
  5
B2
100
AcDbEntity
  8
M0
100
AcDbLine
 10
140.976459
 20
178.767764
 11
140.976459
 21
234.84094
  0
LINE
  5
B3
100
AcDbEntity
  8
M0
100
AcDbLine
 10
172.976459
 20
178.767764
 11
172.976459
 21
234.767764
  0
LINE
  5
B4
100
AcDbEntity
  8
M0
100
AcDbLine
 10
111.010399
 20
47.491041
 11
111.010399
 21
103.491041
  0
LINE
  5
B5
100
AcDbEntity
  8
M0
100
AcDbLine
 10
143.010399
 20
47.491041
 11
143.010399
 21
103.965709
  0
LINE
  5
B6
100
AcDbEntity
  8
M0
100
AcDbLine
 10
175.010399
 20
47.491041
 11
175.010399
 21
103.491041
  0
LINE
  5
B7
100
AcDbEntity
  8
M0
  6
DASHED
100
AcDbLine
 10
92.976459
 20
202.767764
 11
98.976459
 21
202.767764
  0
LINE
  5
B8
100
AcDbEntity
  8
M0
100
AcDbLine
 10
98.976459
 20
202.767764
 11
133.155103
 21
202.767764
  0
LINE
  5
B9
100
AcDbEntity
  8
M0
100
AcDbLine
 10
135.98353
 20
202.566754
 11
156.291178
 21
199.665662
  0
LINE
  5
BA
100
AcDbEntity
  8
M0
100
AcDbLine
 10
157.653332
 20
199.42272
 11
178.475825
 21
194.960757
  0
LINE
  5
BB
100
AcDbEntity
  8
M0
100
AcDbLine
 10
180.226688
 20
194.413503
 11
188.976459
 21
190.767764
  0
ARC
  5
BC
100
AcDbEntity
  8
M0
100
AcDbCircle
 10
176.380534
 20
185.182733
 40
10.0
100
AcDbArc
 50
67.380135
 51
77.905243
  0
ARC
  5
BD
100
AcDbEntity
  8
M0
100
AcDbCircle
 10
133.155103
 20
182.767764
 40
20.0
100
AcDbArc
 50
81.869898
 51
90.0
  0
ARC
  5
BE
100
AcDbEntity
  8
M0
100
AcDbCircle
 10
153.462751
 20
179.866672
 40
20.0
100
AcDbArc
 50
77.905243
 51
81.869898
  0
LINE
  5
BF
100
AcDbEntity
  8
M0
100
AcDbLine
 10
294.29195
 20
213.356205
 11
269.523006
 21
213.356205
  0
LINE
  5
C0
100
AcDbEntity
  8
M0
  6
DASHED
100
AcDbLine
 10
269.523006
 20
213.356205
 11
263.523006
 21
213.356205
  0
LINE
  5
C1
100
AcDbEntity
  8
M0
100
AcDbLine
 10
116.240559
 20
81.091041
 11
101.010399
 21
81.091041
  0
LINE
  5
C2
100
AcDbEntity
  8
M0
  6
DASHED
100
AcDbLine
 10
101.010399
 20
81.091041
 11
95.010399
 21
81.091041
  0
LINE
  5
C3
100
AcDbEntity
  8
M0
100
AcDbLine
 10
121.385517
 20
79.66597
 11
126.68108
 21
76.488632
  0
LINE
  5
C4
100
AcDbEntity
  8
M0
100
AcDbLine
 10
127.353902
 20
76.119289
 11
134.399253
 21
72.596614
  0
LINE
  5
C5
100
AcDbEntity
  8
M0
100
AcDbLine
 10
135.953689
 20
67.763202
 11
134.96176
 21
66.86396
  0
LINE
  5
C6
100
AcDbEntity
  8
M0
100
AcDbLine
 10
296.717306
 20
213.05763
 11
301.194947
 21
211.93822
  0
LINE
  5
C7
100
AcDbEntity
  8
M0
100
AcDbLine
 10
317.661338
 20
203.963105
 11
317.661338
 21
204.571877
  0
LINE
  5
C8
100
AcDbEntity
  8
M0
100
AcDbLine
 10
316.746352
 20
202.255008
 11
311.523006
 21
197.061616
  0
LINE
  5
C9
100
AcDbEntity
  8
M0
100
AcDbLine
 10
302.615744
 20
211.467564
 11
315.250059
 21
207.282235
  0
ARC
  5
CA
100
AcDbEntity
  8
M0
100
AcDbCircle
 10
116.240559
 20
71.091041
 40
10.0
100
AcDbArc
 50
59.036243
 51
90.0
  0
ARC
  5
CB
100
AcDbEntity
  8
M0
100
AcDbCircle
 10
131.826038
 20
85.063561
 40
10.0
100
AcDbArc
 50
239.036243
 51
243.434949
  0
ARC
  5
CC
100
AcDbEntity
  8
M0
100
AcDbCircle
 10
132.610399
 20
69.018905
 40
4.0
100
AcDbArc
 50
0.0
 51
63.434949
  0
ARC
  5
CD
100
AcDbEntity
  8
M0
100
AcDbCircle
 10
134.610399
 20
69.244948
 40
2.0
100
AcDbArc
 50
312.194168
 51
360.0
  0
ARC
  5
CE
100
AcDbEntity
  8
M0
100
AcDbCircle
 10
294.29195
 20
203.356205
 40
10.0
100
AcDbArc
 50
75.963757
 51
90.0
  0
ARC
  5
CF
100
AcDbEntity
  8
M0
100
AcDbCircle
 10
298.769591
 20
202.236795
 40
10.0
100
AcDbArc
 50
67.380135
 51
75.963757
  0
ARC
  5
D0
100
AcDbEntity
  8
M0
100
AcDbCircle
 10
314.661338
 20
204.340567
 40
3.0
100
AcDbArc
 50
0.0
 51
78.682808
  0
ARC
  5
D1
100
AcDbEntity
  8
M0
100
AcDbCircle
 10
315.661338
 20
203.963105
 40
2.0
100
AcDbArc
 50
308.593345
 51
360.0
  0
ARC
  5
D2
100
AcDbEntity
  8
M0
100
AcDbCircle
 10
318.156493
 20
200.836733
 40
2.0
100
AcDbArc
 50
128.593345
 51
134.83524
  0
LINE
  5
D3
100
AcDbEntity
  8
M0
100
AcDbLine
 10
124.976459
 20
210.767764
 11
203.976459
 21
210.767764
  0
LINE
  5
D4
100
AcDbEntity
  8
M0
100
AcDbLine
 10
124.976459
 20
218.444878
 11
124.976459
 21
226.767764
  0
LINE
  5
D5
100
AcDbEntity
  8
M0
100
AcDbLine
 10
295.523006
 20
223.442646
 11
295.523006
 21
227.756205
  0
LINE
  5
D6
100
AcDbEntity
  8
M0
100
AcDbLine
 10
127.010399
 20
92.755353
 11
127.010399
 21
95.491041
  0
LINE
  5
D7
100
AcDbEntity
  8
M0
100
AcDbLine
 10
88.188985
 20
124.663847
 11
88.188987
 21
130.423848
  0
LINE
  5
D8
100
AcDbEntity
  8
M0
100
AcDbLine
 10
88.188987
 20
130.423848
 11
105.948986
 21
130.423848
  0
LINE
  5
D9
100
AcDbEntity
  8
M0
100
AcDbLine
 10
105.948986
 20
130.423848
 11
105.948985
 21
124.663847
  0
LINE
  5
DA
100
AcDbEntity
  8
M0
100
AcDbLine
 10
105.948985
 20
124.663847
 11
88.188985
 21
124.663847
  0
TEXT
  5
DB
100
AcDbEntity
  8
M0
100
AcDbText
 10
88.852319
 20
125.143847
 40
4.8
  1
　深井戸　　　シングルジェット（Ｊ１５－１２ＳＳ）使用時
 41
0.590278
  7
STANDARD
100
AcDbText
  0
TEXT
  5
DC
100
AcDbEntity
  8
M0
100
AcDbText
 10
181.911637
 20
106.421655
 40
4.8
  1
吸込管（Ｂ）２０ｍｍ
 41
0.590278
  7
STANDARD
100
AcDbText
  0
TEXT
  5
DD
100
AcDbEntity
  8
M0
100
AcDbText
 10
114.555194
 20
211.655229
 40
4.8
  1
吸上高さ６ｍ時
 41
0.590278
  7
STANDARD
100
AcDbText
  0
TEXT
  5
DE
100
AcDbEntity
  8
M0
100
AcDbText
 10
282.544985
 20
216.306745
 40
4.8
  1
吸上高さ１２ｍ時
 41
0.590278
  7
STANDARD
100
AcDbText
  0
TEXT
  5
DF
100
AcDbEntity
  8
M0
100
AcDbText
 10
113.70454
 20
84.844073
 40
4.8
  1
吸上高さ１２ｍ時
 41
0.590278
  7
STANDARD
100
AcDbText
  0
TEXT
  5
E0
100
AcDbEntity
  8
M0
100
AcDbText
 10
303.459869
 20
93.670197
 40
4.5
  1
ＣＴ－Ｐ１５０Ｓ　揚水性能図
 41
0.777778
  7
STANDARD
100
AcDbText
  0
ENDSEC
  0
SECTION
  2
OBJECTS
  0
DICTIONARY
  5
C
100
AcDbDictionary
  3
ACAD_GROUP
350
D
  3
ACAD_MLINESTYLE
350
E
  0
DICTIONARY
  5
D
102
{ACAD_REACTORS
330
C
102
}
100
AcDbDictionary
  0
DICTIONARY
  5
E
102
{ACAD_REACTORS
330
C
102
}
100
AcDbDictionary
  3
STANDARD
350
13
  0
MLINESTYLE
  5
13
102
{ACAD_REACTORS
330
E
102
}
100
AcDbMlineStyle
  2
STANDARD
 70
     0
  3

 62
     0
 51
90.0
 52
90.0
 71
     2
 49
0.5
 62
   256
  6
BYLAYER
 49
-0.5
 62
   256
  6
BYLAYER
  0
ENDSEC
  0
EOF
