  0
SECTION
  2
HEADER
  9
$ACADVER
  1
AC1012
  9
$INSBASE
 10
0.0
 20
0.0
  9
$VIEWCTR
 10
7.531722
 20
4.5
  9
$VIEWSIZE
 40
9.0
  9
$SNAPMODE
 70
     0
  9
$SNAPUNIT
 10
1.0
 20
1.0
  9
$SNAPBASE
 10
0.0
 20
0.0
  9
$SNAPANG
 50
0.0
  9
$SNAPSTYLE
 70
     0
  9
$SNAPISOPAIR
 70
     0
  9
$GRIDMODE
 70
     0
  9
$GRIDUNIT
 10
0.0
 20
0.0
  9
$ORTHOMODE
 70
     0
  9
$REGENMODE
 70
     1
  9
$FILLMODE
 70
     1
  9
$QTEXTMODE
 70
     0
  9
$DRAGMODE
 70
     2
  9
$LTSCALE
 40
1.0
  9
$OSMODE
 70
     0
  9
$ATTMODE
 70
     1
  9
$TEXTSIZE
 40
0.2
  9
$TRACEWID
 40
0.05
  9
$TEXTSTYLE
  7
STANDARD
  9
$CELTYPE
  6
BYLAYER
  9
$CECOLOR
 62
   256
  9
$DIMSCALE
 40
1.0
  9
$DIMASZ
 40
0.18
  9
$DIMEXO
 40
0.0625
  9
$DIMDLI
 40
0.38
  9
$DIMRND
 40
0.0
  9
$DIMDLE
 40
0.0
  9
$DIMEXE
 40
0.18
  9
$DIMTP
 40
0.0
  9
$DIMTM
 40
0.0
  9
$DIMTXT
 40
0.18
  9
$DIMCEN
 40
0.09
  9
$DIMTSZ
 40
0.0
  9
$DIMTOL
 70
     0
  9
$DIMLIM
 70
     0
  9
$DIMTIH
 70
     1
  9
$DIMTOH
 70
     1
  9
$DIMSE1
 70
     0
  9
$DIMSE2
 70
     0
  9
$DIMTAD
 70
     0
  9
$DIMZIN
 70
     0
  9
$DIMBLK
  1

  9
$LUNITS
 70
     2
  9
$LUPREC
 70
     4
  9
$AXISMODE
 70
     0
  9
$AXISUNIT
 10
0.0
 20
0.0
  9
$SKETCHINC
 40
0.1
  9
$FILLETRAD
 40
0.0
  9
$AUNITS
 70
     0
  9
$AUPREC
 70
     0
  9
$MENU
  1
ACAD
  9
$ELEVATION
 40
0.0
  9
$THICKNESS
 40
0.0
  9
$VIEWDIR
 10
0.0
 20
0.0
 30
1.0
  9
$LIMCHECK
 70
     0
  9
$BLIPMODE
 70
     1
  9
$CHAMFERA
 40
0.0
  9
$CHAMFERB
 40
0.0
  9
$FASTZOOM
 70
     1
  9
$SKPOLY
 70
     0
  9
$TDCREATE
 40
0000000.0000000000
  9
$TDUPDATE
 40
0000000.0000000000
  9
$TDINDWG
 40
0.0000000000
  9
$TDUSRTIMER
 40
0.0000000000
  9
$USRTIMER
 70
     1
  9
$ANGBASE
 50
0.0
  9
$ANGDIR
 70
     0
  9
$PDMODE
 70
     0
  9
$PDSIZE
 40
0.0
  9
$PLINEWID
 40
0.0
  9
$COORDS
 70
     0
  9
$USERI1
 70
     0
  9
$USERI2
 70
     0
  9
$USERI3
 70
     0
  9
$USERI4
 70
     0
  9
$USERI5
 70
     0
  9
$USERR1
 40
0.0
  9
$USERR2
 40
0.0
  9
$USERR3
 40
0.0
  9
$USERR4
 40
0.0
  9
$USERR5
 40
0.0
  9
$CLAYER
  8
M0
  9
$EXTMIN
 10
0.0
 20
0.0
  9
$EXTMAX
 10
420.0
 20
297.0
  9
$LIMMIN
 10
0.0
 20
0.0
  9
$LIMMAX
 10
420.0
 20
297.0
  9
$HANDSEED
  5
D2
  0
ENDSEC
  0
SECTION
  2
CLASSES
  0
ENDSEC
  0
SECTION
  2
TABLES
  0
TABLE
  2
VPORT
  5
8
100
AcDbSymbolTable
 70
     2
  0
VPORT
  5
14
100
AcDbSymbolTableRecord
100
AcDbViewportTableRecord
  2
*ACTIVE
 70
     0
 10
0.0
 20
0.0
 11
1.0
 21
1.0
 12
484.0
 22
297.0
 13
0.0
 23
0.0
 14
1.0
 24
1.0
 15
0.0
 25
0.0
 16
0.0
 26
0.0
 36
1.0
 17
0.0
 27
0.0
 37
0.0
 40
594.0
 41
2.0
 42
50.0
 43
0.0
 44
0.0
 50
0.0
 51
0.0
 71
     0
 72
   100
 73
     1
 74
     1
 75
     0
 76
     0
 77
     0
 78
     0
  0
ENDTAB
  0
TABLE
  2
LTYPE
  5
5
100
AcDbSymbolTable
 70
     5
  0
LTYPE
  5
15
100
AcDbSymbolTableRecord
100
AcDbLinetypeTableRecord
  2
BYBLOCK
 70
     0
  3

 72
    65
 73
     0
 40
0.0
  0
LTYPE
  5
16
100
AcDbSymbolTableRecord
100
AcDbLinetypeTableRecord
  2
BYLAYER
 70
     0
  3

 72
    65
 73
     0
 40
0.0
  0
LTYPE
  5
17
100
AcDbSymbolTableRecord
100
AcDbLinetypeTableRecord
  2
CONTINUOUS
 70
    64
  3
Solid line
 72
    65
 73
     0
 40
0.0
  0
LTYPE
  5
18
100
AcDbSymbolTableRecord
100
AcDbLinetypeTableRecord
  2
DASHED
 70
    64
  3
__ __ __ __ __ __ __ __ __ __ __ __ __ __ __ __
 72
    65
 73
     2
 40
0.75
 49
0.5
 74
     0
 49
-0.25
 74
     0
  0
LTYPE
  5
19
100
AcDbSymbolTableRecord
100
AcDbLinetypeTableRecord
  2
DASHDOT
 70
    64
  3
__ . __ . __ . __ . __ . __ . __ . __ . __ . __
 72
    65
 73
     4
 40
1.0
 49
0.5
 74
     0
 49
-0.25
 74
     0
 49
0.0
 74
     0
 49
-0.25
 74
     0
  0
LTYPE
  5
1A
100
AcDbSymbolTableRecord
100
AcDbLinetypeTableRecord
  2
DIVIDE
 70
    64
  3
____ . . ____ . . ____ . . ____ . . ____ . . __
 72
    65
 73
     6
 40
1.25
 49
0.5
 74
     0
 49
-0.25
 74
     0
 49
0.0
 74
     0
 49
-0.25
 74
     0
 49
0.0
 74
     0
 49
-0.25
 74
     0
  0
LTYPE
  5
1B
100
AcDbSymbolTableRecord
100
AcDbLinetypeTableRecord
  2
DOT
 70
    64
  3
. . . . . . . . . . . . . . . . . . . . . . . .
 72
    65
 73
     2
 40
0.25
 49
0.0
 74
     0
 49
-0.25
 74
     0
  0
ENDTAB
  0
TABLE
  2
LAYER
  5
2
100
AcDbSymbolTable
 70
   102
  0
LAYER
  5
F
100
AcDbSymbolTableRecord
100
AcDbLayerTableRecord
  2
0
 70
     0
 62
     7
  6
CONTINUOUS
  0
LAYER
  5
1C
100
AcDbSymbolTableRecord
100
AcDbLayerTableRecord
  2
DEFPOINTS
 70
     0
 62
     7
  6
CONTINUOUS
  0
LAYER
  5
1D
100
AcDbSymbolTableRecord
100
AcDbLayerTableRecord
  2
M0
 70
     0
 62
     3
  6
CONTINUOUS
  0
ENDTAB
  0
TABLE
  2
STYLE
  5
3
100
AcDbSymbolTable
 70
     2
  0
STYLE
  5
10
100
AcDbSymbolTableRecord
100
AcDbTextStyleTableRecord
  2
STANDARD
 70
     0
 40
0.0
 41
1.0
 50
0.0
 71
     0
 42
0.2
  3
txt
  4
BIGFONT
  0
ENDTAB
  0
TABLE
  2
VIEW
  5
6
100
AcDbSymbolTable
 70
     0
  0
ENDTAB
  0
TABLE
  2
UCS
  5
7
100
AcDbSymbolTable
 70
     0
  0
ENDTAB
  0
TABLE
  2
APPID
  5
9
100
AcDbSymbolTable
 70
     1
  0
APPID
  5
11
100
AcDbSymbolTableRecord
100
AcDbRegAppTableRecord
  2
ACAD
 70
     0
  0
ENDTAB
  0
TABLE
  2
DIMSTYLE
  5
A
100
AcDbSymbolTable
 70
     2
  0
DIMSTYLE
105
24
100
AcDbSymbolTableRecord
100
AcDbDimStyleTableRecord
  2
STANDARD
 70
     0
  3

  4

  5

  6
_OPEN
  7
_OPEN
 40
1.0
 41
3.0
 42
0.0
 43
8.0
 44
1.5
 45
0.0
 46
0.0
 47
0.0
 48
0.0
140
3.5
141
0.09
142
0.0
143
0.03937
144
1.0
145
0.0
146
1.0
147
1.0
 71
     0
 72
     0
 73
     0
 74
     0
 75
     0
 76
     0
 77
     3
 78
     8
170
     0
171
     2
172
     0
173
     1
174
     0
175
     0
176
     0
177
     0
178
     0
270
     2
271
     2
272
     4
273
     2
274
     2
340
10
275
     0
280
     0
281
     0
282
     0
283
     1
284
     0
285
     0
286
     0
287
     3
288
     0
  0
DIMSTYLE
105
25
100
AcDbSymbolTableRecord
100
AcDbDimStyleTableRecord
  2
LEADSTYL
 70
     0
  3

  4

  5

  6
_OPEN
  7
_OPEN
 40
1.0
 41
3.0
 42
0.0625
 43
0.38
 44
0.18
 45
0.0
 46
0.0
 47
0.0
 48
0.0
140
3.2
141
0.09
142
0.0
143
25.4
144
1.0
145
0.0
146
1.0
147
1.0
 71
     0
 72
     0
 73
     1
 74
     1
 75
     0
 76
     0
 77
     0
 78
     0
170
     0
171
     2
172
     0
173
     1
174
     0
175
     0
176
     0
177
     0
178
     0
270
     2
271
     4
272
     4
273
     2
274
     2
340
10
275
     0
280
     0
281
     0
282
     0
283
     1
284
     0
285
     0
286
     0
287
     3
288
     0
  0
ENDTAB
  0
TABLE
  2
BLOCK_RECORD
  5
1
100
AcDbSymbolTable
 70
     6
  0
BLOCK_RECORD
  5
1E
100
AcDbSymbolTableRecord
100
AcDbBlockTableRecord
  2
*MODEL_SPACE
  0
BLOCK_RECORD
  5
21
100
AcDbSymbolTableRecord
100
AcDbBlockTableRecord
  2
*PAPER_SPACE
  0
BLOCK_RECORD
  5
26
100
AcDbSymbolTableRecord
100
AcDbBlockTableRecord
  2
_NONE
  0
BLOCK_RECORD
  5
2A
100
AcDbSymbolTableRecord
100
AcDbBlockTableRecord
  2
_OPEN
  0
BLOCK_RECORD
  5
30
100
AcDbSymbolTableRecord
100
AcDbBlockTableRecord
  2
_CLOSED
  0
BLOCK_RECORD
  5
37
100
AcDbSymbolTableRecord
100
AcDbBlockTableRecord
  2
_ORIGIN
  0
BLOCK_RECORD
  5
3C
100
AcDbSymbolTableRecord
100
AcDbBlockTableRecord
  2
_DOT
  0
BLOCK_RECORD
  5
44
100
AcDbSymbolTableRecord
100
AcDbBlockTableRecord
  2
_OBLIQUE
  0
ENDTAB
  0
ENDSEC
  0
SECTION
  2
BLOCKS
  0
BLOCK
  5
1F
100
AcDbEntity
  8
0
100
AcDbBlockBegin
  2
*MODEL_SPACE
 70
     0
 10
0.0
 20
0.0
 30
0.0
  3
*MODEL_SPACE
  1

  0
ENDBLK
  5
20
100
AcDbEntity
  8
0
100
AcDbBlockEnd
  0
BLOCK
  5
22
100
AcDbEntity
 67
     1
  8
0
100
AcDbBlockBegin
  2
*PAPER_SPACE
 70
     0
 10
0.0
 20
0.0
 30
0.0
  3
*PAPER_SPACE
  1

  0
ENDBLK
  5
23
100
AcDbEntity
 67
     1
  8
0
100
AcDbBlockEnd
  0
BLOCK
  5
27
100
AcDbEntity
  8
0
100
AcDbBlockBegin
  2
_NONE
 70
     0
 10
0.0
 20
0.0
  0
CIRCLE
  5
28
100
AcDbEntity
  8
0
 62
     0
100
AcDbCircle
 10
0.0
 20
0.0
 40
0.25
  0
ENDBLK
  5
29
100
AcDbEntity
  8
0
100
AcDbBlockEnd
  0
BLOCK
  5
2B
100
AcDbEntity
  8
0
100
AcDbBlockBegin
  2
_OPEN
 70
     0
 10
0.0
 20
0.0
  0
LINE
  5
2C
100
AcDbEntity
  8
0
 62
     0
100
AcDbLine
 10
-0.965926
 20
0.258819
 11
0.0
 21
0.0
  0
LINE
  5
2D
100
AcDbEntity
  8
0
 62
     0
100
AcDbLine
 10
0.0
 20
0.0
 11
-0.965926
 21
-0.258819
  0
LINE
  5
2E
100
AcDbEntity
  8
0
 62
     0
100
AcDbLine
 10
0.0
 20
0.0
 11
-1.0
 21
0.0
  0
ENDBLK
  5
2F
100
AcDbEntity
  8
0
100
AcDbBlockEnd
  0
BLOCK
  5
31
100
AcDbEntity
  8
0
100
AcDbBlockBegin
  2
_CLOSED
 70
     0
 10
0.0
 20
0.0
  0
LINE
  5
32
100
AcDbEntity
  8
0
 62
     0
100
AcDbLine
 10
-0.965926
 20
0.258819
 11
0.0
 21
0.0
  0
LINE
  5
33
100
AcDbEntity
  8
0
 62
     0
100
AcDbLine
 10
0.0
 20
0.0
 11
-0.965926
 21
-0.258819
  0
LINE
  5
34
100
AcDbEntity
  8
0
 62
     0
100
AcDbLine
 10
-0.965926
 20
0.258819
 11
-0.965926
 21
-0.258819
  0
LINE
  5
35
100
AcDbEntity
  8
0
 62
     0
100
AcDbLine
 10
0.0
 20
0.0
 11
-1.0
 21
0.0
  0
ENDBLK
  5
36
100
AcDbEntity
  8
0
100
AcDbBlockEnd
  0
BLOCK
  5
38
100
AcDbEntity
  8
0
100
AcDbBlockBegin
  2
_ORIGIN
 70
     0
 10
0.0
 20
0.0
  0
CIRCLE
  5
39
100
AcDbEntity
  8
0
 62
     0
100
AcDbCircle
 10
0.0
 20
0.0
 40
0.5
  0
LINE
  5
3A
100
AcDbEntity
  8
0
 62
     0
100
AcDbLine
 10
0.0
 20
0.0
 11
-1.0
 21
0.0
  0
ENDBLK
  5
3B
100
AcDbEntity
  8
0
100
AcDbBlockEnd
  0
BLOCK
  5
3D
100
AcDbEntity
  8
0
100
AcDbBlockBegin
  2
_DOT
 70
     0
 10
0.0
 20
0.0
  0
POLYLINE
  5
3E
100
AcDbEntity
  8
0
 62
     0
100
AcDb2dPolyline
 66
     1
 70
     1
 40
0.5
 41
0.5
  0
VERTEX
  5
3F
100
AcDbEntity
  8
0
 62
     0
100
AcDbVertex
100
AcDb2dVertex
 10
-0.25
 20
0.0
 42
1.0
  0
VERTEX
  5
40
100
AcDbEntity
  8
0
 62
     0
100
AcDbVertex
100
AcDb2dVertex
 10
0.25
 20
0.0
 42
1.0
  0
SEQEND
  5
41
100
AcDbEntity
  8
0
 62
     0
  0
LINE
  5
42
100
AcDbEntity
  8
0
 62
     0
100
AcDbLine
 10
-0.5
 20
0.0
 11
-1.0
 21
0.0
  0
ENDBLK
  5
43
100
AcDbEntity
  8
0
100
AcDbBlockEnd
  0
BLOCK
  5
45
100
AcDbEntity
  8
0
100
AcDbBlockBegin
  2
_OBLIQUE
 70
     0
 10
0.0
 20
0.0
  0
LINE
  5
46
100
AcDbEntity
  8
0
 62
     0
100
AcDbLine
 10
-0.353553
 20
-0.353553
 11
0.353553
 21
0.353553
  0
ENDBLK
  5
47
100
AcDbEntity
  8
0
100
AcDbBlockEnd
  0
ENDSEC
  0
SECTION
  2
ENTITIES
  0
LINE
  5
48
100
AcDbEntity
  8
M0
100
AcDbLine
 10
69.168111
 20
263.813541
 11
69.168111
 21
273.813541
  0
LINE
  5
49
100
AcDbEntity
  8
M0
100
AcDbLine
 10
69.168111
 20
273.813541
 11
39.168111
 21
273.813541
  0
LINE
  5
4A
100
AcDbEntity
  8
M0
100
AcDbLine
 10
39.168111
 20
273.813541
 11
39.168111
 21
263.813541
  0
LINE
  5
4B
100
AcDbEntity
  8
M0
100
AcDbLine
 10
39.168111
 20
263.813541
 11
69.168111
 21
263.813541
  0
TEXT
  5
4C
100
AcDbEntity
  8
M0
100
AcDbText
 10
41.594777
 20
265.313541
 40
7.0
  1
揚水性能
 41
0.780952
  7
STANDARD
100
AcDbText
  0
ARC
  5
4D
100
AcDbEntity
  8
M0
100
AcDbCircle
 10
55.462475
 20
194.367528
 40
7.68
100
AcDbArc
 50
52.58592
 51
127.41408
  0
ARC
  5
4E
100
AcDbEntity
  8
M0
100
AcDbCircle
 10
55.462475
 20
199.187486
 40
7.68
100
AcDbArc
 50
232.58592
 51
307.41408
  0
TEXT
  5
4F
100
AcDbEntity
  8
M0
100
AcDbText
 10
52.262486
 20
217.322197
 40
5.12
  1
全
 41
1.25
  7
STANDARD
100
AcDbText
  0
TEXT
  5
50
100
AcDbEntity
  8
M0
100
AcDbText
 10
52.262486
 20
211.690198
 40
5.12
  1
揚
 41
1.25
  7
STANDARD
100
AcDbText
  0
TEXT
  5
51
100
AcDbEntity
  8
M0
100
AcDbText
 10
52.262486
 20
206.058198
 40
5.12
  1
程
 41
1.25
  7
STANDARD
100
AcDbText
  0
TEXT
  5
52
100
AcDbEntity
  8
M0
100
AcDbText
 10
52.262486
 20
200.426198
 40
5.12
  1
　
 41
1.25
  7
STANDARD
100
AcDbText
  0
TEXT
  5
53
100
AcDbEntity
  8
M0
100
AcDbText
 10
52.262486
 20
194.794198
 40
5.12
  1
ｍ
 41
1.25
  7
STANDARD
100
AcDbText
  0
TEXT
  5
54
100
AcDbEntity
  8
M0
100
AcDbText
 10
63.456262
 20
224.48773
 40
4.8
  1
３０
 41
0.611111
  7
STANDARD
100
AcDbText
  0
TEXT
  5
55
100
AcDbEntity
  8
M0
100
AcDbText
 10
63.456262
 20
208.48773
 40
4.8
  1
２０
 41
0.611111
  7
STANDARD
100
AcDbText
  0
TEXT
  5
56
100
AcDbEntity
  8
M0
100
AcDbText
 10
63.456262
 20
192.487737
 40
4.8
  1
１０
 41
0.611111
  7
STANDARD
100
AcDbText
  0
TEXT
  5
57
100
AcDbEntity
  8
M0
100
AcDbText
 10
66.656259
 20
176.487737
 40
4.8
  1
０
 41
0.611111
  7
STANDARD
100
AcDbText
  0
TEXT
  5
58
100
AcDbEntity
  8
M0
100
AcDbText
 10
69.856256
 20
170.725729
 40
4.8
  1
０
 41
0.611111
  7
STANDARD
100
AcDbText
  0
TEXT
  5
59
100
AcDbEntity
  8
M0
100
AcDbText
 10
101.856256
 20
170.725729
 40
4.8
  1
１０
 41
0.611111
  7
STANDARD
100
AcDbText
  0
TEXT
  5
5A
100
AcDbEntity
  8
M0
100
AcDbText
 10
133.856256
 20
170.725729
 40
4.8
  1
２０
 41
0.611111
  7
STANDARD
100
AcDbText
  0
TEXT
  5
5B
100
AcDbEntity
  8
M0
100
AcDbText
 10
112.67012
 20
158.318639
 40
7.68
  1
揚水量（Ｌ／分）
 41
0.611111
  7
STANDARD
100
AcDbText
  0
TEXT
  5
5C
100
AcDbEntity
  8
M0
100
AcDbText
 10
165.856253
 20
170.725729
 40
4.8
  1
３０
 41
0.611111
  7
STANDARD
100
AcDbText
  0
LINE
  5
5D
100
AcDbEntity
  8
M0
100
AcDbLine
 10
72.976459
 20
234.767764
 11
72.976459
 21
178.767764
  0
LINE
  5
5E
100
AcDbEntity
  8
M0
100
AcDbLine
 10
72.976459
 20
178.767764
 11
184.218137
 21
178.767764
  0
LINE
  5
5F
100
AcDbEntity
  8
M0
100
AcDbLine
 10
104.976459
 20
178.767764
 11
104.976459
 21
234.767764
  0
LINE
  5
60
100
AcDbEntity
  8
M0
100
AcDbLine
 10
136.976459
 20
178.767764
 11
136.976459
 21
234.767764
  0
LINE
  5
61
100
AcDbEntity
  8
M0
100
AcDbLine
 10
72.976459
 20
194.767764
 11
184.218137
 21
194.767764
  0
LINE
  5
62
100
AcDbEntity
  8
M0
100
AcDbLine
 10
72.976459
 20
210.767764
 11
104.976459
 21
210.767764
  0
LINE
  5
63
100
AcDbEntity
  8
M0
100
AcDbLine
 10
72.976459
 20
226.767764
 11
184.218137
 21
226.767764
  0
LINE
  5
64
100
AcDbEntity
  8
M0
100
AcDbLine
 10
120.976459
 20
226.767764
 11
120.976459
 21
234.767764
  0
LINE
  5
65
100
AcDbEntity
  8
M0
100
AcDbLine
 10
88.976459
 20
178.767764
 11
88.976459
 21
234.767764
  0
LINE
  5
66
100
AcDbEntity
  8
M0
100
AcDbLine
 10
120.976459
 20
178.767764
 11
120.976459
 21
210.767764
  0
LINE
  5
67
100
AcDbEntity
  8
M0
100
AcDbLine
 10
152.976459
 20
178.767764
 11
152.976459
 21
234.767764
  0
LINE
  5
68
100
AcDbEntity
  8
M0
100
AcDbLine
 10
104.976459
 20
210.767764
 11
184.218137
 21
210.767764
  0
LINE
  5
69
100
AcDbEntity
  8
M0
100
AcDbLine
 10
120.976459
 20
218.444878
 11
120.976459
 21
226.767764
  0
LINE
  5
6A
100
AcDbEntity
  8
M0
100
AcDbLine
 10
168.976459
 20
178.767764
 11
168.976459
 21
226.767764
  0
TEXT
  5
6B
100
AcDbEntity
  8
M0
100
AcDbText
 10
163.159793
 20
234.367765
 40
4.8
  1
吸込管径：２０ｍｍ
 41
0.590278
  7
STANDARD
100
AcDbText
  0
LINE
  5
6C
100
AcDbEntity
  8
M0
100
AcDbLine
 10
72.496463
 20
241.887765
 11
72.496465
 21
247.647765
  0
LINE
  5
6D
100
AcDbEntity
  8
M0
100
AcDbLine
 10
72.496465
 20
247.647765
 11
97.056467
 21
247.647765
  0
LINE
  5
6E
100
AcDbEntity
  8
M0
100
AcDbLine
 10
97.056467
 20
247.647765
 11
97.056465
 21
241.887765
  0
LINE
  5
6F
100
AcDbEntity
  8
M0
100
AcDbLine
 10
97.056465
 20
241.887765
 11
72.496463
 21
241.887765
  0
TEXT
  5
70
100
AcDbEntity
  8
M0
100
AcDbText
 10
73.159796
 20
242.367765
 40
4.8
  1
　浅井戸配管　　　標準ジェット（Ｊ１５－６Ｗ）使用時
 41
0.590278
  7
STANDARD
100
AcDbText
  0
TEXT
  5
71
100
AcDbEntity
  8
M0
100
AcDbText
 10
73.226456
 20
152.158524
 40
4.5
  1
※破線部域では６０ｋＰａの圧力変動があります。
 41
0.777778
  7
STANDARD
100
AcDbText
  0
ARC
  5
72
100
AcDbEntity
  8
M0
 62
   194
100
AcDbCircle
 10
145.877217
 20
188.759295
 40
10.0
100
AcDbArc
 50
48.576334
 51
77.560438
  0
LINE
  5
73
100
AcDbEntity
  8
M0
 62
   194
100
AcDbLine
 10
155.414504
 20
193.680258
 11
152.493433
 21
196.257674
  0
ARC
  5
74
100
AcDbEntity
  8
M0
 62
   194
100
AcDbCircle
 10
152.106396
 20
189.931069
 40
5.0
100
AcDbArc
 50
30.963757
 51
48.576334
  0
LINE
  5
75
100
AcDbEntity
  8
M0
 62
   194
100
AcDbLine
 10
157.91533
 20
189.967764
 11
156.39386
 21
192.503548
  0
TEXT
  5
76
100
AcDbEntity
  8
M0
 62
   194
100
AcDbText
 10
109.096714
 20
211.655229
 40
4.8
  1
吸上高さ６ｍ時
 41
0.590278
  7
STANDARD
100
AcDbText
  0
ARC
  5
77
100
AcDbEntity
  8
M0
 62
   194
100
AcDbCircle
 10
81.669426
 20
210.567764
 40
5.0
100
AcDbArc
 50
76.607502
 51
90.0
  0
LINE
  5
78
100
AcDbEntity
  8
M0
  6
DASHED
 62
   194
100
AcDbLine
 10
72.976459
 20
215.567764
 11
81.669426
 21
215.567764
  0
LINE
  5
79
100
AcDbEntity
  8
M0
 62
   194
100
AcDbLine
 10
148.031313
 20
198.524533
 11
82.827529
 21
215.431795
  0
LINE
  5
7A
100
AcDbEntity
  8
M0
100
AcDbLine
 10
186.010399
 20
84.491041
 11
75.010399
 21
84.491041
  0
LINE
  5
7B
100
AcDbEntity
  8
M0
100
AcDbLine
 10
123.010399
 20
52.491041
 11
123.010399
 21
108.962093
  0
LINE
  5
7C
100
AcDbEntity
  8
M0
100
AcDbLine
 10
155.010399
 20
52.491041
 11
155.010399
 21
108.491041
  0
TEXT
  5
7D
100
AcDbEntity
  8
M0
100
AcDbText
 10
165.193728
 20
101.109177
 40
4.8
  1
圧力管径：２０ｍｍ
 41
0.590278
  7
STANDARD
100
AcDbText
  0
TEXT
  5
7E
100
AcDbEntity
  8
M0
100
AcDbText
 10
125.583247
 20
92.580773
 40
4.8
  1
吸上高さ１２ｍ時
 41
0.590278
  7
STANDARD
100
AcDbText
  0
LINE
  5
7F
100
AcDbEntity
  8
M0
100
AcDbLine
 10
74.530402
 20
115.611034
 11
74.530404
 21
121.371034
  0
LINE
  5
80
100
AcDbEntity
  8
M0
100
AcDbLine
 10
74.530404
 20
121.371034
 11
99.090405
 21
121.371034
  0
LINE
  5
81
100
AcDbEntity
  8
M0
100
AcDbLine
 10
99.090405
 20
121.371034
 11
99.090403
 21
115.611034
  0
LINE
  5
82
100
AcDbEntity
  8
M0
100
AcDbLine
 10
99.090403
 20
115.611034
 11
74.530402
 21
115.611034
  0
TEXT
  5
83
100
AcDbEntity
  8
M0
100
AcDbText
 10
75.193736
 20
116.091034
 40
4.8
  1
　深井戸配管　　　標準ジェット（Ｊ１５－６Ｗ）使用時
 41
0.590278
  7
STANDARD
100
AcDbText
  0
TEXT
  5
84
100
AcDbEntity
  8
M0
100
AcDbText
 10
165.193728
 20
107.1026
 40
4.8
  1
吸込管径：２５ｍｍ
 41
0.590278
  7
STANDARD
100
AcDbText
  0
LINE
  5
85
100
AcDbEntity
  8
M0
100
AcDbLine
 10
75.010399
 20
108.491041
 11
75.010399
 21
52.491041
  0
LINE
  5
86
100
AcDbEntity
  8
M0
100
AcDbLine
 10
75.010399
 20
52.491041
 11
186.010399
 21
52.491041
  0
LINE
  5
87
100
AcDbEntity
  8
M0
100
AcDbLine
 10
107.010399
 20
52.491041
 11
107.010399
 21
108.97461
  0
LINE
  5
88
100
AcDbEntity
  8
M0
100
AcDbLine
 10
139.010399
 20
52.491041
 11
139.010399
 21
89.291041
  0
LINE
  5
89
100
AcDbEntity
  8
M0
100
AcDbLine
 10
171.010399
 20
52.491041
 11
171.010399
 21
99.065878
  0
LINE
  5
8A
100
AcDbEntity
  8
M0
100
AcDbLine
 10
75.010399
 20
68.491041
 11
186.010399
 21
68.491041
  0
LINE
  5
8B
100
AcDbEntity
  8
M0
100
AcDbLine
 10
75.010399
 20
100.491041
 11
159.224729
 21
100.491041
  0
ARC
  5
8C
100
AcDbEntity
  8
M0
100
AcDbCircle
 10
56.624836
 20
66.603827
 40
7.68
100
AcDbArc
 50
52.58592
 51
127.41408
  0
ARC
  5
8D
100
AcDbEntity
  8
M0
100
AcDbCircle
 10
56.624836
 20
71.423785
 40
7.68
100
AcDbArc
 50
232.58592
 51
307.41408
  0
TEXT
  5
8E
100
AcDbEntity
  8
M0
100
AcDbText
 10
53.424832
 20
89.558498
 40
5.12
  1
全
 41
1.25
  7
STANDARD
100
AcDbText
  0
TEXT
  5
8F
100
AcDbEntity
  8
M0
100
AcDbText
 10
53.424832
 20
83.926498
 40
5.12
  1
揚
 41
1.25
  7
STANDARD
100
AcDbText
  0
TEXT
  5
90
100
AcDbEntity
  8
M0
100
AcDbText
 10
53.424832
 20
78.294498
 40
5.12
  1
程
 41
1.25
  7
STANDARD
100
AcDbText
  0
TEXT
  5
91
100
AcDbEntity
  8
M0
100
AcDbText
 10
53.424832
 20
72.662498
 40
5.12
  1
　
 41
1.25
  7
STANDARD
100
AcDbText
  0
TEXT
  5
92
100
AcDbEntity
  8
M0
100
AcDbText
 10
53.424832
 20
67.030498
 40
5.12
  1
ｍ
 41
1.25
  7
STANDARD
100
AcDbText
  0
TEXT
  5
93
100
AcDbEntity
  8
M0
100
AcDbText
 10
65.490194
 20
98.211014
 40
4.8
  1
３０
 41
0.611111
  7
STANDARD
100
AcDbText
  0
TEXT
  5
94
100
AcDbEntity
  8
M0
100
AcDbText
 10
65.490194
 20
82.211014
 40
4.8
  1
２０
 41
0.611111
  7
STANDARD
100
AcDbText
  0
TEXT
  5
95
100
AcDbEntity
  8
M0
100
AcDbText
 10
65.490194
 20
66.211006
 40
4.8
  1
１０
 41
0.611111
  7
STANDARD
100
AcDbText
  0
TEXT
  5
96
100
AcDbEntity
  8
M0
100
AcDbText
 10
68.690206
 20
50.211006
 40
4.8
  1
０
 41
0.611111
  7
STANDARD
100
AcDbText
  0
TEXT
  5
97
100
AcDbEntity
  8
M0
100
AcDbText
 10
71.890203
 20
44.448998
 40
4.8
  1
０
 41
0.611111
  7
STANDARD
100
AcDbText
  0
TEXT
  5
98
100
AcDbEntity
  8
M0
100
AcDbText
 10
103.890196
 20
44.448998
 40
4.8
  1
１０
 41
0.611111
  7
STANDARD
100
AcDbText
  0
TEXT
  5
99
100
AcDbEntity
  8
M0
100
AcDbText
 10
135.890188
 20
44.448998
 40
4.8
  1
２０
 41
0.611111
  7
STANDARD
100
AcDbText
  0
TEXT
  5
9A
100
AcDbEntity
  8
M0
100
AcDbText
 10
110.301266
 20
32.554939
 40
7.68
  1
揚水量（Ｌ／分）
 41
0.611111
  7
STANDARD
100
AcDbText
  0
TEXT
  5
9B
100
AcDbEntity
  8
M0
100
AcDbText
 10
167.890188
 20
44.448998
 40
4.8
  1
３０
 41
0.611111
  7
STANDARD
100
AcDbText
  0
LINE
  5
9C
100
AcDbEntity
  8
M0
100
AcDbLine
 10
91.010399
 20
52.491041
 11
91.010399
 21
108.491041
  0
TEXT
  5
9D
100
AcDbEntity
  8
M0
100
AcDbText
 10
75.260391
 20
25.8818
 40
4.5
  1
※破線部域では６０ｋＰａの圧力変動があります。
 41
0.777778
  7
STANDARD
100
AcDbText
  0
LINE
  5
9E
100
AcDbEntity
  8
M0
100
AcDbLine
 10
139.010399
 20
99.135041
 11
139.010399
 21
109.005594
  0
ARC
  5
9F
100
AcDbEntity
  8
M0
 62
   234
100
AcDbCircle
 10
85.043335
 20
93.891041
 40
5.0
100
AcDbArc
 50
70.769328
 51
90.0
  0
LINE
  5
A0
100
AcDbEntity
  8
M0
  6
DASHED
 62
   234
100
AcDbLine
 10
75.010399
 20
98.891041
 11
85.043335
 21
98.891041
  0
LINE
  5
A1
100
AcDbEntity
  8
M0
 62
   234
100
AcDbLine
 10
121.906098
 20
80.661705
 11
86.690196
 21
98.612042
  0
ARC
  5
A2
100
AcDbEntity
  8
M0
 62
   234
100
AcDbCircle
 10
119.635449
 20
76.207028
 40
5.0
100
AcDbArc
 50
16.699244
 51
62.991039
  0
LINE
  5
A3
100
AcDbEntity
  8
M0
 62
   234
100
AcDbLine
 10
126.210399
 20
71.691041
 11
124.424581
 21
77.643767
  0
ARC
  5
A4
100
AcDbEntity
  8
M0
100
AcDbCircle
 10
220.536433
 20
194.227509
 40
7.68
100
AcDbArc
 50
52.58592
 51
127.41408
  0
ARC
  5
A5
100
AcDbEntity
  8
M0
100
AcDbCircle
 10
220.536433
 20
199.047466
 40
7.68
100
AcDbArc
 50
232.58592
 51
307.41408
  0
TEXT
  5
A6
100
AcDbEntity
  8
M0
100
AcDbText
 10
217.336429
 20
217.182181
 40
5.12
  1
全
 41
1.25
  7
STANDARD
100
AcDbText
  0
TEXT
  5
A7
100
AcDbEntity
  8
M0
100
AcDbText
 10
217.336429
 20
211.550181
 40
5.12
  1
揚
 41
1.25
  7
STANDARD
100
AcDbText
  0
TEXT
  5
A8
100
AcDbEntity
  8
M0
100
AcDbText
 10
217.336429
 20
205.918181
 40
5.12
  1
程
 41
1.25
  7
STANDARD
100
AcDbText
  0
TEXT
  5
A9
100
AcDbEntity
  8
M0
100
AcDbText
 10
217.336429
 20
200.286181
 40
5.12
  1
　
 41
1.25
  7
STANDARD
100
AcDbText
  0
TEXT
  5
AA
100
AcDbEntity
  8
M0
100
AcDbText
 10
217.336429
 20
194.654181
 40
5.12
  1
ｍ
 41
1.25
  7
STANDARD
100
AcDbText
  0
TEXT
  5
AB
100
AcDbEntity
  8
M0
100
AcDbText
 10
229.257577
 20
224.487735
 40
4.8
  1
３０
 41
0.611111
  7
STANDARD
100
AcDbText
  0
TEXT
  5
AC
100
AcDbEntity
  8
M0
100
AcDbText
 10
229.257577
 20
208.487735
 40
4.8
  1
２０
 41
0.611111
  7
STANDARD
100
AcDbText
  0
TEXT
  5
AD
100
AcDbEntity
  8
M0
100
AcDbText
 10
229.257577
 20
192.487735
 40
4.8
  1
１０
 41
0.611111
  7
STANDARD
100
AcDbText
  0
TEXT
  5
AE
100
AcDbEntity
  8
M0
100
AcDbText
 10
232.457574
 20
176.487735
 40
4.8
  1
０
 41
0.611111
  7
STANDARD
100
AcDbText
  0
TEXT
  5
AF
100
AcDbEntity
  8
M0
100
AcDbText
 10
235.657571
 20
170.725726
 40
4.8
  1
０
 41
0.611111
  7
STANDARD
100
AcDbText
  0
TEXT
  5
B0
100
AcDbEntity
  8
M0
100
AcDbText
 10
267.657571
 20
170.725726
 40
4.8
  1
１０
 41
0.611111
  7
STANDARD
100
AcDbText
  0
TEXT
  5
B1
100
AcDbEntity
  8
M0
100
AcDbText
 10
299.657567
 20
170.725726
 40
4.8
  1
２０
 41
0.611111
  7
STANDARD
100
AcDbText
  0
TEXT
  5
B2
100
AcDbEntity
  8
M0
100
AcDbText
 10
331.657566
 20
170.725726
 40
4.8
  1
３０
 41
0.611111
  7
STANDARD
100
AcDbText
  0
LINE
  5
B3
100
AcDbEntity
  8
M0
100
AcDbLine
 10
238.777778
 20
234.767764
 11
238.777778
 21
178.767764
  0
LINE
  5
B4
100
AcDbEntity
  8
M0
100
AcDbLine
 10
238.777778
 20
178.767764
 11
349.777778
 21
178.767764
  0
LINE
  5
B5
100
AcDbEntity
  8
M0
100
AcDbLine
 10
270.777778
 20
178.767764
 11
270.777778
 21
213.747413
  0
LINE
  5
B6
100
AcDbEntity
  8
M0
100
AcDbLine
 10
302.777778
 20
178.767764
 11
302.777778
 21
234.767764
  0
LINE
  5
B7
100
AcDbEntity
  8
M0
100
AcDbLine
 10
334.777778
 20
178.767764
 11
334.777778
 21
226.767764
  0
LINE
  5
B8
100
AcDbEntity
  8
M0
100
AcDbLine
 10
238.777778
 20
194.767764
 11
349.777778
 21
194.767764
  0
LINE
  5
B9
100
AcDbEntity
  8
M0
100
AcDbLine
 10
238.777778
 20
226.767764
 11
349.777778
 21
226.767764
  0
LINE
  5
BA
100
AcDbEntity
  8
M0
100
AcDbLine
 10
270.777778
 20
226.767764
 11
270.777778
 21
234.767764
  0
LINE
  5
BB
100
AcDbEntity
  8
M0
100
AcDbLine
 10
238.777778
 20
210.767764
 11
349.777778
 21
210.767764
  0
LINE
  5
BC
100
AcDbEntity
  8
M0
100
AcDbLine
 10
254.777778
 20
178.767764
 11
254.777778
 21
234.767764
  0
LINE
  5
BD
100
AcDbEntity
  8
M0
100
AcDbLine
 10
286.777778
 20
178.767764
 11
286.777778
 21
235.242433
  0
LINE
  5
BE
100
AcDbEntity
  8
M0
100
AcDbLine
 10
318.777778
 20
178.767764
 11
318.777778
 21
234.767764
  0
LINE
  5
BF
100
AcDbEntity
  8
M0
100
AcDbLine
 10
270.777778
 20
224.032077
 11
270.777778
 21
226.767764
  0
TEXT
  5
C0
100
AcDbEntity
  8
M0
100
AcDbText
 10
278.471435
 20
158.318641
 40
7.68
  1
揚水量（Ｌ／分）
 41
0.611111
  7
STANDARD
100
AcDbText
  0
TEXT
  5
C1
100
AcDbEntity
  8
M0
100
AcDbText
 10
239.02777
 20
152.158523
 40
4.5
  1
※破線部域では６０ｋＰａの圧力変動があります。
 41
0.777778
  7
STANDARD
100
AcDbText
  0
TEXT
  5
C2
100
AcDbEntity
  8
M0
100
AcDbText
 10
325.679016
 20
232.367764
 40
4.8
  1
吸込管径：２０ｍｍ
 41
0.590278
  7
STANDARD
100
AcDbText
  0
TEXT
  5
C3
100
AcDbEntity
  8
M0
100
AcDbText
 10
258.712111
 20
216.120797
 40
4.8
  1
吸上高さ１２ｍ時
 41
0.590278
  7
STANDARD
100
AcDbText
  0
LINE
  5
C4
100
AcDbEntity
  8
M0
100
AcDbLine
 10
238.297778
 20
241.887765
 11
238.297779
 21
247.647765
  0
LINE
  5
C5
100
AcDbEntity
  8
M0
100
AcDbLine
 10
238.297779
 20
247.647765
 11
256.057779
 21
247.647765
  0
LINE
  5
C6
100
AcDbEntity
  8
M0
100
AcDbLine
 10
256.057779
 20
247.647765
 11
256.057777
 21
241.887765
  0
LINE
  5
C7
100
AcDbEntity
  8
M0
100
AcDbLine
 10
256.057777
 20
241.887765
 11
238.297778
 21
241.887765
  0
TEXT
  5
C8
100
AcDbEntity
  8
M0
100
AcDbText
 10
238.961111
 20
242.367765
 40
4.8
  1
　深井戸　　　深井戸用シングルジェット（Ｊ１５－１２ＳＷ）使用時
 41
0.590278
  7
STANDARD
100
AcDbText
  0
LINE
  5
C9
100
AcDbEntity
  8
M0
100
AcDbLine
 10
281.321068
 20
199.039926
 11
280.329139
 21
198.140684
  0
ARC
  5
CA
100
AcDbEntity
  8
M0
100
AcDbCircle
 10
277.977778
 20
200.295628
 40
4.0
100
AcDbArc
 50
0.0
 51
63.434949
  0
ARC
  5
CB
100
AcDbEntity
  8
M0
100
AcDbCircle
 10
279.977778
 20
200.521672
 40
2.0
100
AcDbArc
 50
312.194168
 51
360.0
  0
LINE
  5
CC
100
AcDbEntity
  8
M0
100
AcDbLine
 10
272.721281
 20
207.396013
 11
279.766632
 21
203.873337
  0
LINE
  5
CD
100
AcDbEntity
  8
M0
100
AcDbLine
 10
244.232003
 20
224.455229
 11
272.048459
 21
207.765355
  0
ARC
  5
CE
100
AcDbEntity
  8
M0
100
AcDbCircle
 10
277.193417
 20
216.340285
 40
10.0
100
AcDbArc
 50
239.036243
 51
243.434949
  0
ARC
  5
CF
100
AcDbEntity
  8
M0
100
AcDbCircle
 10
241.659525
 20
220.167764
 40
5.0
100
AcDbArc
 50
59.036243
 51
90.0
  0
LINE
  5
D0
100
AcDbEntity
  8
M0
  6
DASHED
100
AcDbLine
 10
238.777778
 20
225.167764
 11
241.659525
 21
225.167764
  0
ENDSEC
  0
SECTION
  2
OBJECTS
  0
DICTIONARY
  5
C
100
AcDbDictionary
  3
ACAD_GROUP
350
D
  3
ACAD_MLINESTYLE
350
E
  0
DICTIONARY
  5
D
102
{ACAD_REACTORS
330
C
102
}
100
AcDbDictionary
  0
DICTIONARY
  5
E
102
{ACAD_REACTORS
330
C
102
}
100
AcDbDictionary
  3
STANDARD
350
13
  0
MLINESTYLE
  5
13
102
{ACAD_REACTORS
330
E
102
}
100
AcDbMlineStyle
  2
STANDARD
 70
     0
  3

 62
     0
 51
90.0
 52
90.0
 71
     2
 49
0.5
 62
   256
  6
BYLAYER
 49
-0.5
 62
   256
  6
BYLAYER
  0
ENDSEC
  0
EOF
