  0
SECTION
  2
HEADER
  9
$ACADVER
  1
AC1012
  9
$INSBASE
 10
0.0
 20
0.0
  9
$VIEWCTR
 10
7.531722
 20
4.5
  9
$VIEWSIZE
 40
9.0
  9
$SNAPMODE
 70
     0
  9
$SNAPUNIT
 10
1.0
 20
1.0
  9
$SNAPBASE
 10
0.0
 20
0.0
  9
$SNAPANG
 50
0.0
  9
$SNAPSTYLE
 70
     0
  9
$SNAPISOPAIR
 70
     0
  9
$GRIDMODE
 70
     0
  9
$GRIDUNIT
 10
0.0
 20
0.0
  9
$ORTHOMODE
 70
     0
  9
$REGENMODE
 70
     1
  9
$FILLMODE
 70
     1
  9
$QTEXTMODE
 70
     0
  9
$DRAGMODE
 70
     2
  9
$LTSCALE
 40
1.0
  9
$OSMODE
 70
     0
  9
$ATTMODE
 70
     1
  9
$TEXTSIZE
 40
0.2
  9
$TRACEWID
 40
0.05
  9
$TEXTSTYLE
  7
STANDARD
  9
$CELTYPE
  6
BYLAYER
  9
$CECOLOR
 62
   256
  9
$DIMSCALE
 40
1.0
  9
$DIMASZ
 40
0.18
  9
$DIMEXO
 40
0.0625
  9
$DIMDLI
 40
0.38
  9
$DIMRND
 40
0.0
  9
$DIMDLE
 40
0.0
  9
$DIMEXE
 40
0.18
  9
$DIMTP
 40
0.0
  9
$DIMTM
 40
0.0
  9
$DIMTXT
 40
0.18
  9
$DIMCEN
 40
0.09
  9
$DIMTSZ
 40
0.0
  9
$DIMTOL
 70
     0
  9
$DIMLIM
 70
     0
  9
$DIMTIH
 70
     1
  9
$DIMTOH
 70
     1
  9
$DIMSE1
 70
     0
  9
$DIMSE2
 70
     0
  9
$DIMTAD
 70
     0
  9
$DIMZIN
 70
     0
  9
$DIMBLK
  1

  9
$LUNITS
 70
     2
  9
$LUPREC
 70
     4
  9
$AXISMODE
 70
     0
  9
$AXISUNIT
 10
0.0
 20
0.0
  9
$SKETCHINC
 40
0.1
  9
$FILLETRAD
 40
0.0
  9
$AUNITS
 70
     0
  9
$AUPREC
 70
     0
  9
$MENU
  1
ACAD
  9
$ELEVATION
 40
0.0
  9
$THICKNESS
 40
0.0
  9
$VIEWDIR
 10
0.0
 20
0.0
 30
1.0
  9
$LIMCHECK
 70
     0
  9
$BLIPMODE
 70
     1
  9
$CHAMFERA
 40
0.0
  9
$CHAMFERB
 40
0.0
  9
$FASTZOOM
 70
     1
  9
$SKPOLY
 70
     0
  9
$TDCREATE
 40
0000000.0000000000
  9
$TDUPDATE
 40
0000000.0000000000
  9
$TDINDWG
 40
0.0000000000
  9
$TDUSRTIMER
 40
0.0000000000
  9
$USRTIMER
 70
     1
  9
$ANGBASE
 50
0.0
  9
$ANGDIR
 70
     0
  9
$PDMODE
 70
     0
  9
$PDSIZE
 40
0.0
  9
$PLINEWID
 40
0.0
  9
$COORDS
 70
     0
  9
$USERI1
 70
     0
  9
$USERI2
 70
     0
  9
$USERI3
 70
     0
  9
$USERI4
 70
     0
  9
$USERI5
 70
     0
  9
$USERR1
 40
0.0
  9
$USERR2
 40
0.0
  9
$USERR3
 40
0.0
  9
$USERR4
 40
0.0
  9
$USERR5
 40
0.0
  9
$CLAYER
  8
M0
  9
$EXTMIN
 10
0.0
 20
0.0
  9
$EXTMAX
 10
420.0
 20
297.0
  9
$LIMMIN
 10
0.0
 20
0.0
  9
$LIMMAX
 10
420.0
 20
297.0
  9
$HANDSEED
  5
114
  0
ENDSEC
  0
SECTION
  2
CLASSES
  0
ENDSEC
  0
SECTION
  2
TABLES
  0
TABLE
  2
VPORT
  5
8
100
AcDbSymbolTable
 70
     2
  0
VPORT
  5
14
100
AcDbSymbolTableRecord
100
AcDbViewportTableRecord
  2
*ACTIVE
 70
     0
 10
0.0
 20
0.0
 11
1.0
 21
1.0
 12
484.0
 22
297.0
 13
0.0
 23
0.0
 14
1.0
 24
1.0
 15
0.0
 25
0.0
 16
0.0
 26
0.0
 36
1.0
 17
0.0
 27
0.0
 37
0.0
 40
594.0
 41
2.0
 42
50.0
 43
0.0
 44
0.0
 50
0.0
 51
0.0
 71
     0
 72
   100
 73
     1
 74
     1
 75
     0
 76
     0
 77
     0
 78
     0
  0
ENDTAB
  0
TABLE
  2
LTYPE
  5
5
100
AcDbSymbolTable
 70
     5
  0
LTYPE
  5
15
100
AcDbSymbolTableRecord
100
AcDbLinetypeTableRecord
  2
BYBLOCK
 70
     0
  3

 72
    65
 73
     0
 40
0.0
  0
LTYPE
  5
16
100
AcDbSymbolTableRecord
100
AcDbLinetypeTableRecord
  2
BYLAYER
 70
     0
  3

 72
    65
 73
     0
 40
0.0
  0
LTYPE
  5
17
100
AcDbSymbolTableRecord
100
AcDbLinetypeTableRecord
  2
CONTINUOUS
 70
    64
  3
Solid line
 72
    65
 73
     0
 40
0.0
  0
LTYPE
  5
18
100
AcDbSymbolTableRecord
100
AcDbLinetypeTableRecord
  2
DASHED
 70
    64
  3
__ __ __ __ __ __ __ __ __ __ __ __ __ __ __ __
 72
    65
 73
     2
 40
0.75
 49
0.5
 74
     0
 49
-0.25
 74
     0
  0
LTYPE
  5
19
100
AcDbSymbolTableRecord
100
AcDbLinetypeTableRecord
  2
DASHDOT
 70
    64
  3
__ . __ . __ . __ . __ . __ . __ . __ . __ . __
 72
    65
 73
     4
 40
1.0
 49
0.5
 74
     0
 49
-0.25
 74
     0
 49
0.0
 74
     0
 49
-0.25
 74
     0
  0
LTYPE
  5
1A
100
AcDbSymbolTableRecord
100
AcDbLinetypeTableRecord
  2
DIVIDE
 70
    64
  3
____ . . ____ . . ____ . . ____ . . ____ . . __
 72
    65
 73
     6
 40
1.25
 49
0.5
 74
     0
 49
-0.25
 74
     0
 49
0.0
 74
     0
 49
-0.25
 74
     0
 49
0.0
 74
     0
 49
-0.25
 74
     0
  0
LTYPE
  5
1B
100
AcDbSymbolTableRecord
100
AcDbLinetypeTableRecord
  2
DOT
 70
    64
  3
. . . . . . . . . . . . . . . . . . . . . . . .
 72
    65
 73
     2
 40
0.25
 49
0.0
 74
     0
 49
-0.25
 74
     0
  0
ENDTAB
  0
TABLE
  2
LAYER
  5
2
100
AcDbSymbolTable
 70
   102
  0
LAYER
  5
F
100
AcDbSymbolTableRecord
100
AcDbLayerTableRecord
  2
0
 70
     0
 62
     7
  6
CONTINUOUS
  0
LAYER
  5
1C
100
AcDbSymbolTableRecord
100
AcDbLayerTableRecord
  2
DEFPOINTS
 70
     0
 62
     7
  6
CONTINUOUS
  0
LAYER
  5
1D
100
AcDbSymbolTableRecord
100
AcDbLayerTableRecord
  2
M0
 70
     0
 62
     3
  6
CONTINUOUS
  0
ENDTAB
  0
TABLE
  2
STYLE
  5
3
100
AcDbSymbolTable
 70
     2
  0
STYLE
  5
10
100
AcDbSymbolTableRecord
100
AcDbTextStyleTableRecord
  2
STANDARD
 70
     0
 40
0.0
 41
1.0
 50
0.0
 71
     0
 42
0.2
  3
txt
  4
BIGFONT
  0
ENDTAB
  0
TABLE
  2
VIEW
  5
6
100
AcDbSymbolTable
 70
     0
  0
ENDTAB
  0
TABLE
  2
UCS
  5
7
100
AcDbSymbolTable
 70
     0
  0
ENDTAB
  0
TABLE
  2
APPID
  5
9
100
AcDbSymbolTable
 70
     1
  0
APPID
  5
11
100
AcDbSymbolTableRecord
100
AcDbRegAppTableRecord
  2
ACAD
 70
     0
  0
ENDTAB
  0
TABLE
  2
DIMSTYLE
  5
A
100
AcDbSymbolTable
 70
     2
  0
DIMSTYLE
105
24
100
AcDbSymbolTableRecord
100
AcDbDimStyleTableRecord
  2
STANDARD
 70
     0
  3

  4

  5

  6
_OPEN
  7
_OPEN
 40
1.0
 41
3.0
 42
0.0
 43
8.0
 44
1.5
 45
0.0
 46
0.0
 47
0.0
 48
0.0
140
3.5
141
0.09
142
0.0
143
0.03937
144
1.0
145
0.0
146
1.0
147
1.0
 71
     0
 72
     0
 73
     0
 74
     0
 75
     0
 76
     0
 77
     3
 78
     8
170
     0
171
     2
172
     0
173
     1
174
     0
175
     0
176
     0
177
     0
178
     0
270
     2
271
     2
272
     4
273
     2
274
     2
340
10
275
     0
280
     0
281
     0
282
     0
283
     1
284
     0
285
     0
286
     0
287
     3
288
     0
  0
DIMSTYLE
105
25
100
AcDbSymbolTableRecord
100
AcDbDimStyleTableRecord
  2
LEADSTYL
 70
     0
  3

  4

  5

  6
_OPEN
  7
_OPEN
 40
1.0
 41
3.0
 42
0.0625
 43
0.38
 44
0.18
 45
0.0
 46
0.0
 47
0.0
 48
0.0
140
3.2
141
0.09
142
0.0
143
25.4
144
1.0
145
0.0
146
1.0
147
1.0
 71
     0
 72
     0
 73
     1
 74
     1
 75
     0
 76
     0
 77
     0
 78
     0
170
     0
171
     2
172
     0
173
     1
174
     0
175
     0
176
     0
177
     0
178
     0
270
     2
271
     4
272
     4
273
     2
274
     2
340
10
275
     0
280
     0
281
     0
282
     0
283
     1
284
     0
285
     0
286
     0
287
     3
288
     0
  0
ENDTAB
  0
TABLE
  2
BLOCK_RECORD
  5
1
100
AcDbSymbolTable
 70
     6
  0
BLOCK_RECORD
  5
1E
100
AcDbSymbolTableRecord
100
AcDbBlockTableRecord
  2
*MODEL_SPACE
  0
BLOCK_RECORD
  5
21
100
AcDbSymbolTableRecord
100
AcDbBlockTableRecord
  2
*PAPER_SPACE
  0
BLOCK_RECORD
  5
26
100
AcDbSymbolTableRecord
100
AcDbBlockTableRecord
  2
_NONE
  0
BLOCK_RECORD
  5
2A
100
AcDbSymbolTableRecord
100
AcDbBlockTableRecord
  2
_OPEN
  0
BLOCK_RECORD
  5
30
100
AcDbSymbolTableRecord
100
AcDbBlockTableRecord
  2
_CLOSED
  0
BLOCK_RECORD
  5
37
100
AcDbSymbolTableRecord
100
AcDbBlockTableRecord
  2
_ORIGIN
  0
BLOCK_RECORD
  5
3C
100
AcDbSymbolTableRecord
100
AcDbBlockTableRecord
  2
_DOT
  0
BLOCK_RECORD
  5
44
100
AcDbSymbolTableRecord
100
AcDbBlockTableRecord
  2
_OBLIQUE
  0
ENDTAB
  0
ENDSEC
  0
SECTION
  2
BLOCKS
  0
BLOCK
  5
1F
100
AcDbEntity
  8
0
100
AcDbBlockBegin
  2
*MODEL_SPACE
 70
     0
 10
0.0
 20
0.0
 30
0.0
  3
*MODEL_SPACE
  1

  0
ENDBLK
  5
20
100
AcDbEntity
  8
0
100
AcDbBlockEnd
  0
BLOCK
  5
22
100
AcDbEntity
 67
     1
  8
0
100
AcDbBlockBegin
  2
*PAPER_SPACE
 70
     0
 10
0.0
 20
0.0
 30
0.0
  3
*PAPER_SPACE
  1

  0
ENDBLK
  5
23
100
AcDbEntity
 67
     1
  8
0
100
AcDbBlockEnd
  0
BLOCK
  5
27
100
AcDbEntity
  8
0
100
AcDbBlockBegin
  2
_NONE
 70
     0
 10
0.0
 20
0.0
  0
CIRCLE
  5
28
100
AcDbEntity
  8
0
 62
     0
100
AcDbCircle
 10
0.0
 20
0.0
 40
0.25
  0
ENDBLK
  5
29
100
AcDbEntity
  8
0
100
AcDbBlockEnd
  0
BLOCK
  5
2B
100
AcDbEntity
  8
0
100
AcDbBlockBegin
  2
_OPEN
 70
     0
 10
0.0
 20
0.0
  0
LINE
  5
2C
100
AcDbEntity
  8
0
 62
     0
100
AcDbLine
 10
-0.965926
 20
0.258819
 11
0.0
 21
0.0
  0
LINE
  5
2D
100
AcDbEntity
  8
0
 62
     0
100
AcDbLine
 10
0.0
 20
0.0
 11
-0.965926
 21
-0.258819
  0
LINE
  5
2E
100
AcDbEntity
  8
0
 62
     0
100
AcDbLine
 10
0.0
 20
0.0
 11
-1.0
 21
0.0
  0
ENDBLK
  5
2F
100
AcDbEntity
  8
0
100
AcDbBlockEnd
  0
BLOCK
  5
31
100
AcDbEntity
  8
0
100
AcDbBlockBegin
  2
_CLOSED
 70
     0
 10
0.0
 20
0.0
  0
LINE
  5
32
100
AcDbEntity
  8
0
 62
     0
100
AcDbLine
 10
-0.965926
 20
0.258819
 11
0.0
 21
0.0
  0
LINE
  5
33
100
AcDbEntity
  8
0
 62
     0
100
AcDbLine
 10
0.0
 20
0.0
 11
-0.965926
 21
-0.258819
  0
LINE
  5
34
100
AcDbEntity
  8
0
 62
     0
100
AcDbLine
 10
-0.965926
 20
0.258819
 11
-0.965926
 21
-0.258819
  0
LINE
  5
35
100
AcDbEntity
  8
0
 62
     0
100
AcDbLine
 10
0.0
 20
0.0
 11
-1.0
 21
0.0
  0
ENDBLK
  5
36
100
AcDbEntity
  8
0
100
AcDbBlockEnd
  0
BLOCK
  5
38
100
AcDbEntity
  8
0
100
AcDbBlockBegin
  2
_ORIGIN
 70
     0
 10
0.0
 20
0.0
  0
CIRCLE
  5
39
100
AcDbEntity
  8
0
 62
     0
100
AcDbCircle
 10
0.0
 20
0.0
 40
0.5
  0
LINE
  5
3A
100
AcDbEntity
  8
0
 62
     0
100
AcDbLine
 10
0.0
 20
0.0
 11
-1.0
 21
0.0
  0
ENDBLK
  5
3B
100
AcDbEntity
  8
0
100
AcDbBlockEnd
  0
BLOCK
  5
3D
100
AcDbEntity
  8
0
100
AcDbBlockBegin
  2
_DOT
 70
     0
 10
0.0
 20
0.0
  0
POLYLINE
  5
3E
100
AcDbEntity
  8
0
 62
     0
100
AcDb2dPolyline
 66
     1
 70
     1
 40
0.5
 41
0.5
  0
VERTEX
  5
3F
100
AcDbEntity
  8
0
 62
     0
100
AcDbVertex
100
AcDb2dVertex
 10
-0.25
 20
0.0
 42
1.0
  0
VERTEX
  5
40
100
AcDbEntity
  8
0
 62
     0
100
AcDbVertex
100
AcDb2dVertex
 10
0.25
 20
0.0
 42
1.0
  0
SEQEND
  5
41
100
AcDbEntity
  8
0
 62
     0
  0
LINE
  5
42
100
AcDbEntity
  8
0
 62
     0
100
AcDbLine
 10
-0.5
 20
0.0
 11
-1.0
 21
0.0
  0
ENDBLK
  5
43
100
AcDbEntity
  8
0
100
AcDbBlockEnd
  0
BLOCK
  5
45
100
AcDbEntity
  8
0
100
AcDbBlockBegin
  2
_OBLIQUE
 70
     0
 10
0.0
 20
0.0
  0
LINE
  5
46
100
AcDbEntity
  8
0
 62
     0
100
AcDbLine
 10
-0.353553
 20
-0.353553
 11
0.353553
 21
0.353553
  0
ENDBLK
  5
47
100
AcDbEntity
  8
0
100
AcDbBlockEnd
  0
ENDSEC
  0
SECTION
  2
ENTITIES
  0
LINE
  5
48
100
AcDbEntity
  8
M0
  6
DASHED
 62
     4
100
AcDbLine
 10
72.630849
 20
211.572172
 11
79.030849
 21
211.572172
  0
LINE
  5
49
100
AcDbEntity
  8
M0
 62
     4
100
AcDbLine
 10
138.10877
 20
211.079532
 11
145.516273
 21
208.610364
  0
LINE
  5
4A
100
AcDbEntity
  8
M0
 62
     4
100
AcDbLine
 10
146.97383
 20
208.248342
 11
155.830849
 21
206.772172
  0
LINE
  5
4B
100
AcDbEntity
  8
M0
 62
     4
100
AcDbLine
 10
155.830849
 20
206.772172
 11
165.052678
 21
205.235201
  0
LINE
  5
4C
100
AcDbEntity
  8
M0
 62
     4
100
AcDbLine
 10
165.80279
 20
205.079187
 11
176.350098
 21
202.44236
  0
LINE
  5
4D
100
AcDbEntity
  8
M0
 62
     4
100
AcDbLine
 10
179.781756
 20
200.808992
 11
188.897516
 21
193.972172
  0
ARC
  5
4E
100
AcDbEntity
  8
M0
 62
     4
100
AcDbCircle
 10
174.021756
 20
193.128992
 40
9.6
100
AcDbArc
 50
53.130102
 51
75.963757
  0
ARC
  5
4F
100
AcDbEntity
  8
M0
 62
     4
100
AcDbCircle
 10
163.474448
 20
195.765819
 40
9.6
100
AcDbArc
 50
75.963757
 51
80.537678
  0
ARC
  5
50
100
AcDbEntity
  8
M0
 62
     4
100
AcDbCircle
 10
148.55206
 20
217.717724
 40
9.6
100
AcDbArc
 50
251.565051
 51
260.537678
  0
ARC
  5
51
100
AcDbEntity
  8
M0
 62
     4
100
AcDbCircle
 10
135.072984
 20
201.972172
 40
9.6
100
AcDbArc
 50
71.565051
 51
90.0
  0
LINE
  5
52
100
AcDbEntity
  8
M0
 62
     4
100
AcDbLine
 10
96.887421
 20
271.871825
 11
96.887423
 21
277.631825
  0
LINE
  5
53
100
AcDbEntity
  8
M0
 62
     4
100
AcDbLine
 10
96.887423
 20
277.631825
 11
121.447425
 21
277.631825
  0
LINE
  5
54
100
AcDbEntity
  8
M0
 62
     4
100
AcDbLine
 10
121.447425
 20
277.631825
 11
121.447424
 21
271.871825
  0
LINE
  5
55
100
AcDbEntity
  8
M0
 62
     4
100
AcDbLine
 10
121.447424
 20
271.871825
 11
96.887421
 21
271.871825
  0
TEXT
  5
56
100
AcDbEntity
  8
M0
 62
     4
100
AcDbText
 10
97.550755
 20
272.351825
 40
4.8
  1
　浅井戸配管　　　標準ジェット（Ｊ２５－６Ｓ）使用時
 41
0.590278
  7
STANDARD
100
AcDbText
  0
TEXT
  5
57
100
AcDbEntity
  8
M0
 62
     4
100
AcDbText
 10
191.379167
 20
258.607608
 40
4.8
  1
吸込管径：２５ｍｍ
 41
0.590278
  7
STANDARD
100
AcDbText
  0
LINE
  5
58
100
AcDbEntity
  8
M0
 62
     4
100
AcDbLine
 10
79.030849
 20
211.572172
 11
135.072984
 21
211.572172
  0
LINE
  5
59
100
AcDbEntity
  8
M0
100
AcDbLine
 10
72.630849
 20
256.372172
 11
72.630849
 21
184.372172
  0
LINE
  5
5A
100
AcDbEntity
  8
M0
100
AcDbLine
 10
72.630849
 20
184.372172
 11
216.630849
 21
184.372172
  0
LINE
  5
5B
100
AcDbEntity
  8
M0
100
AcDbLine
 10
104.630849
 20
184.372172
 11
104.630849
 21
256.372172
  0
LINE
  5
5C
100
AcDbEntity
  8
M0
100
AcDbLine
 10
136.630849
 20
184.372172
 11
136.630849
 21
216.372172
  0
LINE
  5
5D
100
AcDbEntity
  8
M0
100
AcDbLine
 10
168.630849
 20
184.372172
 11
168.630849
 21
216.372172
  0
LINE
  5
5E
100
AcDbEntity
  8
M0
100
AcDbLine
 10
200.630849
 20
184.372172
 11
200.630849
 21
216.372172
  0
LINE
  5
5F
100
AcDbEntity
  8
M0
100
AcDbLine
 10
72.630849
 20
200.372172
 11
216.630849
 21
200.372172
  0
LINE
  5
60
100
AcDbEntity
  8
M0
100
AcDbLine
 10
72.630849
 20
216.372172
 11
216.630849
 21
216.372172
  0
LINE
  5
61
100
AcDbEntity
  8
M0
100
AcDbLine
 10
72.630849
 20
232.372172
 11
216.630849
 21
232.372172
  0
LINE
  5
62
100
AcDbEntity
  8
M0
100
AcDbLine
 10
72.630849
 20
248.372172
 11
216.630849
 21
248.372172
  0
LINE
  5
63
100
AcDbEntity
  8
M0
100
AcDbLine
 10
136.630849
 20
232.372172
 11
136.630849
 21
256.372172
  0
LINE
  5
64
100
AcDbEntity
  8
M0
100
AcDbLine
 10
168.630849
 20
216.372172
 11
168.630849
 21
256.372172
  0
LINE
  5
65
100
AcDbEntity
  8
M0
100
AcDbLine
 10
200.630849
 20
216.372172
 11
200.630849
 21
256.372172
  0
LINE
  5
66
100
AcDbEntity
  8
M0
100
AcDbLine
 10
136.630849
 20
225.688551
 11
136.630849
 21
232.372172
  0
TEXT
  5
67
100
AcDbEntity
  8
M0
100
AcDbText
 10
54.323963
 20
224.400164
 40
3.2
  1
全
 41
1.25
  7
STANDARD
100
AcDbText
  0
TEXT
  5
68
100
AcDbEntity
  8
M0
100
AcDbText
 10
54.323963
 20
220.880164
 40
3.2
  1
揚
 41
1.25
  7
STANDARD
100
AcDbText
  0
TEXT
  5
69
100
AcDbEntity
  8
M0
100
AcDbText
 10
54.323963
 20
217.360164
 40
3.2
  1
程
 41
1.25
  7
STANDARD
100
AcDbText
  0
TEXT
  5
6A
100
AcDbEntity
  8
M0
100
AcDbText
 10
54.323963
 20
213.840164
 40
3.2
  1
　
 41
1.25
  7
STANDARD
100
AcDbText
  0
TEXT
  5
6B
100
AcDbEntity
  8
M0
100
AcDbText
 10
54.323963
 20
210.320164
 40
3.2
  1
ｍ
 41
1.25
  7
STANDARD
100
AcDbText
  0
ARC
  5
6C
100
AcDbEntity
  8
M0
100
AcDbCircle
 10
56.323963
 20
210.053497
 40
4.8
100
AcDbArc
 50
52.58592
 51
127.41408
  0
ARC
  5
6D
100
AcDbEntity
  8
M0
100
AcDbCircle
 10
56.323963
 20
213.065971
 40
4.8
100
AcDbArc
 50
232.58592
 51
307.41408
  0
TEXT
  5
6E
100
AcDbEntity
  8
M0
100
AcDbText
 10
63.110646
 20
246.09214
 40
4.8
  1
４０
 41
0.611111
  7
STANDARD
100
AcDbText
  0
TEXT
  5
6F
100
AcDbEntity
  8
M0
100
AcDbText
 10
63.110646
 20
230.09214
 40
4.8
  1
３０
 41
0.611111
  7
STANDARD
100
AcDbText
  0
TEXT
  5
70
100
AcDbEntity
  8
M0
100
AcDbText
 10
63.110646
 20
214.09214
 40
4.8
  1
２０
 41
0.611111
  7
STANDARD
100
AcDbText
  0
TEXT
  5
71
100
AcDbEntity
  8
M0
100
AcDbText
 10
63.110646
 20
198.092141
 40
4.8
  1
１０
 41
0.611111
  7
STANDARD
100
AcDbText
  0
TEXT
  5
72
100
AcDbEntity
  8
M0
100
AcDbText
 10
66.310646
 20
182.092141
 40
4.8
  1
０
 41
0.611111
  7
STANDARD
100
AcDbText
  0
TEXT
  5
73
100
AcDbEntity
  8
M0
100
AcDbText
 10
69.510646
 20
176.330133
 40
4.8
  1
０
 41
0.611111
  7
STANDARD
100
AcDbText
  0
TEXT
  5
74
100
AcDbEntity
  8
M0
100
AcDbText
 10
101.510645
 20
176.330133
 40
4.8
  1
１０
 41
0.611111
  7
STANDARD
100
AcDbText
  0
TEXT
  5
75
100
AcDbEntity
  8
M0
100
AcDbText
 10
133.510649
 20
176.330133
 40
4.8
  1
２０
 41
0.611111
  7
STANDARD
100
AcDbText
  0
TEXT
  5
76
100
AcDbEntity
  8
M0
100
AcDbText
 10
130.940985
 20
169.322656
 40
4.8
  1
揚水量（Ｌ／分）
 41
0.611111
  7
STANDARD
100
AcDbText
  0
TEXT
  5
77
100
AcDbEntity
  8
M0
100
AcDbText
 10
165.510641
 20
176.330133
 40
4.8
  1
３０
 41
0.611111
  7
STANDARD
100
AcDbText
  0
TEXT
  5
78
100
AcDbEntity
  8
M0
100
AcDbText
 10
197.510641
 20
176.330133
 40
4.8
  1
４０
 41
0.611111
  7
STANDARD
100
AcDbText
  0
LINE
  5
79
100
AcDbEntity
  8
M0
100
AcDbLine
 10
269.315425
 20
141.303293
 11
269.315425
 21
69.303293
  0
LINE
  5
7A
100
AcDbEntity
  8
M0
100
AcDbLine
 10
269.315425
 20
69.303293
 11
348.315425
 21
69.303293
  0
LINE
  5
7B
100
AcDbEntity
  8
M0
100
AcDbLine
 10
301.315425
 20
69.303293
 11
301.315425
 21
125.710298
  0
LINE
  5
7C
100
AcDbEntity
  8
M0
100
AcDbLine
 10
333.315425
 20
69.303293
 11
333.315425
 21
117.303293
  0
LINE
  5
7D
100
AcDbEntity
  8
M0
100
AcDbLine
 10
269.315425
 20
85.303293
 11
348.315425
 21
85.303293
  0
LINE
  5
7E
100
AcDbEntity
  8
M0
100
AcDbLine
 10
269.315425
 20
101.303293
 11
348.315425
 21
101.303293
  0
LINE
  5
7F
100
AcDbEntity
  8
M0
100
AcDbLine
 10
269.315425
 20
117.303293
 11
348.315425
 21
117.303293
  0
LINE
  5
80
100
AcDbEntity
  8
M0
100
AcDbLine
 10
269.315425
 20
133.303293
 11
348.315425
 21
133.303293
  0
ARC
  5
81
100
AcDbEntity
  8
M0
100
AcDbCircle
 10
253.008539
 20
94.984618
 40
4.8
100
AcDbArc
 50
52.58592
 51
127.41408
  0
ARC
  5
82
100
AcDbEntity
  8
M0
100
AcDbCircle
 10
253.008539
 20
97.997091
 40
4.8
100
AcDbArc
 50
232.58592
 51
307.41408
  0
TEXT
  5
83
100
AcDbEntity
  8
M0
100
AcDbText
 10
251.00854
 20
109.331285
 40
3.2
  1
全
 41
1.25
  7
STANDARD
100
AcDbText
  0
TEXT
  5
84
100
AcDbEntity
  8
M0
100
AcDbText
 10
251.00854
 20
105.811285
 40
3.2
  1
揚
 41
1.25
  7
STANDARD
100
AcDbText
  0
TEXT
  5
85
100
AcDbEntity
  8
M0
100
AcDbText
 10
251.00854
 20
102.291285
 40
3.2
  1
程
 41
1.25
  7
STANDARD
100
AcDbText
  0
TEXT
  5
86
100
AcDbEntity
  8
M0
100
AcDbText
 10
251.00854
 20
98.771285
 40
3.2
  1
　
 41
1.25
  7
STANDARD
100
AcDbText
  0
TEXT
  5
87
100
AcDbEntity
  8
M0
100
AcDbText
 10
251.00854
 20
95.251285
 40
3.2
  1
ｍ
 41
1.25
  7
STANDARD
100
AcDbText
  0
TEXT
  5
88
100
AcDbEntity
  8
M0
100
AcDbText
 10
259.795224
 20
131.02326
 40
4.8
  1
４０
 41
0.611111
  7
STANDARD
100
AcDbText
  0
TEXT
  5
89
100
AcDbEntity
  8
M0
100
AcDbText
 10
259.795224
 20
115.023261
 40
4.8
  1
３０
 41
0.611111
  7
STANDARD
100
AcDbText
  0
TEXT
  5
8A
100
AcDbEntity
  8
M0
100
AcDbText
 10
259.795224
 20
99.02326
 40
4.8
  1
２０
 41
0.611111
  7
STANDARD
100
AcDbText
  0
TEXT
  5
8B
100
AcDbEntity
  8
M0
100
AcDbText
 10
259.795224
 20
83.023262
 40
4.8
  1
１０
 41
0.611111
  7
STANDARD
100
AcDbText
  0
TEXT
  5
8C
100
AcDbEntity
  8
M0
100
AcDbText
 10
262.995221
 20
67.023264
 40
4.8
  1
０
 41
0.611111
  7
STANDARD
100
AcDbText
  0
TEXT
  5
8D
100
AcDbEntity
  8
M0
100
AcDbText
 10
266.195218
 20
61.261255
 40
4.8
  1
０
 41
0.611111
  7
STANDARD
100
AcDbText
  0
TEXT
  5
8E
100
AcDbEntity
  8
M0
100
AcDbText
 10
298.195222
 20
61.261255
 40
4.8
  1
１０
 41
0.611111
  7
STANDARD
100
AcDbText
  0
TEXT
  5
8F
100
AcDbEntity
  8
M0
100
AcDbText
 10
330.195225
 20
61.261255
 40
4.8
  1
２０
 41
0.611111
  7
STANDARD
100
AcDbText
  0
TEXT
  5
90
100
AcDbEntity
  8
M0
100
AcDbText
 10
298.625562
 20
54.253778
 40
4.8
  1
揚水量（Ｌ／分）
 41
0.611111
  7
STANDARD
100
AcDbText
  0
LINE
  5
91
100
AcDbEntity
  8
M0
100
AcDbLine
 10
301.315425
 20
133.303293
 11
301.315425
 21
141.303293
  0
LINE
  5
92
100
AcDbEntity
  8
M0
100
AcDbLine
 10
333.315425
 20
125.083455
 11
333.315425
 21
141.303293
  0
LINE
  5
93
100
AcDbEntity
  8
M0
 62
     6
100
AcDbLine
 10
311.928924
 20
115.196543
 11
313.399883
 21
114.461064
  0
ARC
  5
94
100
AcDbEntity
  8
M0
 62
     6
100
AcDbCircle
 10
312.32657
 20
112.314439
 40
2.4
100
AcDbArc
 50
26.565051
 51
63.434949
  0
LINE
  5
95
100
AcDbEntity
  8
M0
 62
     6
100
AcDbLine
 10
314.915425
 20
111.93673
 11
314.915425
 21
98.103293
  0
ARC
  5
96
100
AcDbEntity
  8
M0
 62
     6
100
AcDbCircle
 10
312.515425
 20
111.93673
 40
2.4
100
AcDbArc
 50
0.0
 51
26.565051
  0
ARC
  5
97
100
AcDbEntity
  8
M0
 62
     6
100
AcDbCircle
 10
309.782298
 20
110.903293
 40
4.8
100
AcDbArc
 50
63.434949
 51
90.0
  0
LINE
  5
98
100
AcDbEntity
  8
M0
 62
     6
100
AcDbLine
 10
314.473195
 20
113.387751
 11
314.66205
 21
113.010042
  0
LINE
  5
99
100
AcDbEntity
  8
M0
  6
DASHED
 62
     6
100
AcDbLine
 10
269.315425
 20
115.703293
 11
275.715425
 21
115.703293
  0
LINE
  5
9A
100
AcDbEntity
  8
M0
 62
     6
100
AcDbLine
 10
275.715425
 20
115.703293
 11
309.782298
 21
115.703293
  0
ARC
  5
9B
100
AcDbEntity
  8
M0
 62
     1
100
AcDbCircle
 10
294.115425
 20
121.32436
 40
4.8
100
AcDbArc
 50
0.0
 51
18.434949
  0
ARC
  5
9C
100
AcDbEntity
  8
M0
 62
     1
100
AcDbCircle
 10
296.255205
 20
122.494484
 40
2.4
100
AcDbArc
 50
18.434949
 51
75.963757
  0
LINE
  5
9D
100
AcDbEntity
  8
M0
 62
     1
100
AcDbLine
 10
298.915425
 20
121.32436
 11
298.915425
 21
107.703293
  0
LINE
  5
9E
100
AcDbEntity
  8
M0
 62
     1
100
AcDbLine
 10
298.532045
 20
123.253431
 11
298.669104
 21
122.842253
  0
LINE
  5
9F
100
AcDbEntity
  8
M0
 62
     1
100
AcDbLine
 10
295.488689
 20
125.159977
 11
296.837291
 21
124.822826
  0
LINE
  5
A0
100
AcDbEntity
  8
M0
  6
DASHED
 62
     1
100
AcDbLine
 10
269.315425
 20
125.303293
 11
275.715425
 21
125.303293
  0
ARC
  5
A1
100
AcDbEntity
  8
M0
 62
     1
100
AcDbCircle
 10
294.324518
 20
120.503293
 40
4.8
100
AcDbArc
 50
75.963757
 51
90.0
  0
LINE
  5
A2
100
AcDbEntity
  8
M0
 62
     1
100
AcDbLine
 10
275.715425
 20
125.303293
 11
294.324518
 21
125.303293
  0
LINE
  5
A3
100
AcDbEntity
  8
M0
100
AcDbLine
 10
72.630849
 20
141.303293
 11
72.630849
 21
69.303293
  0
LINE
  5
A4
100
AcDbEntity
  8
M0
100
AcDbLine
 10
72.630849
 20
69.303293
 11
183.630849
 21
69.303293
  0
LINE
  5
A5
100
AcDbEntity
  8
M0
100
AcDbLine
 10
104.630849
 20
69.303293
 11
104.630849
 21
118.24134
  0
LINE
  5
A6
100
AcDbEntity
  8
M0
100
AcDbLine
 10
136.630849
 20
69.303293
 11
136.630849
 21
107.654917
  0
LINE
  5
A7
100
AcDbEntity
  8
M0
100
AcDbLine
 10
168.630849
 20
69.303293
 11
168.630849
 21
141.303293
  0
LINE
  5
A8
100
AcDbEntity
  8
M0
100
AcDbLine
 10
72.630849
 20
85.303293
 11
183.630849
 21
85.303293
  0
LINE
  5
A9
100
AcDbEntity
  8
M0
100
AcDbLine
 10
72.630849
 20
101.303293
 11
183.630849
 21
101.303293
  0
LINE
  5
AA
100
AcDbEntity
  8
M0
100
AcDbLine
 10
72.630849
 20
117.303293
 11
183.630849
 21
117.303293
  0
LINE
  5
AB
100
AcDbEntity
  8
M0
100
AcDbLine
 10
72.630849
 20
133.303293
 11
183.630849
 21
133.303293
  0
LINE
  5
AC
100
AcDbEntity
  8
M0
100
AcDbLine
 10
104.630849
 20
125.884781
 11
104.630849
 21
141.303293
  0
LINE
  5
AD
100
AcDbEntity
  8
M0
100
AcDbLine
 10
136.630849
 20
114.711994
 11
136.630849
 21
141.303293
  0
TEXT
  5
AE
100
AcDbEntity
  8
M0
100
AcDbText
 10
54.323963
 20
109.331285
 40
3.2
  1
全
 41
1.25
  7
STANDARD
100
AcDbText
  0
TEXT
  5
AF
100
AcDbEntity
  8
M0
100
AcDbText
 10
54.323963
 20
105.811284
 40
3.2
  1
揚
 41
1.25
  7
STANDARD
100
AcDbText
  0
TEXT
  5
B0
100
AcDbEntity
  8
M0
100
AcDbText
 10
54.323963
 20
102.291284
 40
3.2
  1
程
 41
1.25
  7
STANDARD
100
AcDbText
  0
TEXT
  5
B1
100
AcDbEntity
  8
M0
100
AcDbText
 10
54.323963
 20
98.771284
 40
3.2
  1
　
 41
1.25
  7
STANDARD
100
AcDbText
  0
TEXT
  5
B2
100
AcDbEntity
  8
M0
100
AcDbText
 10
54.323963
 20
95.251284
 40
3.2
  1
ｍ
 41
1.25
  7
STANDARD
100
AcDbText
  0
ARC
  5
B3
100
AcDbEntity
  8
M0
100
AcDbCircle
 10
56.323963
 20
94.984618
 40
4.8
100
AcDbArc
 50
52.58592
 51
127.41408
  0
ARC
  5
B4
100
AcDbEntity
  8
M0
100
AcDbCircle
 10
56.323963
 20
97.997091
 40
4.8
100
AcDbArc
 50
232.58592
 51
307.41408
  0
TEXT
  5
B5
100
AcDbEntity
  8
M0
100
AcDbText
 10
63.110646
 20
131.02326
 40
4.8
  1
４０
 41
0.611111
  7
STANDARD
100
AcDbText
  0
TEXT
  5
B6
100
AcDbEntity
  8
M0
100
AcDbText
 10
63.110646
 20
115.023261
 40
4.8
  1
３０
 41
0.611111
  7
STANDARD
100
AcDbText
  0
TEXT
  5
B7
100
AcDbEntity
  8
M0
100
AcDbText
 10
63.110646
 20
99.02326
 40
4.8
  1
２０
 41
0.611111
  7
STANDARD
100
AcDbText
  0
TEXT
  5
B8
100
AcDbEntity
  8
M0
100
AcDbText
 10
63.110646
 20
83.023262
 40
4.8
  1
１０
 41
0.611111
  7
STANDARD
100
AcDbText
  0
TEXT
  5
B9
100
AcDbEntity
  8
M0
100
AcDbText
 10
66.310646
 20
67.023262
 40
4.8
  1
０
 41
0.611111
  7
STANDARD
100
AcDbText
  0
TEXT
  5
BA
100
AcDbEntity
  8
M0
100
AcDbText
 10
69.510646
 20
61.261254
 40
4.8
  1
０
 41
0.611111
  7
STANDARD
100
AcDbText
  0
TEXT
  5
BB
100
AcDbEntity
  8
M0
100
AcDbText
 10
101.510645
 20
61.261254
 40
4.8
  1
１０
 41
0.611111
  7
STANDARD
100
AcDbText
  0
TEXT
  5
BC
100
AcDbEntity
  8
M0
100
AcDbText
 10
133.510649
 20
61.261254
 40
4.8
  1
２０
 41
0.611111
  7
STANDARD
100
AcDbText
  0
TEXT
  5
BD
100
AcDbEntity
  8
M0
100
AcDbText
 10
114.940985
 20
54.253777
 40
4.8
  1
揚水量（Ｌ／分）
 41
0.611111
  7
STANDARD
100
AcDbText
  0
TEXT
  5
BE
100
AcDbEntity
  8
M0
100
AcDbText
 10
165.510641
 20
61.261254
 40
4.8
  1
３０
 41
0.611111
  7
STANDARD
100
AcDbText
  0
LINE
  5
BF
100
AcDbEntity
  8
M0
 62
     5
100
AcDbLine
 10
137.181638
 20
103.952504
 11
138.310448
 21
102.823694
  0
ARC
  5
C0
100
AcDbEntity
  8
M0
 62
     5
100
AcDbCircle
 10
133.787525
 20
100.558392
 40
4.8
100
AcDbArc
 50
45.0
 51
63.434949
  0
LINE
  5
C1
100
AcDbEntity
  8
M0
 62
     5
100
AcDbLine
 10
134.444348
 20
105.596543
 11
135.934151
 21
104.851642
  0
ARC
  5
C2
100
AcDbEntity
  8
M0
 62
     5
100
AcDbCircle
 10
132.297723
 20
101.303293
 40
4.8
100
AcDbArc
 50
63.434949
 51
90.0
  0
LINE
  5
C3
100
AcDbEntity
  8
M0
 62
     5
100
AcDbLine
 10
132.297723
 20
106.103293
 11
79.030849
 21
106.103293
  0
LINE
  5
C4
100
AcDbEntity
  8
M0
  6
DASHED
 62
     5
100
AcDbLine
 10
79.030849
 20
106.103293
 11
72.630849
 21
106.103293
  0
LINE
  5
C5
100
AcDbEntity
  8
M0
 62
     5
100
AcDbLine
 10
142.364374
 20
95.39025
 11
143.855003
 21
88.503293
  0
ARC
  5
C6
100
AcDbEntity
  8
M0
 62
     5
100
AcDbCircle
 10
127.703846
 20
92.217092
 40
15.0
100
AcDbArc
 50
12.212843
 51
45.0
  0
ARC
  5
C7
100
AcDbEntity
  8
M0
 62
   154
100
AcDbCircle
 10
108.066372
 20
109.896685
 40
4.8
100
AcDbArc
 50
33.690068
 51
75.963757
  0
LINE
  5
C8
100
AcDbEntity
  8
M0
 62
   154
100
AcDbLine
 10
105.204113
 20
115.559977
 11
109.230543
 21
114.553369
  0
LINE
  5
C9
100
AcDbEntity
  8
M0
 62
   154
100
AcDbLine
 10
112.060214
 20
112.559246
 11
113.424691
 21
110.512531
  0
ARC
  5
CA
100
AcDbEntity
  8
M0
 62
   154
100
AcDbCircle
 10
104.039942
 20
110.903293
 40
4.8
100
AcDbArc
 50
75.963757
 51
90.0
  0
ARC
  5
CB
100
AcDbEntity
  8
M0
 62
   154
100
AcDbCircle
 10
109.430849
 20
107.84997
 40
4.8
100
AcDbArc
 50
0.0
 51
33.690068
  0
LINE
  5
CC
100
AcDbEntity
  8
M0
 62
   154
100
AcDbLine
 10
114.230849
 20
107.84997
 11
114.230849
 21
99.703293
  0
LINE
  5
CD
100
AcDbEntity
  8
M0
  6
DASHED
 62
   154
100
AcDbLine
 10
72.630849
 20
115.703293
 11
79.030849
 21
115.703293
  0
LINE
  5
CE
100
AcDbEntity
  8
M0
 62
   154
100
AcDbLine
 10
79.030849
 20
115.703293
 11
104.039942
 21
115.703293
  0
LINE
  5
CF
100
AcDbEntity
  8
M0
 62
     7
100
AcDbLine
 10
263.571997
 20
156.802949
 11
263.571999
 21
162.56295
  0
LINE
  5
D0
100
AcDbEntity
  8
M0
 62
     7
100
AcDbLine
 10
263.571999
 20
162.56295
 11
281.331998
 21
162.56295
  0
LINE
  5
D1
100
AcDbEntity
  8
M0
 62
     7
100
AcDbLine
 10
281.331998
 20
162.56295
 11
281.331996
 21
156.802949
  0
LINE
  5
D2
100
AcDbEntity
  8
M0
 62
     7
100
AcDbLine
 10
281.331996
 20
156.802949
 11
263.571997
 21
156.802949
  0
TEXT
  5
D3
100
AcDbEntity
  8
M0
 62
     7
100
AcDbText
 10
264.23533
 20
157.282949
 40
4.8
  1
　深井戸　　　専用ジェット（Ｊ２５－２４Ｓ）使用時
 41
0.590278
  7
STANDARD
100
AcDbText
  0
LINE
  5
D4
100
AcDbEntity
  8
M0
 62
     7
100
AcDbLine
 10
77.208736
 20
155.206754
 11
77.208738
 21
160.966755
  0
LINE
  5
D5
100
AcDbEntity
  8
M0
 62
     7
100
AcDbLine
 10
77.208738
 20
160.966755
 11
94.968739
 21
160.966755
  0
LINE
  5
D6
100
AcDbEntity
  8
M0
 62
     7
100
AcDbLine
 10
94.968739
 20
160.966755
 11
94.968737
 21
155.206754
  0
LINE
  5
D7
100
AcDbEntity
  8
M0
 62
     7
100
AcDbLine
 10
94.968737
 20
155.206754
 11
77.208736
 21
155.206754
  0
TEXT
  5
D8
100
AcDbEntity
  8
M0
 62
     7
100
AcDbText
 10
77.87207
 20
155.686754
 40
4.8
  1
　深井戸　　　シングルジェット（Ｊ２５－１８ＳＳ）使用時
 41
0.590278
  7
STANDARD
100
AcDbText
  0
TEXT
  5
D9
100
AcDbEntity
  8
M0
 62
     7
100
AcDbText
 10
124.413208
 20
219.327904
 40
4.8
  1
吸上高さ６ｍ時
 41
0.590278
  7
STANDARD
100
AcDbText
  0
TEXT
  5
DA
100
AcDbEntity
  8
M0
 62
   154
100
AcDbText
 10
83.868481
 20
119.822166
 40
4.8
  1
吸上高さ１８ｍ時
 41
0.590278
  7
STANDARD
100
AcDbText
  0
TEXT
  5
DB
100
AcDbEntity
  8
M0
 62
   154
100
AcDbText
 10
128.801995
 20
108.814187
 40
4.8
  1
吸上高さ１２ｍ時
 41
0.590278
  7
STANDARD
100
AcDbText
  0
TEXT
  5
DC
100
AcDbEntity
  8
M0
 62
     1
100
AcDbText
 10
287.745134
 20
126.942739
 40
4.8
  1
吸上高さ２４ｍ時
 41
0.590278
  7
STANDARD
100
AcDbText
  0
TEXT
  5
DD
100
AcDbEntity
  8
M0
 62
   194
100
AcDbText
 10
310.791505
 20
118.942739
 40
4.8
  1
吸上高さ１８ｍ時
 41
0.590278
  7
STANDARD
100
AcDbText
  0
LINE
  5
DE
100
AcDbEntity
  8
M0
100
AcDbLine
 10
269.315425
 20
256.372172
 11
269.315425
 21
184.372172
  0
LINE
  5
DF
100
AcDbEntity
  8
M0
100
AcDbLine
 10
269.315425
 20
184.372172
 11
380.315425
 21
184.372172
  0
LINE
  5
E0
100
AcDbEntity
  8
M0
100
AcDbLine
 10
301.315425
 20
184.372172
 11
301.315425
 21
256.372172
  0
LINE
  5
E1
100
AcDbEntity
  8
M0
100
AcDbLine
 10
333.315425
 20
184.372172
 11
333.315425
 21
223.392584
  0
LINE
  5
E2
100
AcDbEntity
  8
M0
100
AcDbLine
 10
365.315425
 20
184.372172
 11
365.315425
 21
216.372172
  0
LINE
  5
E3
100
AcDbEntity
  8
M0
100
AcDbLine
 10
269.315425
 20
200.372172
 11
380.315425
 21
200.372172
  0
LINE
  5
E4
100
AcDbEntity
  8
M0
100
AcDbLine
 10
269.315425
 20
216.372172
 11
380.315425
 21
216.372172
  0
LINE
  5
E5
100
AcDbEntity
  8
M0
100
AcDbLine
 10
269.315425
 20
232.372172
 11
380.315425
 21
232.372172
  0
LINE
  5
E6
100
AcDbEntity
  8
M0
100
AcDbLine
 10
269.315425
 20
248.372172
 11
380.315425
 21
248.372172
  0
LINE
  5
E7
100
AcDbEntity
  8
M0
100
AcDbLine
 10
333.315425
 20
232.372172
 11
333.315425
 21
256.372172
  0
LINE
  5
E8
100
AcDbEntity
  8
M0
100
AcDbLine
 10
365.315425
 20
216.372172
 11
365.315425
 21
256.372172
  0
TEXT
  5
E9
100
AcDbEntity
  8
M0
100
AcDbText
 10
251.008538
 20
224.400164
 40
3.2
  1
全
 41
1.25
  7
STANDARD
100
AcDbText
  0
TEXT
  5
EA
100
AcDbEntity
  8
M0
100
AcDbText
 10
251.008538
 20
220.880164
 40
3.2
  1
揚
 41
1.25
  7
STANDARD
100
AcDbText
  0
TEXT
  5
EB
100
AcDbEntity
  8
M0
100
AcDbText
 10
251.008538
 20
217.360164
 40
3.2
  1
程
 41
1.25
  7
STANDARD
100
AcDbText
  0
TEXT
  5
EC
100
AcDbEntity
  8
M0
100
AcDbText
 10
251.008538
 20
213.840164
 40
3.2
  1
　
 41
1.25
  7
STANDARD
100
AcDbText
  0
TEXT
  5
ED
100
AcDbEntity
  8
M0
100
AcDbText
 10
251.008538
 20
210.320164
 40
3.2
  1
ｍ
 41
1.25
  7
STANDARD
100
AcDbText
  0
ARC
  5
EE
100
AcDbEntity
  8
M0
100
AcDbCircle
 10
253.008539
 20
210.053497
 40
4.8
100
AcDbArc
 50
52.58592
 51
127.41408
  0
ARC
  5
EF
100
AcDbEntity
  8
M0
100
AcDbCircle
 10
253.008539
 20
213.065971
 40
4.8
100
AcDbArc
 50
232.58592
 51
307.41408
  0
TEXT
  5
F0
100
AcDbEntity
  8
M0
100
AcDbText
 10
259.795221
 20
246.09214
 40
4.8
  1
４０
 41
0.611111
  7
STANDARD
100
AcDbText
  0
TEXT
  5
F1
100
AcDbEntity
  8
M0
100
AcDbText
 10
259.795221
 20
230.09214
 40
4.8
  1
３０
 41
0.611111
  7
STANDARD
100
AcDbText
  0
TEXT
  5
F2
100
AcDbEntity
  8
M0
100
AcDbText
 10
259.795221
 20
214.09214
 40
4.8
  1
２０
 41
0.611111
  7
STANDARD
100
AcDbText
  0
TEXT
  5
F3
100
AcDbEntity
  8
M0
100
AcDbText
 10
259.795221
 20
198.092141
 40
4.8
  1
１０
 41
0.611111
  7
STANDARD
100
AcDbText
  0
TEXT
  5
F4
100
AcDbEntity
  8
M0
100
AcDbText
 10
262.995222
 20
182.092141
 40
4.8
  1
０
 41
0.611111
  7
STANDARD
100
AcDbText
  0
TEXT
  5
F5
100
AcDbEntity
  8
M0
100
AcDbText
 10
266.195221
 20
176.330133
 40
4.8
  1
０
 41
0.611111
  7
STANDARD
100
AcDbText
  0
TEXT
  5
F6
100
AcDbEntity
  8
M0
100
AcDbText
 10
298.19522
 20
176.330133
 40
4.8
  1
１０
 41
0.611111
  7
STANDARD
100
AcDbText
  0
TEXT
  5
F7
100
AcDbEntity
  8
M0
100
AcDbText
 10
330.195224
 20
176.330133
 40
4.8
  1
２０
 41
0.611111
  7
STANDARD
100
AcDbText
  0
TEXT
  5
F8
100
AcDbEntity
  8
M0
100
AcDbText
 10
314.62556
 20
169.322656
 40
4.8
  1
揚水量（Ｌ／分）
 41
0.611111
  7
STANDARD
100
AcDbText
  0
TEXT
  5
F9
100
AcDbEntity
  8
M0
100
AcDbText
 10
362.195217
 20
176.330133
 40
4.8
  1
３０
 41
0.611111
  7
STANDARD
100
AcDbText
  0
LINE
  5
FA
100
AcDbEntity
  8
M0
 62
     4
100
AcDbLine
 10
267.571997
 20
271.871825
 11
267.571999
 21
277.631825
  0
LINE
  5
FB
100
AcDbEntity
  8
M0
 62
     4
100
AcDbLine
 10
267.571999
 20
277.631825
 11
292.132001
 21
277.631825
  0
LINE
  5
FC
100
AcDbEntity
  8
M0
 62
     4
100
AcDbLine
 10
292.132001
 20
277.631825
 11
292.131999
 21
271.871825
  0
LINE
  5
FD
100
AcDbEntity
  8
M0
 62
     4
100
AcDbLine
 10
292.131999
 20
271.871825
 11
267.571997
 21
271.871825
  0
TEXT
  5
FE
100
AcDbEntity
  8
M0
 62
     4
100
AcDbText
 10
268.23533
 20
272.351825
 40
4.8
  1
　深井戸配管　　　標準ジェット（Ｊ２５－６Ｓ）使用時
 41
0.590278
  7
STANDARD
100
AcDbText
  0
LINE
  5
FF
100
AcDbEntity
  8
M0
 62
   234
100
AcDbLine
 10
340.215315
 20
215.122445
 11
344.835425
 21
203.572172
  0
ARC
  5
100
100
AcDbEntity
  8
M0
 62
   234
100
AcDbCircle
 10
335.758627
 20
213.33977
 40
4.8
100
AcDbArc
 50
21.801409
 51
53.130102
  0
LINE
  5
101
100
AcDbEntity
  8
M0
 62
   234
100
AcDbLine
 10
337.198418
 20
218.259927
 11
338.638627
 21
217.17977
  0
ARC
  5
102
100
AcDbEntity
  8
M0
 62
   234
100
AcDbCircle
 10
334.318418
 20
214.419927
 40
4.8
100
AcDbArc
 50
53.130102
 51
73.300756
  0
LINE
  5
103
100
AcDbEntity
  8
M0
 62
   234
100
AcDbLine
 10
329.190204
 20
220.969738
 11
335.697688
 21
219.017493
  0
ARC
  5
104
100
AcDbEntity
  8
M0
 62
   234
100
AcDbCircle
 10
327.810934
 20
216.372172
 40
4.8
100
AcDbArc
 50
73.300756
 51
90.0
  0
LINE
  5
105
100
AcDbEntity
  8
M0
 62
   234
100
AcDbLine
 10
327.810934
 20
221.172172
 11
275.715425
 21
221.172172
  0
LINE
  5
106
100
AcDbEntity
  8
M0
  6
DASHED
 62
   234
100
AcDbLine
 10
275.715425
 20
221.172172
 11
269.315425
 21
221.172172
  0
TEXT
  5
107
100
AcDbEntity
  8
M0
 62
   234
100
AcDbText
 10
312.738225
 20
224.957495
 40
4.8
  1
吸上高さ１２ｍ時
 41
0.590278
  7
STANDARD
100
AcDbText
  0
TEXT
  5
108
100
AcDbEntity
  8
M0
100
AcDbText
 10
355.06374
 20
264.607608
 40
4.8
  1
吸込管径：３０ｍｍ
 41
0.590278
  7
STANDARD
100
AcDbText
  0
TEXT
  5
109
100
AcDbEntity
  8
M0
100
AcDbText
 10
355.06374
 20
258.614185
 40
4.8
  1
圧力管径：２５ｍｍ
 41
0.590278
  7
STANDARD
100
AcDbText
  0
TEXT
  5
10A
100
AcDbEntity
  8
M0
100
AcDbText
 10
351.69019
 20
137.357265
 40
4.8
  1
吸込管径：３０ｍｍ
 41
0.590278
  7
STANDARD
100
AcDbText
  0
TEXT
  5
10B
100
AcDbEntity
  8
M0
100
AcDbText
 10
351.69019
 20
131.363841
 40
4.8
  1
圧力管径：３０ｍｍ
 41
0.590278
  7
STANDARD
100
AcDbText
  0
TEXT
  5
10C
100
AcDbEntity
  8
M0
100
AcDbText
 10
185.931391
 20
136.964561
 40
4.8
  1
吸込管（Ｂ）３０ｍｍ
 41
0.590278
  7
STANDARD
100
AcDbText
  0
LINE
  5
10D
100
AcDbEntity
  8
M0
 62
   154
100
AcDbLine
 10
39.621892
 20
267.845791
 11
63.006299
 21
267.845791
  0
TEXT
  5
10E
100
AcDbEntity
  8
M0
 62
   154
100
AcDbText
 10
42.063644
 20
269.860395
 40
5.4
  1
揚水性能
 41
0.740741
  7
STANDARD
100
AcDbText
  0
LINE
  5
10F
100
AcDbEntity
  8
M0
 62
   154
100
AcDbLine
 10
63.006299
 20
277.377721
 11
39.621892
 21
277.377721
  0
LINE
  5
110
100
AcDbEntity
  8
M0
 62
   154
100
AcDbLine
 10
39.621892
 20
277.377721
 11
39.621892
 21
267.845791
  0
LINE
  5
111
100
AcDbEntity
  8
M0
 62
   154
100
AcDbLine
 10
63.006299
 20
277.377721
 11
63.006299
 21
267.845791
  0
TEXT
  5
112
100
AcDbEntity
  8
M0
100
AcDbText
 10
273.680339
 20
33.028224
 40
4.5
  1
ＣＴ－Ｐ２５０Ｓ、ＣＴ－Ｋ２５０Ｓ　揚水性能図
 41
0.777778
  7
STANDARD
100
AcDbText
  0
ENDSEC
  0
SECTION
  2
OBJECTS
  0
DICTIONARY
  5
C
100
AcDbDictionary
  3
ACAD_GROUP
350
D
  3
ACAD_MLINESTYLE
350
E
  0
DICTIONARY
  5
D
102
{ACAD_REACTORS
330
C
102
}
100
AcDbDictionary
  0
DICTIONARY
  5
E
102
{ACAD_REACTORS
330
C
102
}
100
AcDbDictionary
  3
STANDARD
350
13
  0
MLINESTYLE
  5
13
102
{ACAD_REACTORS
330
E
102
}
100
AcDbMlineStyle
  2
STANDARD
 70
     0
  3

 62
     0
 51
90.0
 52
90.0
 71
     2
 49
0.5
 62
   256
  6
BYLAYER
 49
-0.5
 62
   256
  6
BYLAYER
  0
ENDSEC
  0
EOF
