  0
SECTION
  2
HEADER
  9
$ACADVER
  1
AC1012
  9
$INSBASE
 10
0.0
 20
0.0
  9
$VIEWCTR
 10
7.531722
 20
4.5
  9
$VIEWSIZE
 40
9.0
  9
$SNAPMODE
 70
     0
  9
$SNAPUNIT
 10
1.0
 20
1.0
  9
$SNAPBASE
 10
0.0
 20
0.0
  9
$SNAPANG
 50
0.0
  9
$SNAPSTYLE
 70
     0
  9
$SNAPISOPAIR
 70
     0
  9
$GRIDMODE
 70
     0
  9
$GRIDUNIT
 10
0.0
 20
0.0
  9
$ORTHOMODE
 70
     0
  9
$REGENMODE
 70
     1
  9
$FILLMODE
 70
     1
  9
$QTEXTMODE
 70
     0
  9
$DRAGMODE
 70
     2
  9
$LTSCALE
 40
1.0
  9
$OSMODE
 70
     0
  9
$ATTMODE
 70
     1
  9
$TEXTSIZE
 40
0.2
  9
$TRACEWID
 40
0.05
  9
$TEXTSTYLE
  7
STANDARD
  9
$CELTYPE
  6
BYLAYER
  9
$CECOLOR
 62
   256
  9
$DIMSCALE
 40
1.0
  9
$DIMASZ
 40
0.18
  9
$DIMEXO
 40
0.0625
  9
$DIMDLI
 40
0.38
  9
$DIMRND
 40
0.0
  9
$DIMDLE
 40
0.0
  9
$DIMEXE
 40
0.18
  9
$DIMTP
 40
0.0
  9
$DIMTM
 40
0.0
  9
$DIMTXT
 40
0.18
  9
$DIMCEN
 40
0.09
  9
$DIMTSZ
 40
0.0
  9
$DIMTOL
 70
     0
  9
$DIMLIM
 70
     0
  9
$DIMTIH
 70
     1
  9
$DIMTOH
 70
     1
  9
$DIMSE1
 70
     0
  9
$DIMSE2
 70
     0
  9
$DIMTAD
 70
     0
  9
$DIMZIN
 70
     0
  9
$DIMBLK
  1

  9
$LUNITS
 70
     2
  9
$LUPREC
 70
     4
  9
$AXISMODE
 70
     0
  9
$AXISUNIT
 10
0.0
 20
0.0
  9
$SKETCHINC
 40
0.1
  9
$FILLETRAD
 40
0.0
  9
$AUNITS
 70
     0
  9
$AUPREC
 70
     0
  9
$MENU
  1
ACAD
  9
$ELEVATION
 40
0.0
  9
$THICKNESS
 40
0.0
  9
$VIEWDIR
 10
0.0
 20
0.0
 30
1.0
  9
$LIMCHECK
 70
     0
  9
$BLIPMODE
 70
     1
  9
$CHAMFERA
 40
0.0
  9
$CHAMFERB
 40
0.0
  9
$FASTZOOM
 70
     1
  9
$SKPOLY
 70
     0
  9
$TDCREATE
 40
0000000.0000000000
  9
$TDUPDATE
 40
0000000.0000000000
  9
$TDINDWG
 40
0.0000000000
  9
$TDUSRTIMER
 40
0.0000000000
  9
$USRTIMER
 70
     1
  9
$ANGBASE
 50
0.0
  9
$ANGDIR
 70
     0
  9
$PDMODE
 70
     0
  9
$PDSIZE
 40
0.0
  9
$PLINEWID
 40
0.0
  9
$COORDS
 70
     0
  9
$USERI1
 70
     0
  9
$USERI2
 70
     0
  9
$USERI3
 70
     0
  9
$USERI4
 70
     0
  9
$USERI5
 70
     0
  9
$USERR1
 40
0.0
  9
$USERR2
 40
0.0
  9
$USERR3
 40
0.0
  9
$USERR4
 40
0.0
  9
$USERR5
 40
0.0
  9
$CLAYER
  8
M0
  9
$EXTMIN
 10
0.0
 20
0.0
  9
$EXTMAX
 10
420.0
 20
297.0
  9
$LIMMIN
 10
0.0
 20
0.0
  9
$LIMMAX
 10
420.0
 20
297.0
  9
$HANDSEED
  5
141
  0
ENDSEC
  0
SECTION
  2
CLASSES
  0
ENDSEC
  0
SECTION
  2
TABLES
  0
TABLE
  2
VPORT
  5
8
100
AcDbSymbolTable
 70
     2
  0
VPORT
  5
14
100
AcDbSymbolTableRecord
100
AcDbViewportTableRecord
  2
*ACTIVE
 70
     0
 10
0.0
 20
0.0
 11
1.0
 21
1.0
 12
484.0
 22
297.0
 13
0.0
 23
0.0
 14
1.0
 24
1.0
 15
0.0
 25
0.0
 16
0.0
 26
0.0
 36
1.0
 17
0.0
 27
0.0
 37
0.0
 40
594.0
 41
2.0
 42
50.0
 43
0.0
 44
0.0
 50
0.0
 51
0.0
 71
     0
 72
   100
 73
     1
 74
     1
 75
     0
 76
     0
 77
     0
 78
     0
  0
ENDTAB
  0
TABLE
  2
LTYPE
  5
5
100
AcDbSymbolTable
 70
     5
  0
LTYPE
  5
15
100
AcDbSymbolTableRecord
100
AcDbLinetypeTableRecord
  2
BYBLOCK
 70
     0
  3

 72
    65
 73
     0
 40
0.0
  0
LTYPE
  5
16
100
AcDbSymbolTableRecord
100
AcDbLinetypeTableRecord
  2
BYLAYER
 70
     0
  3

 72
    65
 73
     0
 40
0.0
  0
LTYPE
  5
17
100
AcDbSymbolTableRecord
100
AcDbLinetypeTableRecord
  2
CONTINUOUS
 70
    64
  3
Solid line
 72
    65
 73
     0
 40
0.0
  0
LTYPE
  5
18
100
AcDbSymbolTableRecord
100
AcDbLinetypeTableRecord
  2
DASHED
 70
    64
  3
__ __ __ __ __ __ __ __ __ __ __ __ __ __ __ __
 72
    65
 73
     2
 40
0.75
 49
0.5
 74
     0
 49
-0.25
 74
     0
  0
LTYPE
  5
19
100
AcDbSymbolTableRecord
100
AcDbLinetypeTableRecord
  2
DASHDOT
 70
    64
  3
__ . __ . __ . __ . __ . __ . __ . __ . __ . __
 72
    65
 73
     4
 40
1.0
 49
0.5
 74
     0
 49
-0.25
 74
     0
 49
0.0
 74
     0
 49
-0.25
 74
     0
  0
LTYPE
  5
1A
100
AcDbSymbolTableRecord
100
AcDbLinetypeTableRecord
  2
DIVIDE
 70
    64
  3
____ . . ____ . . ____ . . ____ . . ____ . . __
 72
    65
 73
     6
 40
1.25
 49
0.5
 74
     0
 49
-0.25
 74
     0
 49
0.0
 74
     0
 49
-0.25
 74
     0
 49
0.0
 74
     0
 49
-0.25
 74
     0
  0
LTYPE
  5
1B
100
AcDbSymbolTableRecord
100
AcDbLinetypeTableRecord
  2
DOT
 70
    64
  3
. . . . . . . . . . . . . . . . . . . . . . . .
 72
    65
 73
     2
 40
0.25
 49
0.0
 74
     0
 49
-0.25
 74
     0
  0
ENDTAB
  0
TABLE
  2
LAYER
  5
2
100
AcDbSymbolTable
 70
   102
  0
LAYER
  5
F
100
AcDbSymbolTableRecord
100
AcDbLayerTableRecord
  2
0
 70
     0
 62
     7
  6
CONTINUOUS
  0
LAYER
  5
1C
100
AcDbSymbolTableRecord
100
AcDbLayerTableRecord
  2
DEFPOINTS
 70
     0
 62
     7
  6
CONTINUOUS
  0
LAYER
  5
1D
100
AcDbSymbolTableRecord
100
AcDbLayerTableRecord
  2
M0
 70
     0
 62
     3
  6
CONTINUOUS
  0
ENDTAB
  0
TABLE
  2
STYLE
  5
3
100
AcDbSymbolTable
 70
     2
  0
STYLE
  5
10
100
AcDbSymbolTableRecord
100
AcDbTextStyleTableRecord
  2
STANDARD
 70
     0
 40
0.0
 41
1.0
 50
0.0
 71
     0
 42
0.2
  3
txt
  4
BIGFONT
  0
ENDTAB
  0
TABLE
  2
VIEW
  5
6
100
AcDbSymbolTable
 70
     0
  0
ENDTAB
  0
TABLE
  2
UCS
  5
7
100
AcDbSymbolTable
 70
     0
  0
ENDTAB
  0
TABLE
  2
APPID
  5
9
100
AcDbSymbolTable
 70
     1
  0
APPID
  5
11
100
AcDbSymbolTableRecord
100
AcDbRegAppTableRecord
  2
ACAD
 70
     0
  0
ENDTAB
  0
TABLE
  2
DIMSTYLE
  5
A
100
AcDbSymbolTable
 70
     2
  0
DIMSTYLE
105
24
100
AcDbSymbolTableRecord
100
AcDbDimStyleTableRecord
  2
STANDARD
 70
     0
  3

  4

  5

  6
_OPEN
  7
_OPEN
 40
1.0
 41
3.0
 42
0.0
 43
8.0
 44
1.5
 45
0.0
 46
0.0
 47
0.0
 48
0.0
140
3.5
141
0.09
142
0.0
143
0.03937
144
1.0
145
0.0
146
1.0
147
1.0
 71
     0
 72
     0
 73
     0
 74
     0
 75
     0
 76
     0
 77
     3
 78
     8
170
     0
171
     2
172
     0
173
     1
174
     0
175
     0
176
     0
177
     0
178
     0
270
     2
271
     2
272
     4
273
     2
274
     2
340
10
275
     0
280
     0
281
     0
282
     0
283
     1
284
     0
285
     0
286
     0
287
     3
288
     0
  0
DIMSTYLE
105
25
100
AcDbSymbolTableRecord
100
AcDbDimStyleTableRecord
  2
LEADSTYL
 70
     0
  3

  4

  5

  6
_OPEN
  7
_OPEN
 40
1.0
 41
3.0
 42
0.0625
 43
0.38
 44
0.18
 45
0.0
 46
0.0
 47
0.0
 48
0.0
140
3.2
141
0.09
142
0.0
143
25.4
144
1.0
145
0.0
146
1.0
147
1.0
 71
     0
 72
     0
 73
     1
 74
     1
 75
     0
 76
     0
 77
     0
 78
     0
170
     0
171
     2
172
     0
173
     1
174
     0
175
     0
176
     0
177
     0
178
     0
270
     2
271
     4
272
     4
273
     2
274
     2
340
10
275
     0
280
     0
281
     0
282
     0
283
     1
284
     0
285
     0
286
     0
287
     3
288
     0
  0
ENDTAB
  0
TABLE
  2
BLOCK_RECORD
  5
1
100
AcDbSymbolTable
 70
     6
  0
BLOCK_RECORD
  5
1E
100
AcDbSymbolTableRecord
100
AcDbBlockTableRecord
  2
*MODEL_SPACE
  0
BLOCK_RECORD
  5
21
100
AcDbSymbolTableRecord
100
AcDbBlockTableRecord
  2
*PAPER_SPACE
  0
BLOCK_RECORD
  5
26
100
AcDbSymbolTableRecord
100
AcDbBlockTableRecord
  2
_NONE
  0
BLOCK_RECORD
  5
2A
100
AcDbSymbolTableRecord
100
AcDbBlockTableRecord
  2
_OPEN
  0
BLOCK_RECORD
  5
30
100
AcDbSymbolTableRecord
100
AcDbBlockTableRecord
  2
_CLOSED
  0
BLOCK_RECORD
  5
37
100
AcDbSymbolTableRecord
100
AcDbBlockTableRecord
  2
_ORIGIN
  0
BLOCK_RECORD
  5
3C
100
AcDbSymbolTableRecord
100
AcDbBlockTableRecord
  2
_DOT
  0
BLOCK_RECORD
  5
44
100
AcDbSymbolTableRecord
100
AcDbBlockTableRecord
  2
_OBLIQUE
  0
ENDTAB
  0
ENDSEC
  0
SECTION
  2
BLOCKS
  0
BLOCK
  5
1F
100
AcDbEntity
  8
0
100
AcDbBlockBegin
  2
*MODEL_SPACE
 70
     0
 10
0.0
 20
0.0
 30
0.0
  3
*MODEL_SPACE
  1

  0
ENDBLK
  5
20
100
AcDbEntity
  8
0
100
AcDbBlockEnd
  0
BLOCK
  5
22
100
AcDbEntity
 67
     1
  8
0
100
AcDbBlockBegin
  2
*PAPER_SPACE
 70
     0
 10
0.0
 20
0.0
 30
0.0
  3
*PAPER_SPACE
  1

  0
ENDBLK
  5
23
100
AcDbEntity
 67
     1
  8
0
100
AcDbBlockEnd
  0
BLOCK
  5
27
100
AcDbEntity
  8
0
100
AcDbBlockBegin
  2
_NONE
 70
     0
 10
0.0
 20
0.0
  0
CIRCLE
  5
28
100
AcDbEntity
  8
0
 62
     0
100
AcDbCircle
 10
0.0
 20
0.0
 40
0.25
  0
ENDBLK
  5
29
100
AcDbEntity
  8
0
100
AcDbBlockEnd
  0
BLOCK
  5
2B
100
AcDbEntity
  8
0
100
AcDbBlockBegin
  2
_OPEN
 70
     0
 10
0.0
 20
0.0
  0
LINE
  5
2C
100
AcDbEntity
  8
0
 62
     0
100
AcDbLine
 10
-0.965926
 20
0.258819
 11
0.0
 21
0.0
  0
LINE
  5
2D
100
AcDbEntity
  8
0
 62
     0
100
AcDbLine
 10
0.0
 20
0.0
 11
-0.965926
 21
-0.258819
  0
LINE
  5
2E
100
AcDbEntity
  8
0
 62
     0
100
AcDbLine
 10
0.0
 20
0.0
 11
-1.0
 21
0.0
  0
ENDBLK
  5
2F
100
AcDbEntity
  8
0
100
AcDbBlockEnd
  0
BLOCK
  5
31
100
AcDbEntity
  8
0
100
AcDbBlockBegin
  2
_CLOSED
 70
     0
 10
0.0
 20
0.0
  0
LINE
  5
32
100
AcDbEntity
  8
0
 62
     0
100
AcDbLine
 10
-0.965926
 20
0.258819
 11
0.0
 21
0.0
  0
LINE
  5
33
100
AcDbEntity
  8
0
 62
     0
100
AcDbLine
 10
0.0
 20
0.0
 11
-0.965926
 21
-0.258819
  0
LINE
  5
34
100
AcDbEntity
  8
0
 62
     0
100
AcDbLine
 10
-0.965926
 20
0.258819
 11
-0.965926
 21
-0.258819
  0
LINE
  5
35
100
AcDbEntity
  8
0
 62
     0
100
AcDbLine
 10
0.0
 20
0.0
 11
-1.0
 21
0.0
  0
ENDBLK
  5
36
100
AcDbEntity
  8
0
100
AcDbBlockEnd
  0
BLOCK
  5
38
100
AcDbEntity
  8
0
100
AcDbBlockBegin
  2
_ORIGIN
 70
     0
 10
0.0
 20
0.0
  0
CIRCLE
  5
39
100
AcDbEntity
  8
0
 62
     0
100
AcDbCircle
 10
0.0
 20
0.0
 40
0.5
  0
LINE
  5
3A
100
AcDbEntity
  8
0
 62
     0
100
AcDbLine
 10
0.0
 20
0.0
 11
-1.0
 21
0.0
  0
ENDBLK
  5
3B
100
AcDbEntity
  8
0
100
AcDbBlockEnd
  0
BLOCK
  5
3D
100
AcDbEntity
  8
0
100
AcDbBlockBegin
  2
_DOT
 70
     0
 10
0.0
 20
0.0
  0
POLYLINE
  5
3E
100
AcDbEntity
  8
0
 62
     0
100
AcDb2dPolyline
 66
     1
 70
     1
 40
0.5
 41
0.5
  0
VERTEX
  5
3F
100
AcDbEntity
  8
0
 62
     0
100
AcDbVertex
100
AcDb2dVertex
 10
-0.25
 20
0.0
 42
1.0
  0
VERTEX
  5
40
100
AcDbEntity
  8
0
 62
     0
100
AcDbVertex
100
AcDb2dVertex
 10
0.25
 20
0.0
 42
1.0
  0
SEQEND
  5
41
100
AcDbEntity
  8
0
 62
     0
  0
LINE
  5
42
100
AcDbEntity
  8
0
 62
     0
100
AcDbLine
 10
-0.5
 20
0.0
 11
-1.0
 21
0.0
  0
ENDBLK
  5
43
100
AcDbEntity
  8
0
100
AcDbBlockEnd
  0
BLOCK
  5
45
100
AcDbEntity
  8
0
100
AcDbBlockBegin
  2
_OBLIQUE
 70
     0
 10
0.0
 20
0.0
  0
LINE
  5
46
100
AcDbEntity
  8
0
 62
     0
100
AcDbLine
 10
-0.353553
 20
-0.353553
 11
0.353553
 21
0.353553
  0
ENDBLK
  5
47
100
AcDbEntity
  8
0
100
AcDbBlockEnd
  0
ENDSEC
  0
SECTION
  2
ENTITIES
  0
LINE
  5
48
100
AcDbEntity
  8
M0
 62
     4
100
AcDbLine
 10
49.297242
 20
251.787028
 11
49.297242
 21
193.145197
  0
LINE
  5
49
100
AcDbEntity
  8
M0
 62
     4
100
AcDbLine
 10
49.297242
 20
193.145197
 11
160.297242
 21
193.145197
  0
LINE
  5
4A
100
AcDbEntity
  8
M0
 62
     4
100
AcDbLine
 10
81.297242
 20
193.145197
 11
81.297242
 21
241.145197
  0
LINE
  5
4B
100
AcDbEntity
  8
M0
 62
     4
100
AcDbLine
 10
113.297242
 20
193.145197
 11
113.297242
 21
241.145197
  0
LINE
  5
4C
100
AcDbEntity
  8
M0
 62
     4
100
AcDbLine
 10
145.297242
 20
193.145197
 11
145.297242
 21
241.145197
  0
LINE
  5
4D
100
AcDbEntity
  8
M0
 62
     4
100
AcDbLine
 10
49.297242
 20
209.145197
 11
160.297242
 21
209.145197
  0
LINE
  5
4E
100
AcDbEntity
  8
M0
 62
     4
100
AcDbLine
 10
49.297242
 20
225.145197
 11
160.297242
 21
225.145197
  0
LINE
  5
4F
100
AcDbEntity
  8
M0
 62
     4
100
AcDbLine
 10
81.297242
 20
241.145197
 11
81.297242
 21
251.787028
  0
LINE
  5
50
100
AcDbEntity
  8
M0
 62
     4
100
AcDbLine
 10
65.297242
 20
193.145197
 11
65.297242
 21
251.787028
  0
LINE
  5
51
100
AcDbEntity
  8
M0
 62
     4
100
AcDbLine
 10
97.297242
 20
193.145197
 11
97.297242
 21
251.787028
  0
LINE
  5
52
100
AcDbEntity
  8
M0
 62
     4
100
AcDbLine
 10
129.297242
 20
193.145197
 11
129.297242
 21
251.787028
  0
LINE
  5
53
100
AcDbEntity
  8
M0
 62
     4
100
AcDbLine
 10
113.297242
 20
250.694043
 11
113.297242
 21
251.787028
  0
LINE
  5
54
100
AcDbEntity
  8
M0
 62
     4
100
AcDbLine
 10
160.297242
 20
241.145197
 11
49.297242
 21
241.145197
  0
TEXT
  5
55
100
AcDbEntity
  8
M0
 62
     4
100
AcDbText
 10
58.547241
 20
172.346733
 40
4.5
  1
※破線部域では６０ｋＰａの圧力変動があります。
 41
0.777778
  7
STANDARD
100
AcDbText
  0
TEXT
  5
56
100
AcDbEntity
  8
M0
 62
     4
100
AcDbText
 10
88.926898
 20
178.69606
 40
5.376
  1
揚水量（Ｌ／分）
 41
0.611111
  7
STANDARD
100
AcDbText
  0
TEXT
  5
57
100
AcDbEntity
  8
M0
 62
     4
100
AcDbText
 10
142.177033
 20
185.103153
 40
4.8
  1
６０
 41
0.611111
  7
STANDARD
100
AcDbText
  0
TEXT
  5
58
100
AcDbEntity
  8
M0
 62
     4
100
AcDbText
 10
126.177033
 20
185.103153
 40
4.8
  1
５０
 41
0.611111
  7
STANDARD
100
AcDbText
  0
TEXT
  5
59
100
AcDbEntity
  8
M0
 62
     4
100
AcDbText
 10
110.177042
 20
185.103153
 40
4.8
  1
４０
 41
0.611111
  7
STANDARD
100
AcDbText
  0
TEXT
  5
5A
100
AcDbEntity
  8
M0
 62
     4
100
AcDbText
 10
94.177042
 20
185.103153
 40
4.8
  1
３０
 41
0.611111
  7
STANDARD
100
AcDbText
  0
TEXT
  5
5B
100
AcDbEntity
  8
M0
 62
     4
100
AcDbText
 10
78.177034
 20
185.103153
 40
4.8
  1
２０
 41
0.611111
  7
STANDARD
100
AcDbText
  0
TEXT
  5
5C
100
AcDbEntity
  8
M0
 62
     4
100
AcDbText
 10
62.177034
 20
185.103153
 40
4.8
  1
１０
 41
0.611111
  7
STANDARD
100
AcDbText
  0
TEXT
  5
5D
100
AcDbEntity
  8
M0
 62
     4
100
AcDbText
 10
46.177034
 20
185.103153
 40
4.8
  1
０
 41
0.611111
  7
STANDARD
100
AcDbText
  0
TEXT
  5
5E
100
AcDbEntity
  8
M0
 62
     4
100
AcDbText
 10
42.977037
 20
190.865161
 40
4.8
  1
０
 41
0.611111
  7
STANDARD
100
AcDbText
  0
TEXT
  5
5F
100
AcDbEntity
  8
M0
 62
     4
100
AcDbText
 10
39.777041
 20
206.865169
 40
4.8
  1
１０
 41
0.611111
  7
STANDARD
100
AcDbText
  0
TEXT
  5
60
100
AcDbEntity
  8
M0
 62
     4
100
AcDbText
 10
39.777041
 20
222.865163
 40
4.8
  1
２０
 41
0.611111
  7
STANDARD
100
AcDbText
  0
ARC
  5
61
100
AcDbEntity
  8
M0
 62
     4
100
AcDbCircle
 10
33.963294
 20
214.002868
 40
5.376
100
AcDbArc
 50
52.58592
 51
127.41408
  0
ARC
  5
62
100
AcDbEntity
  8
M0
 62
     4
100
AcDbCircle
 10
33.963294
 20
217.376839
 40
5.376
100
AcDbArc
 50
232.58592
 51
307.41408
  0
TEXT
  5
63
100
AcDbEntity
  8
M0
 62
     4
100
AcDbText
 10
31.723295
 20
230.071133
 40
3.584
  1
全
 41
1.25
  7
STANDARD
100
AcDbText
  0
TEXT
  5
64
100
AcDbEntity
  8
M0
 62
     4
100
AcDbText
 10
31.723295
 20
226.128733
 40
3.584
  1
揚
 41
1.25
  7
STANDARD
100
AcDbText
  0
TEXT
  5
65
100
AcDbEntity
  8
M0
 62
     4
100
AcDbText
 10
31.723295
 20
222.186333
 40
3.584
  1
程
 41
1.25
  7
STANDARD
100
AcDbText
  0
TEXT
  5
66
100
AcDbEntity
  8
M0
 62
     4
100
AcDbText
 10
31.723295
 20
218.243933
 40
3.584
  1
　
 41
1.25
  7
STANDARD
100
AcDbText
  0
TEXT
  5
67
100
AcDbEntity
  8
M0
 62
     4
100
AcDbText
 10
31.723295
 20
214.301533
 40
3.584
  1
ｍ
 41
1.25
  7
STANDARD
100
AcDbText
  0
TEXT
  5
68
100
AcDbEntity
  8
M0
 62
     4
100
AcDbText
 10
39.777041
 20
238.865164
 40
4.8
  1
３０
 41
0.611111
  7
STANDARD
100
AcDbText
  0
LINE
  5
69
100
AcDbEntity
  8
M0
 62
     4
100
AcDbLine
 10
59.819186
 20
257.513196
 11
59.819188
 21
263.273196
  0
LINE
  5
6A
100
AcDbEntity
  8
M0
 62
     4
100
AcDbLine
 10
59.819188
 20
263.273196
 11
84.379191
 21
263.273196
  0
LINE
  5
6B
100
AcDbEntity
  8
M0
 62
     4
100
AcDbLine
 10
84.379191
 20
263.273196
 11
84.379189
 21
257.513196
  0
LINE
  5
6C
100
AcDbEntity
  8
M0
 62
     4
100
AcDbLine
 10
84.379189
 20
257.513196
 11
59.819186
 21
257.513196
  0
TEXT
  5
6D
100
AcDbEntity
  8
M0
 62
     4
100
AcDbText
 10
60.48252
 20
257.993196
 40
4.8
  1
　浅井戸配管　　　標準ジェット（Ｊ４０－６Ｗ）使用時
 41
0.590278
  7
STANDARD
100
AcDbText
  0
TEXT
  5
6E
100
AcDbEntity
  8
M0
 62
     4
100
AcDbText
 10
132.365506
 20
246.029779
 40
4.8
  1
吸込管径：３０ｍｍ
 41
0.590278
  7
STANDARD
100
AcDbText
  0
TEXT
  5
6F
100
AcDbEntity
  8
M0
 62
     4
100
AcDbText
 10
101.680575
 20
243.838594
 40
4.8
  1
吸上高さ６ｍ時
 41
0.590278
  7
STANDARD
100
AcDbText
  0
LINE
  5
70
100
AcDbEntity
  8
M0
 62
   114
100
AcDbLine
 10
198.463421
 20
146.937952
 11
270.463421
 21
146.937952
  0
LINE
  5
71
100
AcDbEntity
  8
M0
 62
   114
100
AcDbLine
 10
198.463421
 20
66.937952
 11
270.463421
 21
66.937952
  0
LINE
  5
72
100
AcDbEntity
  8
M0
 62
   114
100
AcDbLine
 10
230.463421
 20
66.937952
 11
230.463421
 21
130.937952
  0
LINE
  5
73
100
AcDbEntity
  8
M0
 62
   114
100
AcDbLine
 10
262.463421
 20
66.937952
 11
262.463421
 21
146.937952
  0
LINE
  5
74
100
AcDbEntity
  8
M0
 62
   114
100
AcDbLine
 10
198.463421
 20
82.937952
 11
270.463421
 21
82.937952
  0
LINE
  5
75
100
AcDbEntity
  8
M0
 62
   114
100
AcDbLine
 10
198.463421
 20
98.937952
 11
270.463421
 21
98.937952
  0
LINE
  5
76
100
AcDbEntity
  8
M0
 62
   114
100
AcDbLine
 10
230.463421
 20
140.273272
 11
230.463421
 21
146.937952
  0
LINE
  5
77
100
AcDbEntity
  8
M0
 62
   114
100
AcDbLine
 10
214.463421
 20
66.937952
 11
214.463421
 21
158.525532
  0
LINE
  5
78
100
AcDbEntity
  8
M0
 62
   114
100
AcDbLine
 10
246.463421
 20
66.937952
 11
246.463421
 21
130.937952
  0
LINE
  5
79
100
AcDbEntity
  8
M0
 62
   114
100
AcDbLine
 10
198.463421
 20
130.937952
 11
270.463421
 21
130.937952
  0
LINE
  5
7A
100
AcDbEntity
  8
M0
 62
   114
100
AcDbLine
 10
198.463421
 20
114.937952
 11
270.463421
 21
114.937952
  0
LINE
  5
7B
100
AcDbEntity
  8
M0
 62
   114
100
AcDbLine
 10
198.463421
 20
158.525532
 11
198.463421
 21
66.937952
  0
ARC
  5
7C
100
AcDbEntity
  8
M0
 62
   114
100
AcDbCircle
 10
181.742822
 20
98.82121
 40
5.376
100
AcDbArc
 50
52.58592
 51
127.41408
  0
ARC
  5
7D
100
AcDbEntity
  8
M0
 62
   114
100
AcDbCircle
 10
181.742822
 20
102.19518
 40
5.376
100
AcDbArc
 50
232.58592
 51
307.41408
  0
TEXT
  5
7E
100
AcDbEntity
  8
M0
 62
   114
100
AcDbText
 10
179.502825
 20
114.889471
 40
3.584
  1
全
 41
1.25
  7
STANDARD
100
AcDbText
  0
TEXT
  5
7F
100
AcDbEntity
  8
M0
 62
   114
100
AcDbText
 10
179.502825
 20
110.947071
 40
3.584
  1
揚
 41
1.25
  7
STANDARD
100
AcDbText
  0
TEXT
  5
80
100
AcDbEntity
  8
M0
 62
   114
100
AcDbText
 10
179.502825
 20
107.004671
 40
3.584
  1
程
 41
1.25
  7
STANDARD
100
AcDbText
  0
TEXT
  5
81
100
AcDbEntity
  8
M0
 62
   114
100
AcDbText
 10
179.502825
 20
103.062271
 40
3.584
  1
　
 41
1.25
  7
STANDARD
100
AcDbText
  0
TEXT
  5
82
100
AcDbEntity
  8
M0
 62
   114
100
AcDbText
 10
179.502825
 20
99.119871
 40
3.584
  1
ｍ
 41
1.25
  7
STANDARD
100
AcDbText
  0
TEXT
  5
83
100
AcDbEntity
  8
M0
 62
   114
100
AcDbText
 10
188.943221
 20
112.657923
 40
4.8
  1
３０
 41
0.611111
  7
STANDARD
100
AcDbText
  0
TEXT
  5
84
100
AcDbEntity
  8
M0
 62
   114
100
AcDbText
 10
188.943221
 20
96.657923
 40
4.8
  1
２０
 41
0.611111
  7
STANDARD
100
AcDbText
  0
TEXT
  5
85
100
AcDbEntity
  8
M0
 62
   114
100
AcDbText
 10
188.943221
 20
80.657923
 40
4.8
  1
１０
 41
0.611111
  7
STANDARD
100
AcDbText
  0
TEXT
  5
86
100
AcDbEntity
  8
M0
 62
   114
100
AcDbText
 10
192.143217
 20
64.657923
 40
4.8
  1
０
 41
0.611111
  7
STANDARD
100
AcDbText
  0
TEXT
  5
87
100
AcDbEntity
  8
M0
 62
   114
100
AcDbText
 10
195.343222
 20
58.895914
 40
4.8
  1
０
 41
0.611111
  7
STANDARD
100
AcDbText
  0
TEXT
  5
88
100
AcDbEntity
  8
M0
 62
   114
100
AcDbText
 10
227.343207
 20
58.895914
 40
4.8
  1
２０
 41
0.611111
  7
STANDARD
100
AcDbText
  0
TEXT
  5
89
100
AcDbEntity
  8
M0
 62
   114
100
AcDbText
 10
259.343222
 20
58.895914
 40
4.8
  1
４０
 41
0.611111
  7
STANDARD
100
AcDbText
  0
TEXT
  5
8A
100
AcDbEntity
  8
M0
 62
   114
100
AcDbText
 10
222.398838
 20
53.31949
 40
5.376
  1
揚水量（Ｌ／分）
 41
0.611111
  7
STANDARD
100
AcDbText
  0
TEXT
  5
8B
100
AcDbEntity
  8
M0
 62
   114
100
AcDbText
 10
211.343222
 20
58.895914
 40
4.8
  1
１０
 41
0.611111
  7
STANDARD
100
AcDbText
  0
TEXT
  5
8C
100
AcDbEntity
  8
M0
 62
   114
100
AcDbText
 10
243.343222
 20
58.895914
 40
4.8
  1
３０
 41
0.611111
  7
STANDARD
100
AcDbText
  0
TEXT
  5
8D
100
AcDbEntity
  8
M0
 62
   114
100
AcDbText
 10
188.943221
 20
128.657923
 40
4.8
  1
４０
 41
0.611111
  7
STANDARD
100
AcDbText
  0
TEXT
  5
8E
100
AcDbEntity
  8
M0
 62
   114
100
AcDbText
 10
188.943221
 20
144.657923
 40
4.8
  1
５０
 41
0.611111
  7
STANDARD
100
AcDbText
  0
LINE
  5
8F
100
AcDbEntity
  8
M0
 62
   114
100
AcDbLine
 10
246.463421
 20
140.273272
 11
246.463421
 21
158.525532
  0
LINE
  5
90
100
AcDbEntity
  8
M0
 62
   114
100
AcDbLine
 10
230.463421
 20
155.268833
 11
230.463421
 21
158.525532
  0
TEXT
  5
91
100
AcDbEntity
  8
M0
 62
   114
100
AcDbText
 10
192.11343
 20
44.951525
 40
4.5
  1
※破線部域では６０ｋＰａの圧力変動があります。
 41
0.777778
  7
STANDARD
100
AcDbText
  0
TEXT
  5
92
100
AcDbEntity
  8
M0
 62
   114
100
AcDbText
 10
228.347354
 20
133.067184
 40
4.8
  1
吸上高さ２４ｍ時
 41
0.590278
  7
STANDARD
100
AcDbText
  0
TEXT
  5
93
100
AcDbEntity
  8
M0
 62
   114
100
AcDbText
 10
218.204316
 20
148.394399
 40
4.8
  1
吸上高さ３０ｍ時
 41
0.590278
  7
STANDARD
100
AcDbText
  0
LINE
  5
94
100
AcDbEntity
  8
M0
 62
   114
100
AcDbLine
 10
178.870758
 20
162.112144
 11
178.870759
 21
167.872144
  0
LINE
  5
95
100
AcDbEntity
  8
M0
 62
   114
100
AcDbLine
 10
178.870759
 20
167.872144
 11
196.630759
 21
167.872144
  0
LINE
  5
96
100
AcDbEntity
  8
M0
 62
   114
100
AcDbLine
 10
196.630759
 20
167.872144
 11
196.630757
 21
162.112144
  0
LINE
  5
97
100
AcDbEntity
  8
M0
 62
   114
100
AcDbLine
 10
196.630757
 20
162.112144
 11
178.870758
 21
162.112144
  0
TEXT
  5
98
100
AcDbEntity
  8
M0
 62
   114
100
AcDbText
 10
179.534091
 20
162.592144
 40
4.8
  1
　深井戸　　　専用ジェット（Ｊ７５－３５Ｗ）使用時
 41
0.590278
  7
STANDARD
100
AcDbText
  0
TEXT
  5
99
100
AcDbEntity
  8
M0
 62
   114
100
AcDbText
 10
251.378555
 20
150.867705
 40
4.8
  1
圧力管径：３０ｍｍ
 41
0.590278
  7
STANDARD
100
AcDbText
  0
TEXT
  5
9A
100
AcDbEntity
  8
M0
 62
   114
100
AcDbText
 10
251.378555
 20
156.861129
 40
4.8
  1
吸込管径：３０ｍｍ
 41
0.590278
  7
STANDARD
100
AcDbText
  0
LINE
  5
9B
100
AcDbEntity
  8
M0
  6
DASHED
 62
   253
100
AcDbLine
 10
49.297242
 20
241.145197
 11
94.103085
 21
241.145197
  0
LINE
  5
9C
100
AcDbEntity
  8
M0
 62
   253
100
AcDbLine
 10
97.371973
 20
239.928631
 11
140.408352
 21
202.745197
  0
ARC
  5
9D
100
AcDbEntity
  8
M0
 62
   253
100
AcDbCircle
 10
94.103085
 20
236.145197
 40
5.0
100
AcDbArc
 50
49.172983
 51
90.0
  0
LINE
  5
9E
100
AcDbEntity
  8
M0
 62
     2
100
AcDbLine
 10
216.063094
 20
132.364968
 11
215.191744
 21
114.937952
  0
ARC
  5
9F
100
AcDbEntity
  8
M0
 62
     2
100
AcDbCircle
 10
214.26534
 20
132.454855
 40
1.8
100
AcDbArc
 50
357.137595
 51
368.130102
  0
LINE
  5
A0
100
AcDbEntity
  8
M0
 62
     2
100
AcDbLine
 10
213.54187
 20
150.247069
 11
216.047249
 21
132.709414
  0
LINE
  5
A1
100
AcDbEntity
  8
M0
  6
DASHED
 62
     2
100
AcDbLine
 10
198.463421
 20
153.337952
 11
209.978052
 21
153.337952
  0
ARC
  5
A2
100
AcDbEntity
  8
M0
 62
     2
100
AcDbCircle
 10
209.978052
 20
149.737952
 40
3.6
100
AcDbArc
 50
8.130102
 51
90.0
  0
LINE
  5
A3
100
AcDbEntity
  8
M0
 62
     6
100
AcDbLine
 10
313.725213
 20
140.539614
 11
385.725213
 21
140.539614
  0
LINE
  5
A4
100
AcDbEntity
  8
M0
 62
     6
100
AcDbLine
 10
313.725213
 20
228.539614
 11
313.725213
 21
140.539614
  0
LINE
  5
A5
100
AcDbEntity
  8
M0
 62
     6
100
AcDbLine
 10
345.725213
 20
140.539614
 11
345.725213
 21
188.539614
  0
LINE
  5
A6
100
AcDbEntity
  8
M0
 62
     6
100
AcDbLine
 10
377.725213
 20
140.539614
 11
377.725213
 21
188.539614
  0
LINE
  5
A7
100
AcDbEntity
  8
M0
 62
     6
100
AcDbLine
 10
313.725213
 20
156.539614
 11
385.725213
 21
156.539614
  0
LINE
  5
A8
100
AcDbEntity
  8
M0
 62
     6
100
AcDbLine
 10
313.725213
 20
172.539614
 11
385.725213
 21
172.539614
  0
LINE
  5
A9
100
AcDbEntity
  8
M0
 62
     6
100
AcDbLine
 10
345.725213
 20
188.539614
 11
345.725213
 21
211.053931
  0
LINE
  5
AA
100
AcDbEntity
  8
M0
 62
     6
100
AcDbLine
 10
329.725213
 20
140.539614
 11
329.725213
 21
228.539614
  0
LINE
  5
AB
100
AcDbEntity
  8
M0
 62
     6
100
AcDbLine
 10
361.725213
 20
140.539614
 11
361.725213
 21
188.539614
  0
LINE
  5
AC
100
AcDbEntity
  8
M0
 62
     6
100
AcDbLine
 10
313.725213
 20
204.539614
 11
385.725213
 21
204.539614
  0
LINE
  5
AD
100
AcDbEntity
  8
M0
 62
     6
100
AcDbLine
 10
313.725213
 20
188.539614
 11
385.725213
 21
188.539614
  0
LINE
  5
AE
100
AcDbEntity
  8
M0
 62
     6
100
AcDbLine
 10
313.725213
 20
220.539614
 11
385.725213
 21
220.539614
  0
ARC
  5
AF
100
AcDbEntity
  8
M0
 62
     6
100
AcDbCircle
 10
298.16939
 20
168.818113
 40
5.376
100
AcDbArc
 50
52.58592
 51
127.41408
  0
ARC
  5
B0
100
AcDbEntity
  8
M0
 62
     6
100
AcDbCircle
 10
298.16939
 20
172.192083
 40
5.376
100
AcDbArc
 50
232.58592
 51
307.41408
  0
TEXT
  5
B1
100
AcDbEntity
  8
M0
 62
     6
100
AcDbText
 10
295.929392
 20
184.886381
 40
3.584
  1
全
 41
1.25
  7
STANDARD
100
AcDbText
  0
TEXT
  5
B2
100
AcDbEntity
  8
M0
 62
     6
100
AcDbText
 10
295.929392
 20
180.943981
 40
3.584
  1
揚
 41
1.25
  7
STANDARD
100
AcDbText
  0
TEXT
  5
B3
100
AcDbEntity
  8
M0
 62
     6
100
AcDbText
 10
295.929392
 20
177.001581
 40
3.584
  1
程
 41
1.25
  7
STANDARD
100
AcDbText
  0
TEXT
  5
B4
100
AcDbEntity
  8
M0
 62
     6
100
AcDbText
 10
295.929392
 20
173.059181
 40
3.584
  1
　
 41
1.25
  7
STANDARD
100
AcDbText
  0
TEXT
  5
B5
100
AcDbEntity
  8
M0
 62
     6
100
AcDbText
 10
295.929392
 20
169.116781
 40
3.584
  1
ｍ
 41
1.25
  7
STANDARD
100
AcDbText
  0
TEXT
  5
B6
100
AcDbEntity
  8
M0
 62
     6
100
AcDbText
 10
304.205008
 20
186.259581
 40
4.8
  1
３０
 41
0.611111
  7
STANDARD
100
AcDbText
  0
TEXT
  5
B7
100
AcDbEntity
  8
M0
 62
     6
100
AcDbText
 10
304.205008
 20
170.259579
 40
4.8
  1
２０
 41
0.611111
  7
STANDARD
100
AcDbText
  0
TEXT
  5
B8
100
AcDbEntity
  8
M0
 62
     6
100
AcDbText
 10
304.205008
 20
154.259587
 40
4.8
  1
１０
 41
0.611111
  7
STANDARD
100
AcDbText
  0
TEXT
  5
B9
100
AcDbEntity
  8
M0
 62
     6
100
AcDbText
 10
307.405005
 20
138.259581
 40
4.8
  1
０
 41
0.611111
  7
STANDARD
100
AcDbText
  0
TEXT
  5
BA
100
AcDbEntity
  8
M0
 62
     6
100
AcDbText
 10
310.605018
 20
132.497572
 40
4.8
  1
０
 41
0.611111
  7
STANDARD
100
AcDbText
  0
TEXT
  5
BB
100
AcDbEntity
  8
M0
 62
     6
100
AcDbText
 10
342.604987
 20
132.497572
 40
4.8
  1
２０
 41
0.611111
  7
STANDARD
100
AcDbText
  0
TEXT
  5
BC
100
AcDbEntity
  8
M0
 62
     6
100
AcDbText
 10
374.605019
 20
132.497572
 40
4.8
  1
４０
 41
0.611111
  7
STANDARD
100
AcDbText
  0
TEXT
  5
BD
100
AcDbEntity
  8
M0
 62
     6
100
AcDbText
 10
336.990556
 20
125.174505
 40
5.376
  1
揚水量（Ｌ／分）
 41
0.611111
  7
STANDARD
100
AcDbText
  0
TEXT
  5
BE
100
AcDbEntity
  8
M0
 62
     6
100
AcDbText
 10
326.605018
 20
132.497572
 40
4.8
  1
１０
 41
0.611111
  7
STANDARD
100
AcDbText
  0
TEXT
  5
BF
100
AcDbEntity
  8
M0
 62
     6
100
AcDbText
 10
358.605018
 20
132.497572
 40
4.8
  1
３０
 41
0.611111
  7
STANDARD
100
AcDbText
  0
TEXT
  5
C0
100
AcDbEntity
  8
M0
 62
     6
100
AcDbText
 10
304.205008
 20
202.259585
 40
4.8
  1
４０
 41
0.611111
  7
STANDARD
100
AcDbText
  0
TEXT
  5
C1
100
AcDbEntity
  8
M0
 62
     6
100
AcDbText
 10
304.205008
 20
218.259585
 40
4.8
  1
５０
 41
0.611111
  7
STANDARD
100
AcDbText
  0
LINE
  5
C2
100
AcDbEntity
  8
M0
 62
     6
100
AcDbLine
 10
345.725213
 20
218.439372
 11
345.725213
 21
228.539614
  0
LINE
  5
C3
100
AcDbEntity
  8
M0
 62
     6
100
AcDbLine
 10
361.725213
 20
188.539614
 11
361.725213
 21
228.539614
  0
LINE
  5
C4
100
AcDbEntity
  8
M0
 62
     6
100
AcDbLine
 10
377.725213
 20
188.539614
 11
377.725213
 21
220.539614
  0
TEXT
  5
C5
100
AcDbEntity
  8
M0
 62
     6
100
AcDbText
 10
308.975213
 20
120.029883
 40
4.5
  1
※破線部域では６０ｋＰａの圧力変動があります。
 41
0.777778
  7
STANDARD
100
AcDbText
  0
TEXT
  5
C6
100
AcDbEntity
  8
M0
 62
     6
100
AcDbText
 10
331.508546
 20
212.363878
 40
4.8
  1
吸上高さ２４ｍ時
 41
0.590278
  7
STANDARD
100
AcDbText
  0
TEXT
  5
C7
100
AcDbEntity
  8
M0
 62
     6
100
AcDbText
 10
366.330824
 20
221.789259
 40
4.8
  1
吸込管径：３０ｍｍ
 41
0.590278
  7
STANDARD
100
AcDbText
  0
LINE
  5
C8
100
AcDbEntity
  8
M0
 62
     6
100
AcDbLine
 10
293.577044
 20
234.359556
 11
293.577045
 21
240.119556
  0
LINE
  5
C9
100
AcDbEntity
  8
M0
 62
     6
100
AcDbLine
 10
293.577045
 20
240.119556
 11
311.337045
 21
240.119556
  0
LINE
  5
CA
100
AcDbEntity
  8
M0
 62
     6
100
AcDbLine
 10
311.337045
 20
240.119556
 11
311.337043
 21
234.359556
  0
LINE
  5
CB
100
AcDbEntity
  8
M0
 62
     6
100
AcDbLine
 10
311.337043
 20
234.359556
 11
293.577044
 21
234.359556
  0
TEXT
  5
CC
100
AcDbEntity
  8
M0
 62
     6
100
AcDbText
 10
294.240377
 20
234.839556
 40
4.8
  1
　深井戸　　　シングルジェット（Ｊ４０－２４ＳＷ）使用時
 41
0.590278
  7
STANDARD
100
AcDbText
  0
LINE
  5
CD
100
AcDbEntity
  8
M0
  6
DASHED
 62
   114
100
AcDbLine
 10
49.297242
 20
122.06984
 11
96.594273
 21
122.06984
  0
LINE
  5
CE
100
AcDbEntity
  8
M0
 62
   114
100
AcDbLine
 10
113.297242
 20
93.697072
 11
113.297242
 21
84.308197
  0
ARC
  5
CF
100
AcDbEntity
  8
M0
 62
   114
100
AcDbCircle
 10
116.177242
 20
84.308197
 40
2.88
100
AcDbArc
 50
180.0
 51
189.462333
  0
LINE
  5
D0
100
AcDbEntity
  8
M0
 62
   114
100
AcDbLine
 10
101.065139
 20
119.308446
 11
112.768108
 21
95.935678
  0
ARC
  5
D1
100
AcDbEntity
  8
M0
 62
   114
100
AcDbCircle
 10
96.594273
 20
117.06984
 40
5.0
100
AcDbArc
 50
26.597568
 51
90.0
  0
ARC
  5
D2
100
AcDbEntity
  8
M0
 62
   114
100
AcDbCircle
 10
108.297242
 20
93.697072
 40
5.0
100
AcDbArc
 50
0.0
 51
26.597568
  0
LINE
  5
D3
100
AcDbEntity
  8
M0
100
AcDbLine
 10
32.088442
 20
266.922342
 11
55.472849
 21
266.922342
  0
TEXT
  5
D4
100
AcDbEntity
  8
M0
100
AcDbText
 10
34.530191
 20
268.936946
 40
5.4
  1
揚水性能
 41
0.740741
  7
STANDARD
100
AcDbText
  0
LINE
  5
D5
100
AcDbEntity
  8
M0
100
AcDbLine
 10
55.472849
 20
276.454271
 11
55.472849
 21
266.922342
  0
LINE
  5
D6
100
AcDbEntity
  8
M0
100
AcDbLine
 10
55.472849
 20
276.454271
 11
32.088442
 21
276.454271
  0
LINE
  5
D7
100
AcDbEntity
  8
M0
100
AcDbLine
 10
32.088442
 20
276.454271
 11
32.088442
 21
266.922342
  0
LINE
  5
D8
100
AcDbEntity
  8
M0
 62
     2
100
AcDbLine
 10
49.297242
 20
64.46984
 11
160.297242
 21
64.46984
  0
LINE
  5
D9
100
AcDbEntity
  8
M0
 62
     2
100
AcDbLine
 10
49.297242
 20
134.770517
 11
49.297242
 21
64.46984
  0
LINE
  5
DA
100
AcDbEntity
  8
M0
 62
     2
100
AcDbLine
 10
81.297242
 20
64.46984
 11
81.297242
 21
112.46984
  0
LINE
  5
DB
100
AcDbEntity
  8
M0
 62
     2
100
AcDbLine
 10
113.297242
 20
64.46984
 11
113.297242
 21
123.452269
  0
LINE
  5
DC
100
AcDbEntity
  8
M0
 62
     2
100
AcDbLine
 10
145.297242
 20
64.46984
 11
145.297242
 21
128.46984
  0
LINE
  5
DD
100
AcDbEntity
  8
M0
 62
     2
100
AcDbLine
 10
49.297242
 20
80.46984
 11
160.297242
 21
80.46984
  0
LINE
  5
DE
100
AcDbEntity
  8
M0
 62
     2
100
AcDbLine
 10
49.297242
 20
96.46984
 11
160.297242
 21
96.46984
  0
LINE
  5
DF
100
AcDbEntity
  8
M0
 62
     2
100
AcDbLine
 10
81.297242
 20
112.46984
 11
81.297242
 21
134.770517
  0
LINE
  5
E0
100
AcDbEntity
  8
M0
 62
     2
100
AcDbLine
 10
65.297242
 20
64.46984
 11
65.297242
 21
134.770517
  0
LINE
  5
E1
100
AcDbEntity
  8
M0
 62
     2
100
AcDbLine
 10
97.297242
 20
64.46984
 11
97.297242
 21
134.770517
  0
LINE
  5
E2
100
AcDbEntity
  8
M0
 62
     2
100
AcDbLine
 10
129.297242
 20
64.46984
 11
129.297242
 21
134.770517
  0
LINE
  5
E3
100
AcDbEntity
  8
M0
 62
     2
100
AcDbLine
 10
49.297242
 20
128.46984
 11
97.297242
 21
128.46984
  0
LINE
  5
E4
100
AcDbEntity
  8
M0
 62
     2
100
AcDbLine
 10
49.297242
 20
112.46984
 11
160.297242
 21
112.46984
  0
ARC
  5
E5
100
AcDbEntity
  8
M0
 62
     2
100
AcDbCircle
 10
32.633819
 20
98.113386
 40
5.376
100
AcDbArc
 50
52.58592
 51
127.41408
  0
ARC
  5
E6
100
AcDbEntity
  8
M0
 62
     2
100
AcDbCircle
 10
32.633819
 20
101.487356
 40
5.376
100
AcDbArc
 50
232.58592
 51
307.41408
  0
TEXT
  5
E7
100
AcDbEntity
  8
M0
 62
     2
100
AcDbText
 10
30.393805
 20
114.181658
 40
3.584
  1
全
 41
1.25
  7
STANDARD
100
AcDbText
  0
TEXT
  5
E8
100
AcDbEntity
  8
M0
 62
     2
100
AcDbText
 10
30.393805
 20
110.239259
 40
3.584
  1
揚
 41
1.25
  7
STANDARD
100
AcDbText
  0
TEXT
  5
E9
100
AcDbEntity
  8
M0
 62
     2
100
AcDbText
 10
30.393805
 20
106.296859
 40
3.584
  1
程
 41
1.25
  7
STANDARD
100
AcDbText
  0
TEXT
  5
EA
100
AcDbEntity
  8
M0
 62
     2
100
AcDbText
 10
30.393805
 20
102.354459
 40
3.584
  1
　
 41
1.25
  7
STANDARD
100
AcDbText
  0
TEXT
  5
EB
100
AcDbEntity
  8
M0
 62
     2
100
AcDbText
 10
30.393805
 20
98.412059
 40
3.584
  1
ｍ
 41
1.25
  7
STANDARD
100
AcDbText
  0
TEXT
  5
EC
100
AcDbEntity
  8
M0
 62
     2
100
AcDbText
 10
39.777041
 20
110.189811
 40
4.8
  1
３０
 41
0.611111
  7
STANDARD
100
AcDbText
  0
TEXT
  5
ED
100
AcDbEntity
  8
M0
 62
     2
100
AcDbText
 10
39.777041
 20
94.189809
 40
4.8
  1
２０
 41
0.611111
  7
STANDARD
100
AcDbText
  0
TEXT
  5
EE
100
AcDbEntity
  8
M0
 62
     2
100
AcDbText
 10
39.777041
 20
78.189809
 40
4.8
  1
１０
 41
0.611111
  7
STANDARD
100
AcDbText
  0
TEXT
  5
EF
100
AcDbEntity
  8
M0
 62
     2
100
AcDbText
 10
42.977038
 20
62.189809
 40
4.8
  1
０
 41
0.611111
  7
STANDARD
100
AcDbText
  0
TEXT
  5
F0
100
AcDbEntity
  8
M0
 62
     2
100
AcDbText
 10
46.177035
 20
56.4278
 40
4.8
  1
０
 41
0.611111
  7
STANDARD
100
AcDbText
  0
TEXT
  5
F1
100
AcDbEntity
  8
M0
 62
     2
100
AcDbText
 10
78.177035
 20
56.4278
 40
4.8
  1
２０
 41
0.611111
  7
STANDARD
100
AcDbText
  0
TEXT
  5
F2
100
AcDbEntity
  8
M0
 62
     2
100
AcDbText
 10
110.177043
 20
56.4278
 40
4.8
  1
４０
 41
0.611111
  7
STANDARD
100
AcDbText
  0
TEXT
  5
F3
100
AcDbEntity
  8
M0
 62
     2
100
AcDbText
 10
88.926899
 20
50.394792
 40
5.376
  1
揚水量（Ｌ／分）
 41
0.611111
  7
STANDARD
100
AcDbText
  0
TEXT
  5
F4
100
AcDbEntity
  8
M0
 62
     2
100
AcDbText
 10
142.177039
 20
56.4278
 40
4.8
  1
６０
 41
0.611111
  7
STANDARD
100
AcDbText
  0
TEXT
  5
F5
100
AcDbEntity
  8
M0
 62
     2
100
AcDbText
 10
62.177035
 20
56.4278
 40
4.8
  1
１０
 41
0.611111
  7
STANDARD
100
AcDbText
  0
TEXT
  5
F6
100
AcDbEntity
  8
M0
 62
     2
100
AcDbText
 10
94.177043
 20
56.4278
 40
4.8
  1
３０
 41
0.611111
  7
STANDARD
100
AcDbText
  0
TEXT
  5
F7
100
AcDbEntity
  8
M0
 62
     2
100
AcDbText
 10
126.177035
 20
56.4278
 40
4.8
  1
５０
 41
0.611111
  7
STANDARD
100
AcDbText
  0
TEXT
  5
F8
100
AcDbEntity
  8
M0
 62
     2
100
AcDbText
 10
39.777041
 20
126.189811
 40
4.8
  1
４０
 41
0.611111
  7
STANDARD
100
AcDbText
  0
LINE
  5
F9
100
AcDbEntity
  8
M0
 62
     2
100
AcDbLine
 10
113.297242
 20
133.513768
 11
113.297242
 21
134.770517
  0
LINE
  5
FA
100
AcDbEntity
  8
M0
 62
     2
100
AcDbLine
 10
129.297242
 20
128.46984
 11
160.297242
 21
128.46984
  0
TEXT
  5
FB
100
AcDbEntity
  8
M0
 62
     2
100
AcDbText
 10
58.547242
 20
43.192632
 40
4.5
  1
※破線部域では６０ｋＰａの圧力変動があります。
 41
0.777778
  7
STANDARD
100
AcDbText
  0
TEXT
  5
FC
100
AcDbEntity
  8
M0
 62
     2
100
AcDbText
 10
100.52552
 20
126.426959
 40
4.8
  1
吸上高さ１２ｍ時
 41
0.590278
  7
STANDARD
100
AcDbText
  0
LINE
  5
FD
100
AcDbEntity
  8
M0
 62
     2
100
AcDbLine
 10
60.774166
 20
143.592875
 11
60.774168
 21
149.352875
  0
LINE
  5
FE
100
AcDbEntity
  8
M0
 62
     2
100
AcDbLine
 10
60.774168
 20
149.352875
 11
85.33417
 21
149.352875
  0
LINE
  5
FF
100
AcDbEntity
  8
M0
 62
     2
100
AcDbLine
 10
85.33417
 20
149.352875
 11
85.334169
 21
143.592875
  0
LINE
  5
100
100
AcDbEntity
  8
M0
 62
     2
100
AcDbLine
 10
85.334169
 20
143.592875
 11
60.774166
 21
143.592875
  0
TEXT
  5
101
100
AcDbEntity
  8
M0
 62
     2
100
AcDbText
 10
61.4375
 20
144.072875
 40
4.8
  1
　深井戸配管　　　標準ジェット（Ｊ４０－６Ｗ）使用時
 41
0.590278
  7
STANDARD
100
AcDbText
  0
TEXT
  5
102
100
AcDbEntity
  8
M0
 62
     2
100
AcDbText
 10
134.212375
 20
133.51377
 40
4.8
  1
圧力管径：２５ｍｍ
 41
0.590278
  7
STANDARD
100
AcDbText
  0
TEXT
  5
103
100
AcDbEntity
  8
M0
 62
     2
100
AcDbText
 10
134.212375
 20
139.007194
 40
4.8
  1
吸込管径：３０ｍｍ
 41
0.590278
  7
STANDARD
100
AcDbText
  0
LINE
  5
104
100
AcDbEntity
  8
M0
100
AcDbLine
 10
198.463421
 20
193.145197
 11
270.463421
 21
193.145197
  0
LINE
  5
105
100
AcDbEntity
  8
M0
100
AcDbLine
 10
198.463421
 20
265.443631
 11
198.463421
 21
193.145197
  0
LINE
  5
106
100
AcDbEntity
  8
M0
100
AcDbLine
 10
230.463421
 20
193.145197
 11
230.463421
 21
241.145197
  0
LINE
  5
107
100
AcDbEntity
  8
M0
100
AcDbLine
 10
262.463421
 20
193.145197
 11
262.463421
 21
257.145197
  0
LINE
  5
108
100
AcDbEntity
  8
M0
100
AcDbLine
 10
198.463421
 20
209.145197
 11
270.463421
 21
209.145197
  0
LINE
  5
109
100
AcDbEntity
  8
M0
100
AcDbLine
 10
198.463421
 20
225.145197
 11
270.463421
 21
225.145197
  0
LINE
  5
10A
100
AcDbEntity
  8
M0
100
AcDbLine
 10
230.463421
 20
241.145197
 11
230.463421
 21
265.443631
  0
LINE
  5
10B
100
AcDbEntity
  8
M0
100
AcDbLine
 10
214.463421
 20
193.145197
 11
214.463421
 21
265.443631
  0
LINE
  5
10C
100
AcDbEntity
  8
M0
100
AcDbLine
 10
246.463421
 20
193.145197
 11
246.463421
 21
250.921073
  0
LINE
  5
10D
100
AcDbEntity
  8
M0
100
AcDbLine
 10
198.463421
 20
257.145197
 11
230.463421
 21
257.145197
  0
LINE
  5
10E
100
AcDbEntity
  8
M0
100
AcDbLine
 10
198.463421
 20
241.145197
 11
270.463421
 21
241.145197
  0
ARC
  5
10F
100
AcDbEntity
  8
M0
100
AcDbCircle
 10
182.811481
 20
223.344904
 40
5.376
100
AcDbArc
 50
52.58592
 51
127.41408
  0
ARC
  5
110
100
AcDbEntity
  8
M0
100
AcDbCircle
 10
182.811481
 20
226.718875
 40
5.376
100
AcDbArc
 50
232.58592
 51
307.41408
  0
TEXT
  5
111
100
AcDbEntity
  8
M0
100
AcDbText
 10
180.571474
 20
239.413167
 40
3.584
  1
全
 41
1.25
  7
STANDARD
100
AcDbText
  0
TEXT
  5
112
100
AcDbEntity
  8
M0
100
AcDbText
 10
180.571474
 20
235.470767
 40
3.584
  1
揚
 41
1.25
  7
STANDARD
100
AcDbText
  0
TEXT
  5
113
100
AcDbEntity
  8
M0
100
AcDbText
 10
180.571474
 20
231.528368
 40
3.584
  1
程
 41
1.25
  7
STANDARD
100
AcDbText
  0
TEXT
  5
114
100
AcDbEntity
  8
M0
100
AcDbText
 10
180.571474
 20
227.585968
 40
3.584
  1
　
 41
1.25
  7
STANDARD
100
AcDbText
  0
TEXT
  5
115
100
AcDbEntity
  8
M0
100
AcDbText
 10
180.571474
 20
223.643568
 40
3.584
  1
ｍ
 41
1.25
  7
STANDARD
100
AcDbText
  0
TEXT
  5
116
100
AcDbEntity
  8
M0
100
AcDbText
 10
188.943221
 20
238.865163
 40
4.8
  1
３０
 41
0.611111
  7
STANDARD
100
AcDbText
  0
TEXT
  5
117
100
AcDbEntity
  8
M0
100
AcDbText
 10
188.943221
 20
222.865167
 40
4.8
  1
２０
 41
0.611111
  7
STANDARD
100
AcDbText
  0
TEXT
  5
118
100
AcDbEntity
  8
M0
100
AcDbText
 10
188.943221
 20
206.865163
 40
4.8
  1
１０
 41
0.611111
  7
STANDARD
100
AcDbText
  0
TEXT
  5
119
100
AcDbEntity
  8
M0
100
AcDbText
 10
192.143217
 20
190.865164
 40
4.8
  1
０
 41
0.611111
  7
STANDARD
100
AcDbText
  0
TEXT
  5
11A
100
AcDbEntity
  8
M0
100
AcDbText
 10
195.343214
 20
185.103156
 40
4.8
  1
０
 41
0.611111
  7
STANDARD
100
AcDbText
  0
TEXT
  5
11B
100
AcDbEntity
  8
M0
100
AcDbText
 10
227.343214
 20
185.103156
 40
4.8
  1
２０
 41
0.611111
  7
STANDARD
100
AcDbText
  0
TEXT
  5
11C
100
AcDbEntity
  8
M0
100
AcDbText
 10
259.343231
 20
185.103156
 40
4.8
  1
４０
 41
0.611111
  7
STANDARD
100
AcDbText
  0
TEXT
  5
11D
100
AcDbEntity
  8
M0
100
AcDbText
 10
223.226379
 20
178.85046
 40
5.376
  1
揚水量（Ｌ／分）
 41
0.611111
  7
STANDARD
100
AcDbText
  0
TEXT
  5
11E
100
AcDbEntity
  8
M0
100
AcDbText
 10
211.343214
 20
185.103156
 40
4.8
  1
１０
 41
0.611111
  7
STANDARD
100
AcDbText
  0
TEXT
  5
11F
100
AcDbEntity
  8
M0
100
AcDbText
 10
243.34323
 20
185.103156
 40
4.8
  1
３０
 41
0.611111
  7
STANDARD
100
AcDbText
  0
TEXT
  5
120
100
AcDbEntity
  8
M0
100
AcDbText
 10
188.943221
 20
254.865167
 40
4.8
  1
４０
 41
0.611111
  7
STANDARD
100
AcDbText
  0
LINE
  5
121
100
AcDbEntity
  8
M0
100
AcDbLine
 10
246.463421
 20
262.653991
 11
246.463421
 21
265.443631
  0
LINE
  5
122
100
AcDbEntity
  8
M0
100
AcDbLine
 10
262.463421
 20
257.145197
 11
270.463421
 21
257.145197
  0
TEXT
  5
123
100
AcDbEntity
  8
M0
100
AcDbText
 10
191.167286
 20
172.346731
 40
4.5
  1
※破線部域では６０ｋＰａの圧力変動があります。
 41
0.777778
  7
STANDARD
100
AcDbText
  0
TEXT
  5
124
100
AcDbEntity
  8
M0
100
AcDbText
 10
251.378555
 20
262.653993
 40
4.8
  1
圧力管径：３０ｍｍ
 41
0.590278
  7
STANDARD
100
AcDbText
  0
TEXT
  5
125
100
AcDbEntity
  8
M0
100
AcDbText
 10
251.378555
 20
268.647417
 40
4.8
  1
吸込管径：３０ｍｍ
 41
0.590278
  7
STANDARD
100
AcDbText
  0
TEXT
  5
126
100
AcDbEntity
  8
M0
100
AcDbText
 10
234.394988
 20
254.745195
 40
4.8
  1
吸上高さ１８ｍ時
 41
0.590278
  7
STANDARD
100
AcDbText
  0
LINE
  5
127
100
AcDbEntity
  8
M0
100
AcDbLine
 10
178.338691
 20
274.38886
 11
178.338693
 21
280.14886
  0
LINE
  5
128
100
AcDbEntity
  8
M0
100
AcDbLine
 10
178.338693
 20
280.14886
 11
196.098692
 21
280.14886
  0
LINE
  5
129
100
AcDbEntity
  8
M0
100
AcDbLine
 10
196.098692
 20
280.14886
 11
196.098691
 21
274.38886
  0
LINE
  5
12A
100
AcDbEntity
  8
M0
100
AcDbLine
 10
196.098691
 20
274.38886
 11
178.338691
 21
274.38886
  0
TEXT
  5
12B
100
AcDbEntity
  8
M0
100
AcDbText
 10
179.002025
 20
274.86886
 40
4.8
  1
　深井戸　　　専用ジェット（Ｊ７５－２４Ｗ）使用時
 41
0.590278
  7
STANDARD
100
AcDbText
  0
LINE
  5
12C
100
AcDbEntity
  8
M0
 62
     5
100
AcDbLine
 10
329.725213
 20
196.397478
 11
329.725213
 21
178.939614
  0
LINE
  5
12D
100
AcDbEntity
  8
M0
 62
     5
100
AcDbLine
 10
327.121747
 20
214.763878
 11
329.705112
 21
196.680321
  0
ARC
  5
12E
100
AcDbEntity
  8
M0
 62
     5
100
AcDbCircle
 10
327.725213
 20
196.397478
 40
2.0
100
AcDbArc
 50
0.0
 51
8.130102
  0
LINE
  5
12F
100
AcDbEntity
  8
M0
  6
DASHED
 62
     5
100
AcDbLine
 10
313.725213
 20
217.339614
 11
324.151898
 21
217.339614
  0
ARC
  5
130
100
AcDbEntity
  8
M0
 62
     5
100
AcDbCircle
 10
324.151898
 20
214.339614
 40
3.0
100
AcDbArc
 50
8.130102
 51
90.0
  0
LINE
  5
131
100
AcDbEntity
  8
M0
  6
DASHED
 62
    74
100
AcDbLine
 10
198.463421
 20
143.737952
 11
219.413764
 21
143.737952
  0
LINE
  5
132
100
AcDbEntity
  8
M0
 62
    74
100
AcDbLine
 10
224.863422
 20
129.337953
 11
222.964782
 21
140.729788
  0
LINE
  5
133
100
AcDbEntity
  8
M0
 62
    74
100
AcDbLine
 10
224.863422
 20
129.337953
 11
225.649522
 21
123.049151
  0
LINE
  5
134
100
AcDbEntity
  8
M0
 62
    74
100
AcDbLine
 10
225.663422
 20
122.825889
 11
225.663422
 21
119.812823
  0
ARC
  5
135
100
AcDbEntity
  8
M0
 62
    74
100
AcDbCircle
 10
223.863422
 20
122.825889
 40
1.8
100
AcDbArc
 50
0.0
 51
7.125016
  0
LINE
  5
136
100
AcDbEntity
  8
M0
 62
    74
100
AcDbLine
 10
225.669639
 20
119.663341
 11
226.438675
 21
110.43491
  0
ARC
  5
137
100
AcDbEntity
  8
M0
 62
    74
100
AcDbCircle
 10
227.463422
 20
119.812823
 40
1.8
100
AcDbArc
 50
180.0
 51
184.763642
  0
ARC
  5
138
100
AcDbEntity
  8
M0
 62
    74
100
AcDbCircle
 10
224.644893
 20
110.285428
 40
1.8
100
AcDbArc
 50
345.963757
 51
364.763642
  0
LINE
  5
139
100
AcDbEntity
  8
M0
 62
    74
100
AcDbLine
 10
226.391149
 20
109.848864
 11
225.263421
 21
105.337952
  0
ARC
  5
13A
100
AcDbEntity
  8
M0
 62
    74
100
AcDbCircle
 10
219.413764
 20
140.137952
 40
3.6
100
AcDbArc
 50
9.462322
 51
90.0
  0
LINE
  5
13B
100
AcDbEntity
  8
M0
 62
     1
100
AcDbLine
 10
240.063422
 20
239.545195
 11
240.063422
 21
221.945197
  0
LINE
  5
13C
100
AcDbEntity
  8
M0
 62
     1
100
AcDbLine
 10
233.227128
 20
255.49655
 11
240.063421
 21
239.545197
  0
LINE
  5
13D
100
AcDbEntity
  8
M0
  6
DASHED
 62
     1
100
AcDbLine
 10
198.463421
 20
260.345197
 11
225.873967
 21
260.345197
  0
ARC
  5
13E
100
AcDbEntity
  8
M0
 62
     1
100
AcDbCircle
 10
225.873967
 20
252.345197
 40
8.0
100
AcDbArc
 50
23.198587
 51
90.0
  0
ARC
  5
13F
100
AcDbEntity
  8
M0
100
AcDbCircle
 10
227.463422
 20
119.812823
 40
1.8
100
AcDbArc
 50
180.0
 51
184.763642
  0
ENDSEC
  0
SECTION
  2
OBJECTS
  0
DICTIONARY
  5
C
100
AcDbDictionary
  3
ACAD_GROUP
350
D
  3
ACAD_MLINESTYLE
350
E
  0
DICTIONARY
  5
D
102
{ACAD_REACTORS
330
C
102
}
100
AcDbDictionary
  0
DICTIONARY
  5
E
102
{ACAD_REACTORS
330
C
102
}
100
AcDbDictionary
  3
STANDARD
350
13
  0
MLINESTYLE
  5
13
102
{ACAD_REACTORS
330
E
102
}
100
AcDbMlineStyle
  2
STANDARD
 70
     0
  3

 62
     0
 51
90.0
 52
90.0
 71
     2
 49
0.5
 62
   256
  6
BYLAYER
 49
-0.5
 62
   256
  6
BYLAYER
  0
ENDSEC
  0
EOF
