  0
SECTION
  2
HEADER
  9
$ACADVER
  1
AC1012
  9
$INSBASE
 10
0.0
 20
0.0
  9
$VIEWCTR
 10
7.531722
 20
4.5
  9
$VIEWSIZE
 40
9.0
  9
$SNAPMODE
 70
     0
  9
$SNAPUNIT
 10
1.0
 20
1.0
  9
$SNAPBASE
 10
0.0
 20
0.0
  9
$SNAPANG
 50
0.0
  9
$SNAPSTYLE
 70
     0
  9
$SNAPISOPAIR
 70
     0
  9
$GRIDMODE
 70
     0
  9
$GRIDUNIT
 10
0.0
 20
0.0
  9
$ORTHOMODE
 70
     0
  9
$REGENMODE
 70
     1
  9
$FILLMODE
 70
     1
  9
$QTEXTMODE
 70
     0
  9
$DRAGMODE
 70
     2
  9
$LTSCALE
 40
1.0
  9
$OSMODE
 70
     0
  9
$ATTMODE
 70
     1
  9
$TEXTSIZE
 40
0.2
  9
$TRACEWID
 40
0.05
  9
$TEXTSTYLE
  7
STANDARD
  9
$CELTYPE
  6
BYLAYER
  9
$CECOLOR
 62
   256
  9
$DIMSCALE
 40
1.0
  9
$DIMASZ
 40
0.18
  9
$DIMEXO
 40
0.0625
  9
$DIMDLI
 40
0.38
  9
$DIMRND
 40
0.0
  9
$DIMDLE
 40
0.0
  9
$DIMEXE
 40
0.18
  9
$DIMTP
 40
0.0
  9
$DIMTM
 40
0.0
  9
$DIMTXT
 40
0.18
  9
$DIMCEN
 40
0.09
  9
$DIMTSZ
 40
0.0
  9
$DIMTOL
 70
     0
  9
$DIMLIM
 70
     0
  9
$DIMTIH
 70
     1
  9
$DIMTOH
 70
     1
  9
$DIMSE1
 70
     0
  9
$DIMSE2
 70
     0
  9
$DIMTAD
 70
     0
  9
$DIMZIN
 70
     0
  9
$DIMBLK
  1

  9
$LUNITS
 70
     2
  9
$LUPREC
 70
     4
  9
$AXISMODE
 70
     0
  9
$AXISUNIT
 10
0.0
 20
0.0
  9
$SKETCHINC
 40
0.1
  9
$FILLETRAD
 40
0.0
  9
$AUNITS
 70
     0
  9
$AUPREC
 70
     0
  9
$MENU
  1
ACAD
  9
$ELEVATION
 40
0.0
  9
$THICKNESS
 40
0.0
  9
$VIEWDIR
 10
0.0
 20
0.0
 30
1.0
  9
$LIMCHECK
 70
     0
  9
$BLIPMODE
 70
     1
  9
$CHAMFERA
 40
0.0
  9
$CHAMFERB
 40
0.0
  9
$FASTZOOM
 70
     1
  9
$SKPOLY
 70
     0
  9
$TDCREATE
 40
0000000.0000000000
  9
$TDUPDATE
 40
0000000.0000000000
  9
$TDINDWG
 40
0.0000000000
  9
$TDUSRTIMER
 40
0.0000000000
  9
$USRTIMER
 70
     1
  9
$ANGBASE
 50
0.0
  9
$ANGDIR
 70
     0
  9
$PDMODE
 70
     0
  9
$PDSIZE
 40
0.0
  9
$PLINEWID
 40
0.0
  9
$COORDS
 70
     0
  9
$USERI1
 70
     0
  9
$USERI2
 70
     0
  9
$USERI3
 70
     0
  9
$USERI4
 70
     0
  9
$USERI5
 70
     0
  9
$USERR1
 40
0.0
  9
$USERR2
 40
0.0
  9
$USERR3
 40
0.0
  9
$USERR4
 40
0.0
  9
$USERR5
 40
0.0
  9
$CLAYER
  8
M0
  9
$EXTMIN
 10
0.0
 20
0.0
  9
$EXTMAX
 10
420.0
 20
297.0
  9
$LIMMIN
 10
0.0
 20
0.0
  9
$LIMMAX
 10
420.0
 20
297.0
  9
$HANDSEED
  5
151
  0
ENDSEC
  0
SECTION
  2
CLASSES
  0
ENDSEC
  0
SECTION
  2
TABLES
  0
TABLE
  2
VPORT
  5
8
100
AcDbSymbolTable
 70
     2
  0
VPORT
  5
14
100
AcDbSymbolTableRecord
100
AcDbViewportTableRecord
  2
*ACTIVE
 70
     0
 10
0.0
 20
0.0
 11
1.0
 21
1.0
 12
484.0
 22
297.0
 13
0.0
 23
0.0
 14
1.0
 24
1.0
 15
0.0
 25
0.0
 16
0.0
 26
0.0
 36
1.0
 17
0.0
 27
0.0
 37
0.0
 40
594.0
 41
2.0
 42
50.0
 43
0.0
 44
0.0
 50
0.0
 51
0.0
 71
     0
 72
   100
 73
     1
 74
     1
 75
     0
 76
     0
 77
     0
 78
     0
  0
ENDTAB
  0
TABLE
  2
LTYPE
  5
5
100
AcDbSymbolTable
 70
     5
  0
LTYPE
  5
15
100
AcDbSymbolTableRecord
100
AcDbLinetypeTableRecord
  2
BYBLOCK
 70
     0
  3

 72
    65
 73
     0
 40
0.0
  0
LTYPE
  5
16
100
AcDbSymbolTableRecord
100
AcDbLinetypeTableRecord
  2
BYLAYER
 70
     0
  3

 72
    65
 73
     0
 40
0.0
  0
LTYPE
  5
17
100
AcDbSymbolTableRecord
100
AcDbLinetypeTableRecord
  2
CONTINUOUS
 70
    64
  3
Solid line
 72
    65
 73
     0
 40
0.0
  0
LTYPE
  5
18
100
AcDbSymbolTableRecord
100
AcDbLinetypeTableRecord
  2
DASHED
 70
    64
  3
__ __ __ __ __ __ __ __ __ __ __ __ __ __ __ __
 72
    65
 73
     2
 40
0.75
 49
0.5
 74
     0
 49
-0.25
 74
     0
  0
LTYPE
  5
19
100
AcDbSymbolTableRecord
100
AcDbLinetypeTableRecord
  2
DASHDOT
 70
    64
  3
__ . __ . __ . __ . __ . __ . __ . __ . __ . __
 72
    65
 73
     4
 40
1.0
 49
0.5
 74
     0
 49
-0.25
 74
     0
 49
0.0
 74
     0
 49
-0.25
 74
     0
  0
LTYPE
  5
1A
100
AcDbSymbolTableRecord
100
AcDbLinetypeTableRecord
  2
DIVIDE
 70
    64
  3
____ . . ____ . . ____ . . ____ . . ____ . . __
 72
    65
 73
     6
 40
1.25
 49
0.5
 74
     0
 49
-0.25
 74
     0
 49
0.0
 74
     0
 49
-0.25
 74
     0
 49
0.0
 74
     0
 49
-0.25
 74
     0
  0
LTYPE
  5
1B
100
AcDbSymbolTableRecord
100
AcDbLinetypeTableRecord
  2
DOT
 70
    64
  3
. . . . . . . . . . . . . . . . . . . . . . . .
 72
    65
 73
     2
 40
0.25
 49
0.0
 74
     0
 49
-0.25
 74
     0
  0
ENDTAB
  0
TABLE
  2
LAYER
  5
2
100
AcDbSymbolTable
 70
   102
  0
LAYER
  5
F
100
AcDbSymbolTableRecord
100
AcDbLayerTableRecord
  2
0
 70
     0
 62
     7
  6
CONTINUOUS
  0
LAYER
  5
1C
100
AcDbSymbolTableRecord
100
AcDbLayerTableRecord
  2
DEFPOINTS
 70
     0
 62
     7
  6
CONTINUOUS
  0
LAYER
  5
1D
100
AcDbSymbolTableRecord
100
AcDbLayerTableRecord
  2
M0
 70
     0
 62
     3
  6
CONTINUOUS
  0
ENDTAB
  0
TABLE
  2
STYLE
  5
3
100
AcDbSymbolTable
 70
     2
  0
STYLE
  5
10
100
AcDbSymbolTableRecord
100
AcDbTextStyleTableRecord
  2
STANDARD
 70
     0
 40
0.0
 41
1.0
 50
0.0
 71
     0
 42
0.2
  3
txt
  4
BIGFONT
  0
ENDTAB
  0
TABLE
  2
VIEW
  5
6
100
AcDbSymbolTable
 70
     0
  0
ENDTAB
  0
TABLE
  2
UCS
  5
7
100
AcDbSymbolTable
 70
     0
  0
ENDTAB
  0
TABLE
  2
APPID
  5
9
100
AcDbSymbolTable
 70
     1
  0
APPID
  5
11
100
AcDbSymbolTableRecord
100
AcDbRegAppTableRecord
  2
ACAD
 70
     0
  0
ENDTAB
  0
TABLE
  2
DIMSTYLE
  5
A
100
AcDbSymbolTable
 70
     2
  0
DIMSTYLE
105
24
100
AcDbSymbolTableRecord
100
AcDbDimStyleTableRecord
  2
STANDARD
 70
     0
  3

  4

  5

  6
_OPEN
  7
_OPEN
 40
1.0
 41
3.0
 42
0.0
 43
8.0
 44
1.5
 45
0.0
 46
0.0
 47
0.0
 48
0.0
140
3.5
141
0.09
142
0.0
143
0.03937
144
1.0
145
0.0
146
1.0
147
1.0
 71
     0
 72
     0
 73
     0
 74
     0
 75
     0
 76
     0
 77
     3
 78
     8
170
     0
171
     2
172
     0
173
     1
174
     0
175
     0
176
     0
177
     0
178
     0
270
     2
271
     2
272
     4
273
     2
274
     2
340
10
275
     0
280
     0
281
     0
282
     0
283
     1
284
     0
285
     0
286
     0
287
     3
288
     0
  0
DIMSTYLE
105
25
100
AcDbSymbolTableRecord
100
AcDbDimStyleTableRecord
  2
LEADSTYL
 70
     0
  3

  4

  5

  6
_OPEN
  7
_OPEN
 40
1.0
 41
3.0
 42
0.0625
 43
0.38
 44
0.18
 45
0.0
 46
0.0
 47
0.0
 48
0.0
140
3.2
141
0.09
142
0.0
143
25.4
144
1.0
145
0.0
146
1.0
147
1.0
 71
     0
 72
     0
 73
     1
 74
     1
 75
     0
 76
     0
 77
     0
 78
     0
170
     0
171
     2
172
     0
173
     1
174
     0
175
     0
176
     0
177
     0
178
     0
270
     2
271
     4
272
     4
273
     2
274
     2
340
10
275
     0
280
     0
281
     0
282
     0
283
     1
284
     0
285
     0
286
     0
287
     3
288
     0
  0
ENDTAB
  0
TABLE
  2
BLOCK_RECORD
  5
1
100
AcDbSymbolTable
 70
     6
  0
BLOCK_RECORD
  5
1E
100
AcDbSymbolTableRecord
100
AcDbBlockTableRecord
  2
*MODEL_SPACE
  0
BLOCK_RECORD
  5
21
100
AcDbSymbolTableRecord
100
AcDbBlockTableRecord
  2
*PAPER_SPACE
  0
BLOCK_RECORD
  5
26
100
AcDbSymbolTableRecord
100
AcDbBlockTableRecord
  2
_NONE
  0
BLOCK_RECORD
  5
2A
100
AcDbSymbolTableRecord
100
AcDbBlockTableRecord
  2
_OPEN
  0
BLOCK_RECORD
  5
30
100
AcDbSymbolTableRecord
100
AcDbBlockTableRecord
  2
_CLOSED
  0
BLOCK_RECORD
  5
37
100
AcDbSymbolTableRecord
100
AcDbBlockTableRecord
  2
_ORIGIN
  0
BLOCK_RECORD
  5
3C
100
AcDbSymbolTableRecord
100
AcDbBlockTableRecord
  2
_DOT
  0
BLOCK_RECORD
  5
44
100
AcDbSymbolTableRecord
100
AcDbBlockTableRecord
  2
_OBLIQUE
  0
ENDTAB
  0
ENDSEC
  0
SECTION
  2
BLOCKS
  0
BLOCK
  5
1F
100
AcDbEntity
  8
0
100
AcDbBlockBegin
  2
*MODEL_SPACE
 70
     0
 10
0.0
 20
0.0
 30
0.0
  3
*MODEL_SPACE
  1

  0
ENDBLK
  5
20
100
AcDbEntity
  8
0
100
AcDbBlockEnd
  0
BLOCK
  5
22
100
AcDbEntity
 67
     1
  8
0
100
AcDbBlockBegin
  2
*PAPER_SPACE
 70
     0
 10
0.0
 20
0.0
 30
0.0
  3
*PAPER_SPACE
  1

  0
ENDBLK
  5
23
100
AcDbEntity
 67
     1
  8
0
100
AcDbBlockEnd
  0
BLOCK
  5
27
100
AcDbEntity
  8
0
100
AcDbBlockBegin
  2
_NONE
 70
     0
 10
0.0
 20
0.0
  0
CIRCLE
  5
28
100
AcDbEntity
  8
0
 62
     0
100
AcDbCircle
 10
0.0
 20
0.0
 40
0.25
  0
ENDBLK
  5
29
100
AcDbEntity
  8
0
100
AcDbBlockEnd
  0
BLOCK
  5
2B
100
AcDbEntity
  8
0
100
AcDbBlockBegin
  2
_OPEN
 70
     0
 10
0.0
 20
0.0
  0
LINE
  5
2C
100
AcDbEntity
  8
0
 62
     0
100
AcDbLine
 10
-0.965926
 20
0.258819
 11
0.0
 21
0.0
  0
LINE
  5
2D
100
AcDbEntity
  8
0
 62
     0
100
AcDbLine
 10
0.0
 20
0.0
 11
-0.965926
 21
-0.258819
  0
LINE
  5
2E
100
AcDbEntity
  8
0
 62
     0
100
AcDbLine
 10
0.0
 20
0.0
 11
-1.0
 21
0.0
  0
ENDBLK
  5
2F
100
AcDbEntity
  8
0
100
AcDbBlockEnd
  0
BLOCK
  5
31
100
AcDbEntity
  8
0
100
AcDbBlockBegin
  2
_CLOSED
 70
     0
 10
0.0
 20
0.0
  0
LINE
  5
32
100
AcDbEntity
  8
0
 62
     0
100
AcDbLine
 10
-0.965926
 20
0.258819
 11
0.0
 21
0.0
  0
LINE
  5
33
100
AcDbEntity
  8
0
 62
     0
100
AcDbLine
 10
0.0
 20
0.0
 11
-0.965926
 21
-0.258819
  0
LINE
  5
34
100
AcDbEntity
  8
0
 62
     0
100
AcDbLine
 10
-0.965926
 20
0.258819
 11
-0.965926
 21
-0.258819
  0
LINE
  5
35
100
AcDbEntity
  8
0
 62
     0
100
AcDbLine
 10
0.0
 20
0.0
 11
-1.0
 21
0.0
  0
ENDBLK
  5
36
100
AcDbEntity
  8
0
100
AcDbBlockEnd
  0
BLOCK
  5
38
100
AcDbEntity
  8
0
100
AcDbBlockBegin
  2
_ORIGIN
 70
     0
 10
0.0
 20
0.0
  0
CIRCLE
  5
39
100
AcDbEntity
  8
0
 62
     0
100
AcDbCircle
 10
0.0
 20
0.0
 40
0.5
  0
LINE
  5
3A
100
AcDbEntity
  8
0
 62
     0
100
AcDbLine
 10
0.0
 20
0.0
 11
-1.0
 21
0.0
  0
ENDBLK
  5
3B
100
AcDbEntity
  8
0
100
AcDbBlockEnd
  0
BLOCK
  5
3D
100
AcDbEntity
  8
0
100
AcDbBlockBegin
  2
_DOT
 70
     0
 10
0.0
 20
0.0
  0
POLYLINE
  5
3E
100
AcDbEntity
  8
0
 62
     0
100
AcDb2dPolyline
 66
     1
 70
     1
 40
0.5
 41
0.5
  0
VERTEX
  5
3F
100
AcDbEntity
  8
0
 62
     0
100
AcDbVertex
100
AcDb2dVertex
 10
-0.25
 20
0.0
 42
1.0
  0
VERTEX
  5
40
100
AcDbEntity
  8
0
 62
     0
100
AcDbVertex
100
AcDb2dVertex
 10
0.25
 20
0.0
 42
1.0
  0
SEQEND
  5
41
100
AcDbEntity
  8
0
 62
     0
  0
LINE
  5
42
100
AcDbEntity
  8
0
 62
     0
100
AcDbLine
 10
-0.5
 20
0.0
 11
-1.0
 21
0.0
  0
ENDBLK
  5
43
100
AcDbEntity
  8
0
100
AcDbBlockEnd
  0
BLOCK
  5
45
100
AcDbEntity
  8
0
100
AcDbBlockBegin
  2
_OBLIQUE
 70
     0
 10
0.0
 20
0.0
  0
LINE
  5
46
100
AcDbEntity
  8
0
 62
     0
100
AcDbLine
 10
-0.353553
 20
-0.353553
 11
0.353553
 21
0.353553
  0
ENDBLK
  5
47
100
AcDbEntity
  8
0
100
AcDbBlockEnd
  0
ENDSEC
  0
SECTION
  2
ENTITIES
  0
LINE
  5
48
100
AcDbEntity
  8
M0
100
AcDbLine
 10
155.223812
 20
191.453223
 11
155.223812
 21
212.628301
  0
ARC
  5
49
100
AcDbEntity
  8
M0
100
AcDbCircle
 10
153.423812
 20
212.628301
 40
1.8
100
AcDbArc
 50
0.0
 51
26.565051
  0
LINE
  5
4A
100
AcDbEntity
  8
M0
100
AcDbLine
 10
154.117248
 20
215.266352
 11
155.033781
 21
213.433285
  0
ARC
  5
4B
100
AcDbEntity
  8
M0
100
AcDbCircle
 10
152.507279
 20
214.461368
 40
1.8
100
AcDbArc
 50
26.565051
 51
71.565051
  0
LINE
  5
4C
100
AcDbEntity
  8
M0
100
AcDbLine
 10
123.543812
 20
226.013223
 11
153.076489
 21
216.168998
  0
ARC
  5
4D
100
AcDbEntity
  8
M0
100
AcDbCircle
 10
144.851712
 20
217.013223
 40
1.8
100
AcDbArc
 50
71.565051
 51
90.0
  0
LINE
  5
4E
100
AcDbEntity
  8
M0
  6
DASHED
100
AcDbLine
 10
76.023812
 20
226.013223
 11
123.543812
 21
226.013223
  0
LINE
  5
4F
100
AcDbEntity
  8
M0
 62
     4
100
AcDbLine
 10
35.173869
 20
262.013223
 11
56.219836
 21
262.013223
  0
LINE
  5
50
100
AcDbEntity
  8
M0
 62
     4
100
AcDbLine
 10
56.219836
 20
270.59196
 11
35.173869
 21
270.59196
  0
LINE
  5
51
100
AcDbEntity
  8
M0
 62
     4
100
AcDbLine
 10
35.173869
 20
270.59196
 11
35.173869
 21
262.013223
  0
LINE
  5
52
100
AcDbEntity
  8
M0
 62
     4
100
AcDbLine
 10
56.219836
 20
270.59196
 11
56.219836
 21
262.013223
  0
TEXT
  5
53
100
AcDbEntity
  8
M0
 62
     4
100
AcDbText
 10
37.416859
 20
263.87259
 40
4.86
  1
揚水性能
 41
0.740741
  7
STANDARD
100
AcDbText
  0
LINE
  5
54
100
AcDbEntity
  8
M0
 62
     3
100
AcDbLine
 10
230.433373
 20
109.26942
 11
230.433373
 21
131.764423
  0
ARC
  5
55
100
AcDbEntity
  8
M0
 62
     3
100
AcDbCircle
 10
228.633373
 20
131.764423
 40
1.8
100
AcDbArc
 50
0.0
 51
33.690068
  0
LINE
  5
56
100
AcDbEntity
  8
M0
 62
     3
100
AcDbLine
 10
224.283973
 20
141.53352
 11
230.131064
 21
132.762884
  0
LINE
  5
57
100
AcDbEntity
  8
M0
  6
DASHED
 62
     3
100
AcDbLine
 10
210.273373
 20
142.86942
 11
221.787822
 21
142.86942
  0
ARC
  5
58
100
AcDbEntity
  8
M0
 62
     3
100
AcDbCircle
 10
221.787822
 20
139.86942
 40
3.0
100
AcDbArc
 50
33.690068
 51
90.0
  0
LINE
  5
59
100
AcDbEntity
  8
M0
 62
     4
100
AcDbLine
 10
76.023812
 20
262.013223
 11
76.023812
 21
182.813223
  0
LINE
  5
5A
100
AcDbEntity
  8
M0
 62
     4
100
AcDbLine
 10
76.023812
 20
182.813223
 11
175.923812
 21
182.813223
  0
LINE
  5
5B
100
AcDbEntity
  8
M0
 62
     4
100
AcDbLine
 10
104.823812
 20
182.813223
 11
104.823812
 21
226.013223
  0
LINE
  5
5C
100
AcDbEntity
  8
M0
 62
     4
100
AcDbLine
 10
133.623812
 20
182.813223
 11
133.623812
 21
226.013223
  0
LINE
  5
5D
100
AcDbEntity
  8
M0
 62
     4
100
AcDbLine
 10
162.423812
 20
182.813223
 11
162.423812
 21
254.813223
  0
LINE
  5
5E
100
AcDbEntity
  8
M0
 62
     4
100
AcDbLine
 10
76.023812
 20
197.213223
 11
175.923812
 21
197.213223
  0
LINE
  5
5F
100
AcDbEntity
  8
M0
 62
     4
100
AcDbLine
 10
76.023812
 20
211.613223
 11
175.923812
 21
211.613223
  0
LINE
  5
60
100
AcDbEntity
  8
M0
 62
     4
100
AcDbLine
 10
104.823812
 20
226.013223
 11
104.823812
 21
262.013223
  0
LINE
  5
61
100
AcDbEntity
  8
M0
 62
     4
100
AcDbLine
 10
90.423812
 20
182.813223
 11
90.423812
 21
262.013223
  0
LINE
  5
62
100
AcDbEntity
  8
M0
 62
     4
100
AcDbLine
 10
119.223812
 20
182.813223
 11
119.223812
 21
262.013223
  0
LINE
  5
63
100
AcDbEntity
  8
M0
 62
     4
100
AcDbLine
 10
148.023812
 20
182.813223
 11
148.023812
 21
262.013223
  0
LINE
  5
64
100
AcDbEntity
  8
M0
 62
     4
100
AcDbLine
 10
76.023812
 20
240.413223
 11
175.923812
 21
240.413223
  0
LINE
  5
65
100
AcDbEntity
  8
M0
 62
     4
100
AcDbLine
 10
76.023812
 20
226.013223
 11
175.923812
 21
226.013223
  0
LINE
  5
66
100
AcDbEntity
  8
M0
 62
     4
100
AcDbLine
 10
76.023812
 20
254.813223
 11
175.923812
 21
254.813223
  0
LINE
  5
67
100
AcDbEntity
  8
M0
 62
     4
100
AcDbLine
 10
133.623812
 20
234.607185
 11
133.623812
 21
262.013223
  0
TEXT
  5
68
100
AcDbEntity
  8
M0
 62
     4
100
AcDbText
 10
159.615624
 20
177.375383
 40
4.32
  1
６０
 41
0.611111
  7
STANDARD
100
AcDbText
  0
TEXT
  5
69
100
AcDbEntity
  8
M0
 62
     4
100
AcDbText
 10
145.215622
 20
177.375383
 40
4.32
  1
５０
 41
0.611111
  7
STANDARD
100
AcDbText
  0
TEXT
  5
6A
100
AcDbEntity
  8
M0
 62
     4
100
AcDbText
 10
130.815634
 20
177.375383
 40
4.32
  1
４０
 41
0.611111
  7
STANDARD
100
AcDbText
  0
TEXT
  5
6B
100
AcDbEntity
  8
M0
 62
     4
100
AcDbText
 10
111.690504
 20
171.609003
 40
4.8384
  1
揚水量（Ｌ／分）
 41
0.611111
  7
STANDARD
100
AcDbText
  0
TEXT
  5
6C
100
AcDbEntity
  8
M0
 62
     4
100
AcDbText
 10
78.087744
 20
166.199606
 40
4.32
  1
※破線部域では６０ｋＰａの圧力変動があります。
 41
0.652006
  7
STANDARD
100
AcDbText
  0
TEXT
  5
6D
100
AcDbEntity
  8
M0
 62
     4
100
AcDbText
 10
116.415632
 20
177.375383
 40
4.32
  1
３０
 41
0.611111
  7
STANDARD
100
AcDbText
  0
TEXT
  5
6E
100
AcDbEntity
  8
M0
 62
     4
100
AcDbText
 10
102.015627
 20
177.375383
 40
4.32
  1
２０
 41
0.611111
  7
STANDARD
100
AcDbText
  0
TEXT
  5
6F
100
AcDbEntity
  8
M0
 62
     4
100
AcDbText
 10
87.615625
 20
177.375383
 40
4.32
  1
１０
 41
0.611111
  7
STANDARD
100
AcDbText
  0
TEXT
  5
70
100
AcDbEntity
  8
M0
 62
     4
100
AcDbText
 10
73.215631
 20
177.375383
 40
4.32
  1
０
 41
0.611111
  7
STANDARD
100
AcDbText
  0
TEXT
  5
71
100
AcDbEntity
  8
M0
 62
     4
100
AcDbText
 10
70.335627
 20
180.76119
 40
4.32
  1
０
 41
0.611111
  7
STANDARD
100
AcDbText
  0
TEXT
  5
72
100
AcDbEntity
  8
M0
 62
     4
100
AcDbText
 10
67.455629
 20
195.161196
 40
4.32
  1
１０
 41
0.611111
  7
STANDARD
100
AcDbText
  0
TEXT
  5
73
100
AcDbEntity
  8
M0
 62
     4
100
AcDbText
 10
67.455629
 20
209.561194
 40
4.32
  1
２０
 41
0.611111
  7
STANDARD
100
AcDbText
  0
TEXT
  5
74
100
AcDbEntity
  8
M0
 62
     4
100
AcDbText
 10
67.455629
 20
223.961194
 40
4.32
  1
３０
 41
0.611111
  7
STANDARD
100
AcDbText
  0
TEXT
  5
75
100
AcDbEntity
  8
M0
 62
     4
100
AcDbText
 10
67.455629
 20
238.361193
 40
4.32
  1
４０
 41
0.611111
  7
STANDARD
100
AcDbText
  0
TEXT
  5
76
100
AcDbEntity
  8
M0
 62
     4
100
AcDbText
 10
67.455629
 20
252.761192
 40
4.32
  1
５０
 41
0.611111
  7
STANDARD
100
AcDbText
  0
ARC
  5
77
100
AcDbEntity
  8
M0
 62
     4
100
AcDbCircle
 10
62.223259
 20
209.93821
 40
4.8384
100
AcDbArc
 50
52.58592
 51
127.41408
  0
ARC
  5
78
100
AcDbEntity
  8
M0
 62
     4
100
AcDbCircle
 10
62.223259
 20
212.974783
 40
4.8384
100
AcDbArc
 50
232.58592
 51
307.41408
  0
TEXT
  5
79
100
AcDbEntity
  8
M0
 62
     4
100
AcDbText
 10
60.207256
 20
224.399648
 40
3.2256
  1
全
 41
1.25
  7
STANDARD
100
AcDbText
  0
TEXT
  5
7A
100
AcDbEntity
  8
M0
 62
     4
100
AcDbText
 10
60.207256
 20
220.851488
 40
3.2256
  1
揚
 41
1.25
  7
STANDARD
100
AcDbText
  0
TEXT
  5
7B
100
AcDbEntity
  8
M0
 62
     4
100
AcDbText
 10
60.207256
 20
217.303329
 40
3.2256
  1
程
 41
1.25
  7
STANDARD
100
AcDbText
  0
TEXT
  5
7C
100
AcDbEntity
  8
M0
 62
     4
100
AcDbText
 10
60.207256
 20
213.755169
 40
3.2256
  1
　
 41
1.25
  7
STANDARD
100
AcDbText
  0
TEXT
  5
7D
100
AcDbEntity
  8
M0
 62
     4
100
AcDbText
 10
60.207256
 20
210.207009
 40
3.2256
  1
ｍ
 41
1.25
  7
STANDARD
100
AcDbText
  0
TEXT
  5
7E
100
AcDbEntity
  8
M0
 62
     4
100
AcDbText
 10
120.777363
 20
228.437281
 40
4.32
  1
吸上高さ６ｍ時
 41
0.590278
  7
STANDARD
100
AcDbText
  0
TEXT
  5
7F
100
AcDbEntity
  8
M0
 62
     4
100
AcDbText
 10
150.488295
 20
255.407053
 40
4.32
  1
吸込管径：３０ｍｍ
 41
0.590278
  7
STANDARD
100
AcDbText
  0
LINE
  5
80
100
AcDbEntity
  8
M0
 62
     4
100
AcDbLine
 10
87.25304
 20
265.742127
 11
87.253042
 21
270.926128
  0
LINE
  5
81
100
AcDbEntity
  8
M0
 62
     4
100
AcDbLine
 10
87.253042
 20
270.926128
 11
109.357044
 21
270.926128
  0
LINE
  5
82
100
AcDbEntity
  8
M0
 62
     4
100
AcDbLine
 10
109.357044
 20
270.926128
 11
109.357042
 21
265.742127
  0
LINE
  5
83
100
AcDbEntity
  8
M0
 62
     4
100
AcDbLine
 10
109.357042
 20
265.742127
 11
87.25304
 21
265.742127
  0
TEXT
  5
84
100
AcDbEntity
  8
M0
 62
     4
100
AcDbText
 10
87.85004
 20
266.174127
 40
4.32
  1
　浅井戸配管　　　標準ジェット（Ｊ４０－６Ｗ）使用時
 41
0.590278
  7
STANDARD
100
AcDbText
  0
LINE
  5
85
100
AcDbEntity
  8
M0
 62
   114
100
AcDbLine
 10
325.68753
 20
234.525301
 11
325.68753
 21
218.013223
  0
LINE
  5
86
100
AcDbEntity
  8
M0
 62
   114
100
AcDbLine
 10
323.632635
 20
249.037487
 11
325.669439
 21
234.779859
  0
LINE
  5
87
100
AcDbEntity
  8
M0
  6
DASHED
 62
   114
100
AcDbLine
 10
311.28753
 20
251.613223
 11
320.662787
 21
251.613223
  0
ARC
  5
88
100
AcDbEntity
  8
M0
 62
   114
100
AcDbCircle
 10
323.88753
 20
234.525301
 40
1.8
100
AcDbArc
 50
0.0
 51
8.130102
  0
ARC
  5
89
100
AcDbEntity
  8
M0
 62
   114
100
AcDbCircle
 10
320.662787
 20
248.613223
 40
3.0
100
AcDbArc
 50
8.130102
 51
90.0
  0
LINE
  5
8A
100
AcDbEntity
  8
M0
100
AcDbLine
 10
210.273373
 20
182.813223
 11
275.073373
 21
182.813223
  0
LINE
  5
8B
100
AcDbEntity
  8
M0
100
AcDbLine
 10
210.273373
 20
262.013223
 11
210.273373
 21
182.813223
  0
LINE
  5
8C
100
AcDbEntity
  8
M0
100
AcDbLine
 10
239.073373
 20
182.813223
 11
239.073373
 21
211.613223
  0
LINE
  5
8D
100
AcDbEntity
  8
M0
100
AcDbLine
 10
267.873373
 20
182.813223
 11
267.873373
 21
200.115826
  0
LINE
  5
8E
100
AcDbEntity
  8
M0
100
AcDbLine
 10
210.273373
 20
197.213223
 11
275.073373
 21
197.213223
  0
LINE
  5
8F
100
AcDbEntity
  8
M0
100
AcDbLine
 10
210.273373
 20
211.613223
 11
275.073373
 21
211.613223
  0
LINE
  5
90
100
AcDbEntity
  8
M0
100
AcDbLine
 10
239.073373
 20
226.013223
 11
239.073373
 21
262.013223
  0
LINE
  5
91
100
AcDbEntity
  8
M0
100
AcDbLine
 10
224.673373
 20
182.813223
 11
224.673373
 21
262.013223
  0
LINE
  5
92
100
AcDbEntity
  8
M0
100
AcDbLine
 10
253.473373
 20
182.813223
 11
253.473373
 21
226.013223
  0
LINE
  5
93
100
AcDbEntity
  8
M0
100
AcDbLine
 10
210.273373
 20
240.413223
 11
275.073373
 21
240.413223
  0
LINE
  5
94
100
AcDbEntity
  8
M0
100
AcDbLine
 10
210.273373
 20
226.013223
 11
275.073373
 21
226.013223
  0
LINE
  5
95
100
AcDbEntity
  8
M0
100
AcDbLine
 10
210.273373
 20
254.813223
 11
275.073373
 21
254.813223
  0
ARC
  5
96
100
AcDbEntity
  8
M0
100
AcDbCircle
 10
196.186627
 20
209.99296
 40
4.8384
100
AcDbArc
 50
52.58592
 51
127.41408
  0
ARC
  5
97
100
AcDbEntity
  8
M0
100
AcDbCircle
 10
196.186627
 20
213.029534
 40
4.8384
100
AcDbArc
 50
232.58592
 51
307.41408
  0
TEXT
  5
98
100
AcDbEntity
  8
M0
100
AcDbText
 10
194.170624
 20
224.454396
 40
3.2256
  1
全
 41
1.25
  7
STANDARD
100
AcDbText
  0
TEXT
  5
99
100
AcDbEntity
  8
M0
100
AcDbText
 10
194.170624
 20
220.906236
 40
3.2256
  1
揚
 41
1.25
  7
STANDARD
100
AcDbText
  0
TEXT
  5
9A
100
AcDbEntity
  8
M0
100
AcDbText
 10
194.170624
 20
217.358076
 40
3.2256
  1
程
 41
1.25
  7
STANDARD
100
AcDbText
  0
TEXT
  5
9B
100
AcDbEntity
  8
M0
100
AcDbText
 10
194.170624
 20
213.809917
 40
3.2256
  1
　
 41
1.25
  7
STANDARD
100
AcDbText
  0
TEXT
  5
9C
100
AcDbEntity
  8
M0
100
AcDbText
 10
194.170624
 20
210.261757
 40
3.2256
  1
ｍ
 41
1.25
  7
STANDARD
100
AcDbText
  0
TEXT
  5
9D
100
AcDbEntity
  8
M0
100
AcDbText
 10
201.705191
 20
223.961192
 40
4.32
  1
３０
 41
0.611111
  7
STANDARD
100
AcDbText
  0
TEXT
  5
9E
100
AcDbEntity
  8
M0
100
AcDbText
 10
201.705191
 20
209.561198
 40
4.32
  1
２０
 41
0.611111
  7
STANDARD
100
AcDbText
  0
TEXT
  5
9F
100
AcDbEntity
  8
M0
100
AcDbText
 10
201.705191
 20
195.161193
 40
4.32
  1
１０
 41
0.611111
  7
STANDARD
100
AcDbText
  0
TEXT
  5
A0
100
AcDbEntity
  8
M0
100
AcDbText
 10
204.585189
 20
180.761194
 40
4.32
  1
０
 41
0.611111
  7
STANDARD
100
AcDbText
  0
TEXT
  5
A1
100
AcDbEntity
  8
M0
100
AcDbText
 10
207.465186
 20
177.375386
 40
4.32
  1
０
 41
0.611111
  7
STANDARD
100
AcDbText
  0
TEXT
  5
A2
100
AcDbEntity
  8
M0
100
AcDbText
 10
236.265189
 20
177.375386
 40
4.32
  1
２０
 41
0.611111
  7
STANDARD
100
AcDbText
  0
TEXT
  5
A3
100
AcDbEntity
  8
M0
100
AcDbText
 10
265.065202
 20
177.375386
 40
4.32
  1
４０
 41
0.611111
  7
STANDARD
100
AcDbText
  0
TEXT
  5
A4
100
AcDbEntity
  8
M0
100
AcDbText
 10
232.560034
 20
171.74796
 40
4.8384
  1
揚水量（Ｌ／分）
 41
0.611111
  7
STANDARD
100
AcDbText
  0
TEXT
  5
A5
100
AcDbEntity
  8
M0
100
AcDbText
 10
221.865187
 20
177.375386
 40
4.32
  1
１０
 41
0.611111
  7
STANDARD
100
AcDbText
  0
TEXT
  5
A6
100
AcDbEntity
  8
M0
100
AcDbText
 10
250.665202
 20
177.375386
 40
4.32
  1
３０
 41
0.611111
  7
STANDARD
100
AcDbText
  0
TEXT
  5
A7
100
AcDbEntity
  8
M0
100
AcDbText
 10
201.705191
 20
238.361194
 40
4.32
  1
４０
 41
0.611111
  7
STANDARD
100
AcDbText
  0
TEXT
  5
A8
100
AcDbEntity
  8
M0
100
AcDbText
 10
201.705191
 20
252.761195
 40
4.32
  1
５０
 41
0.611111
  7
STANDARD
100
AcDbText
  0
LINE
  5
A9
100
AcDbEntity
  8
M0
100
AcDbLine
 10
253.473373
 20
226.013223
 11
253.473373
 21
262.013223
  0
LINE
  5
AA
100
AcDbEntity
  8
M0
100
AcDbLine
 10
239.073373
 20
218.244369
 11
239.073373
 21
226.013223
  0
LINE
  5
AB
100
AcDbEntity
  8
M0
100
AcDbLine
 10
267.873373
 20
208.192238
 11
267.873373
 21
254.813223
  0
TEXT
  5
AC
100
AcDbEntity
  8
M0
100
AcDbText
 10
257.896992
 20
255.770938
 40
4.32
  1
圧力管径：３０ｍｍ
 41
0.590278
  7
STANDARD
100
AcDbText
  0
TEXT
  5
AD
100
AcDbEntity
  8
M0
100
AcDbText
 10
257.896992
 20
261.165019
 40
4.32
  1
吸込管径：３０ｍｍ
 41
0.590278
  7
STANDARD
100
AcDbText
  0
LINE
  5
AE
100
AcDbEntity
  8
M0
100
AcDbLine
 10
192.161118
 20
266.105181
 11
192.16112
 21
271.289181
  0
LINE
  5
AF
100
AcDbEntity
  8
M0
100
AcDbLine
 10
192.16112
 20
271.289181
 11
208.145123
 21
271.289181
  0
LINE
  5
B0
100
AcDbEntity
  8
M0
100
AcDbLine
 10
208.145123
 20
271.289181
 11
208.145121
 21
266.105181
  0
LINE
  5
B1
100
AcDbEntity
  8
M0
100
AcDbLine
 10
208.145121
 20
266.105181
 11
192.161118
 21
266.105181
  0
TEXT
  5
B2
100
AcDbEntity
  8
M0
100
AcDbText
 10
192.758118
 20
266.537181
 40
4.32
  1
　深井戸　　　専用ジェット（Ｊ７５－２４Ｗ）使用時
 41
0.590278
  7
STANDARD
100
AcDbText
  0
TEXT
  5
B3
100
AcDbEntity
  8
M0
100
AcDbText
 10
227.579789
 20
212.9159
 40
4.32
  1
吸上高さ２４ｍ時
 41
0.590278
  7
STANDARD
100
AcDbText
  0
TEXT
  5
B4
100
AcDbEntity
  8
M0
100
AcDbText
 10
254.827351
 20
202.142047
 40
4.32
  1
吸上高さ１８ｍ時
 41
0.590278
  7
STANDARD
100
AcDbText
  0
TEXT
  5
B5
100
AcDbEntity
  8
M0
100
AcDbText
 10
212.337306
 20
166.199607
 40
4.32
  1
※破線部域では６０ｋＰａの圧力変動があります。
 41
0.652006
  7
STANDARD
100
AcDbText
  0
LINE
  5
B6
100
AcDbEntity
  8
M0
 62
     1
100
AcDbLine
 10
142.263812
 20
83.34942
 11
142.263812
 21
102.104022
  0
ARC
  5
B7
100
AcDbEntity
  8
M0
 62
     1
100
AcDbCircle
 10
140.463812
 20
102.104022
 40
1.8
100
AcDbArc
 50
0.0
 51
75.963757
  0
LINE
  5
B8
100
AcDbEntity
  8
M0
 62
     1
100
AcDbLine
 10
130.743812
 20
106.38942
 11
140.900376
 21
103.850279
  0
LINE
  5
B9
100
AcDbEntity
  8
M0
 62
     1
100
AcDbLine
 10
97.463812
 20
118.86942
 11
130.743812
 21
106.38942
  0
LINE
  5
BA
100
AcDbEntity
  8
M0
  6
DASHED
 62
     1
100
AcDbLine
 10
76.023812
 20
118.86942
 11
97.463812
 21
118.86942
  0
LINE
  5
BB
100
AcDbEntity
  8
M0
 62
   194
100
AcDbLine
 10
256.353373
 20
208.413223
 11
256.353373
 21
225.937533
  0
ARC
  5
BC
100
AcDbEntity
  8
M0
 62
   194
100
AcDbCircle
 10
254.553373
 20
225.937533
 40
1.8
100
AcDbArc
 50
0.0
 51
39.805571
  0
LINE
  5
BD
100
AcDbEntity
  8
M0
 62
   194
100
AcDbLine
 10
243.066246
 20
242.533776
 11
255.936172
 21
227.089865
  0
LINE
  5
BE
100
AcDbEntity
  8
M0
  6
DASHED
 62
   194
100
AcDbLine
 10
210.273373
 20
243.613223
 11
240.761582
 21
243.613223
  0
ARC
  5
BF
100
AcDbEntity
  8
M0
 62
   194
100
AcDbCircle
 10
240.761582
 20
240.613223
 40
3.0
100
AcDbArc
 50
39.805571
 51
90.0
  0
LINE
  5
C0
100
AcDbEntity
  8
M0
 62
   234
100
AcDbLine
 10
224.673373
 20
135.666089
 11
224.673373
 21
116.46942
  0
ARC
  5
C1
100
AcDbEntity
  8
M0
 62
   234
100
AcDbCircle
 10
222.873373
 20
135.666089
 40
1.8
100
AcDbArc
 50
0.0
 51
46.078465
  0
LINE
  5
C2
100
AcDbEntity
  8
M0
 62
   234
100
AcDbLine
 10
221.593681
 20
139.808958
 11
224.121984
 21
136.962612
  0
LINE
  5
C3
100
AcDbEntity
  8
M0
 62
   234
100
AcDbLine
 10
215.11064
 20
149.53352
 11
221.593681
 21
139.808958
  0
LINE
  5
C4
100
AcDbEntity
  8
M0
  6
DASHED
 62
   234
100
AcDbLine
 10
210.273373
 20
150.86942
 11
212.614489
 21
150.86942
  0
ARC
  5
C5
100
AcDbEntity
  8
M0
 62
   234
100
AcDbCircle
 10
212.614489
 20
147.86942
 40
3.0
100
AcDbArc
 50
33.690068
 51
90.0
  0
LINE
  5
C6
100
AcDbEntity
  8
M0
 62
   114
100
AcDbLine
 10
210.273373
 20
138.06942
 11
275.073373
 21
138.06942
  0
LINE
  5
C7
100
AcDbEntity
  8
M0
 62
   114
100
AcDbLine
 10
210.273373
 20
66.06942
 11
275.073373
 21
66.06942
  0
LINE
  5
C8
100
AcDbEntity
  8
M0
 62
   114
100
AcDbLine
 10
239.073373
 20
66.06942
 11
239.073373
 21
109.26942
  0
LINE
  5
C9
100
AcDbEntity
  8
M0
 62
   114
100
AcDbLine
 10
267.873373
 20
66.06942
 11
267.873373
 21
138.06942
  0
LINE
  5
CA
100
AcDbEntity
  8
M0
 62
   114
100
AcDbLine
 10
210.273373
 20
80.46942
 11
275.073373
 21
80.46942
  0
LINE
  5
CB
100
AcDbEntity
  8
M0
 62
   114
100
AcDbLine
 10
210.273373
 20
94.86942
 11
275.073373
 21
94.86942
  0
LINE
  5
CC
100
AcDbEntity
  8
M0
 62
   114
100
AcDbLine
 10
239.073373
 20
109.26942
 11
239.073373
 21
128.615089
  0
LINE
  5
CD
100
AcDbEntity
  8
M0
 62
   114
100
AcDbLine
 10
224.673373
 20
66.06942
 11
224.673373
 21
145.677553
  0
LINE
  5
CE
100
AcDbEntity
  8
M0
 62
   114
100
AcDbLine
 10
253.473373
 20
66.06942
 11
253.473373
 21
127.48933
  0
LINE
  5
CF
100
AcDbEntity
  8
M0
 62
   114
100
AcDbLine
 10
210.273373
 20
123.66942
 11
275.073373
 21
123.66942
  0
LINE
  5
D0
100
AcDbEntity
  8
M0
 62
   114
100
AcDbLine
 10
210.273373
 20
109.26942
 11
275.073373
 21
109.26942
  0
LINE
  5
D1
100
AcDbEntity
  8
M0
 62
   114
100
AcDbLine
 10
210.273373
 20
152.46942
 11
210.273373
 21
66.06942
  0
ARC
  5
D2
100
AcDbEntity
  8
M0
 62
   114
100
AcDbCircle
 10
195.224834
 20
94.764352
 40
4.8384
100
AcDbArc
 50
52.58592
 51
127.41408
  0
ARC
  5
D3
100
AcDbEntity
  8
M0
 62
   114
100
AcDbCircle
 10
195.224834
 20
97.800925
 40
4.8384
100
AcDbArc
 50
232.58592
 51
307.41408
  0
TEXT
  5
D4
100
AcDbEntity
  8
M0
 62
   114
100
AcDbText
 10
193.208838
 20
109.225787
 40
3.2256
  1
全
 41
1.25
  7
STANDARD
100
AcDbText
  0
TEXT
  5
D5
100
AcDbEntity
  8
M0
 62
   114
100
AcDbText
 10
193.208838
 20
105.677628
 40
3.2256
  1
揚
 41
1.25
  7
STANDARD
100
AcDbText
  0
TEXT
  5
D6
100
AcDbEntity
  8
M0
 62
   114
100
AcDbText
 10
193.208838
 20
102.129468
 40
3.2256
  1
程
 41
1.25
  7
STANDARD
100
AcDbText
  0
TEXT
  5
D7
100
AcDbEntity
  8
M0
 62
   114
100
AcDbText
 10
193.208838
 20
98.581308
 40
3.2256
  1
　
 41
1.25
  7
STANDARD
100
AcDbText
  0
TEXT
  5
D8
100
AcDbEntity
  8
M0
 62
   114
100
AcDbText
 10
193.208838
 20
95.033148
 40
3.2256
  1
ｍ
 41
1.25
  7
STANDARD
100
AcDbText
  0
TEXT
  5
D9
100
AcDbEntity
  8
M0
 62
   114
100
AcDbText
 10
201.705194
 20
107.217394
 40
4.32
  1
３０
 41
0.611111
  7
STANDARD
100
AcDbText
  0
TEXT
  5
DA
100
AcDbEntity
  8
M0
 62
   114
100
AcDbText
 10
201.705194
 20
92.817394
 40
4.32
  1
２０
 41
0.611111
  7
STANDARD
100
AcDbText
  0
TEXT
  5
DB
100
AcDbEntity
  8
M0
 62
   114
100
AcDbText
 10
201.705194
 20
78.417392
 40
4.32
  1
１０
 41
0.611111
  7
STANDARD
100
AcDbText
  0
TEXT
  5
DC
100
AcDbEntity
  8
M0
 62
   114
100
AcDbText
 10
204.585191
 20
64.017395
 40
4.32
  1
０
 41
0.611111
  7
STANDARD
100
AcDbText
  0
TEXT
  5
DD
100
AcDbEntity
  8
M0
 62
   114
100
AcDbText
 10
207.465196
 20
58.831588
 40
4.32
  1
０
 41
0.611111
  7
STANDARD
100
AcDbText
  0
TEXT
  5
DE
100
AcDbEntity
  8
M0
 62
   114
100
AcDbText
 10
236.26518
 20
58.831588
 40
4.32
  1
２０
 41
0.611111
  7
STANDARD
100
AcDbText
  0
TEXT
  5
DF
100
AcDbEntity
  8
M0
 62
   114
100
AcDbText
 10
265.065194
 20
58.831588
 40
4.32
  1
４０
 41
0.611111
  7
STANDARD
100
AcDbText
  0
TEXT
  5
E0
100
AcDbEntity
  8
M0
 62
   114
100
AcDbText
 10
231.815249
 20
52.012802
 40
4.8384
  1
揚水量（Ｌ／分）
 41
0.611111
  7
STANDARD
100
AcDbText
  0
TEXT
  5
E1
100
AcDbEntity
  8
M0
 62
   114
100
AcDbText
 10
221.865193
 20
58.831588
 40
4.32
  1
１０
 41
0.611111
  7
STANDARD
100
AcDbText
  0
TEXT
  5
E2
100
AcDbEntity
  8
M0
 62
   114
100
AcDbText
 10
250.665194
 20
58.831588
 40
4.32
  1
３０
 41
0.611111
  7
STANDARD
100
AcDbText
  0
TEXT
  5
E3
100
AcDbEntity
  8
M0
 62
   114
100
AcDbText
 10
201.705194
 20
121.617393
 40
4.32
  1
４０
 41
0.611111
  7
STANDARD
100
AcDbText
  0
TEXT
  5
E4
100
AcDbEntity
  8
M0
 62
   114
100
AcDbText
 10
201.705194
 20
136.017393
 40
4.32
  1
５０
 41
0.611111
  7
STANDARD
100
AcDbText
  0
LINE
  5
E5
100
AcDbEntity
  8
M0
 62
   114
100
AcDbLine
 10
253.473373
 20
134.412204
 11
253.473373
 21
152.46942
  0
LINE
  5
E6
100
AcDbEntity
  8
M0
 62
   114
100
AcDbLine
 10
239.073373
 20
134.735443
 11
239.073373
 21
145.677553
  0
LINE
  5
E7
100
AcDbEntity
  8
M0
 62
   114
100
AcDbLine
 10
210.273373
 20
152.46942
 11
275.073373
 21
152.46942
  0
TEXT
  5
E8
100
AcDbEntity
  8
M0
 62
   114
100
AcDbText
 10
202.143762
 20
147.641988
 40
4.32
  1
６０
 41
0.611111
  7
STANDARD
100
AcDbText
  0
TEXT
  5
E9
100
AcDbEntity
  8
M0
 62
   114
100
AcDbText
 10
232.513278
 20
129.596297
 40
4.32
  1
吸上高さ３０ｍ時
 41
0.590278
  7
STANDARD
100
AcDbText
  0
TEXT
  5
EA
100
AcDbEntity
  8
M0
 62
   114
100
AcDbText
 10
219.00246
 20
146.658822
 40
4.32
  1
吸上高さ３５ｍ時
 41
0.590278
  7
STANDARD
100
AcDbText
  0
TEXT
  5
EB
100
AcDbEntity
  8
M0
 62
   114
100
AcDbText
 10
257.896993
 20
140.849733
 40
4.32
  1
圧力管径：３０ｍｍ
 41
0.590278
  7
STANDARD
100
AcDbText
  0
TEXT
  5
EC
100
AcDbEntity
  8
M0
 62
   114
100
AcDbText
 10
257.896993
 20
146.243814
 40
4.32
  1
吸込管径：３０ｍｍ
 41
0.590278
  7
STANDARD
100
AcDbText
  0
LINE
  5
ED
100
AcDbEntity
  8
M0
 62
   114
100
AcDbLine
 10
192.639972
 20
153.64713
 11
192.639973
 21
158.83113
  0
LINE
  5
EE
100
AcDbEntity
  8
M0
 62
   114
100
AcDbLine
 10
192.639973
 20
158.83113
 11
208.623972
 21
158.83113
  0
LINE
  5
EF
100
AcDbEntity
  8
M0
 62
   114
100
AcDbLine
 10
208.623972
 20
158.83113
 11
208.623971
 21
153.64713
  0
LINE
  5
F0
100
AcDbEntity
  8
M0
 62
   114
100
AcDbLine
 10
208.623971
 20
153.64713
 11
192.639972
 21
153.64713
  0
TEXT
  5
F1
100
AcDbEntity
  8
M0
 62
   114
100
AcDbText
 10
193.236972
 20
154.07913
 40
4.32
  1
　深井戸　　　専用ジェット（Ｊ７５－３５Ｗ）使用時
 41
0.590278
  7
STANDARD
100
AcDbText
  0
TEXT
  5
F2
100
AcDbEntity
  8
M0
 62
   114
100
AcDbText
 10
212.337308
 20
45.45581
 40
4.32
  1
※破線部域では６０ｋＰａの圧力変動があります。
 41
0.652006
  7
STANDARD
100
AcDbText
  0
LINE
  5
F3
100
AcDbEntity
  8
M0
 62
     2
100
AcDbLine
 10
241.953373
 20
235.608227
 11
241.953373
 21
218.013223
  0
ARC
  5
F4
100
AcDbEntity
  8
M0
 62
     2
100
AcDbCircle
 10
239.253373
 20
235.608227
 40
2.7
100
AcDbArc
 50
0.0
 51
56.309932
  0
LINE
  5
F5
100
AcDbEntity
  8
M0
 62
     2
100
AcDbLine
 10
234.753373
 20
241.853223
 11
240.751064
 21
237.854763
  0
LINE
  5
F6
100
AcDbEntity
  8
M0
 62
     2
100
AcDbLine
 10
225.872053
 20
250.734543
 11
234.753373
 21
241.853223
  0
LINE
  5
F7
100
AcDbEntity
  8
M0
  6
DASHED
 62
     2
100
AcDbLine
 10
210.273373
 20
251.613223
 11
223.750733
 21
251.613223
  0
ARC
  5
F8
100
AcDbEntity
  8
M0
 62
     2
100
AcDbCircle
 10
223.750733
 20
248.613223
 40
3.0
100
AcDbArc
 50
45.0
 51
90.0
  0
LINE
  5
F9
100
AcDbEntity
  8
M0
 62
     6
100
AcDbLine
 10
311.28753
 20
182.813223
 11
376.08753
 21
182.813223
  0
LINE
  5
FA
100
AcDbEntity
  8
M0
 62
     6
100
AcDbLine
 10
311.28753
 20
262.013223
 11
311.28753
 21
182.813223
  0
LINE
  5
FB
100
AcDbEntity
  8
M0
 62
     6
100
AcDbLine
 10
340.08753
 20
182.813223
 11
340.08753
 21
226.013223
  0
LINE
  5
FC
100
AcDbEntity
  8
M0
 62
     6
100
AcDbLine
 10
368.88753
 20
182.813223
 11
368.88753
 21
226.013223
  0
LINE
  5
FD
100
AcDbEntity
  8
M0
 62
     6
100
AcDbLine
 10
311.28753
 20
197.213223
 11
376.08753
 21
197.213223
  0
LINE
  5
FE
100
AcDbEntity
  8
M0
 62
     6
100
AcDbLine
 10
311.28753
 20
211.613223
 11
376.08753
 21
211.613223
  0
LINE
  5
FF
100
AcDbEntity
  8
M0
 62
     6
100
AcDbLine
 10
340.08753
 20
226.013223
 11
340.08753
 21
244.621696
  0
LINE
  5
100
100
AcDbEntity
  8
M0
 62
     6
100
AcDbLine
 10
325.68753
 20
182.813223
 11
325.68753
 21
262.013223
  0
LINE
  5
101
100
AcDbEntity
  8
M0
 62
     6
100
AcDbLine
 10
354.48753
 20
182.813223
 11
354.48753
 21
226.013223
  0
LINE
  5
102
100
AcDbEntity
  8
M0
 62
     6
100
AcDbLine
 10
311.28753
 20
240.413223
 11
376.08753
 21
240.413223
  0
LINE
  5
103
100
AcDbEntity
  8
M0
 62
     6
100
AcDbLine
 10
311.28753
 20
226.013223
 11
376.08753
 21
226.013223
  0
LINE
  5
104
100
AcDbEntity
  8
M0
 62
     6
100
AcDbLine
 10
311.28753
 20
254.813223
 11
376.08753
 21
254.813223
  0
ARC
  5
105
100
AcDbEntity
  8
M0
 62
     6
100
AcDbCircle
 10
297.287289
 20
208.263872
 40
4.8384
100
AcDbArc
 50
52.58592
 51
127.41408
  0
ARC
  5
106
100
AcDbEntity
  8
M0
 62
     6
100
AcDbCircle
 10
297.287289
 20
211.300445
 40
4.8384
100
AcDbArc
 50
232.58592
 51
307.41408
  0
TEXT
  5
107
100
AcDbEntity
  8
M0
 62
     6
100
AcDbText
 10
295.271292
 20
222.725315
 40
3.2256
  1
全
 41
1.25
  7
STANDARD
100
AcDbText
  0
TEXT
  5
108
100
AcDbEntity
  8
M0
 62
     6
100
AcDbText
 10
295.271292
 20
219.177155
 40
3.2256
  1
揚
 41
1.25
  7
STANDARD
100
AcDbText
  0
TEXT
  5
109
100
AcDbEntity
  8
M0
 62
     6
100
AcDbText
 10
295.271292
 20
215.628995
 40
3.2256
  1
程
 41
1.25
  7
STANDARD
100
AcDbText
  0
TEXT
  5
10A
100
AcDbEntity
  8
M0
 62
     6
100
AcDbText
 10
295.271292
 20
212.080836
 40
3.2256
  1
　
 41
1.25
  7
STANDARD
100
AcDbText
  0
TEXT
  5
10B
100
AcDbEntity
  8
M0
 62
     6
100
AcDbText
 10
295.271292
 20
208.532676
 40
3.2256
  1
ｍ
 41
1.25
  7
STANDARD
100
AcDbText
  0
TEXT
  5
10C
100
AcDbEntity
  8
M0
 62
     6
100
AcDbText
 10
302.719346
 20
223.961195
 40
4.32
  1
３０
 41
0.611111
  7
STANDARD
100
AcDbText
  0
TEXT
  5
10D
100
AcDbEntity
  8
M0
 62
     6
100
AcDbText
 10
302.719346
 20
209.561192
 40
4.32
  1
２０
 41
0.611111
  7
STANDARD
100
AcDbText
  0
TEXT
  5
10E
100
AcDbEntity
  8
M0
 62
     6
100
AcDbText
 10
302.719346
 20
195.1612
 40
4.32
  1
１０
 41
0.611111
  7
STANDARD
100
AcDbText
  0
TEXT
  5
10F
100
AcDbEntity
  8
M0
 62
     6
100
AcDbText
 10
305.599343
 20
180.761192
 40
4.32
  1
０
 41
0.611111
  7
STANDARD
100
AcDbText
  0
TEXT
  5
110
100
AcDbEntity
  8
M0
 62
     6
100
AcDbText
 10
308.479353
 20
177.375384
 40
4.32
  1
０
 41
0.611111
  7
STANDARD
100
AcDbText
  0
TEXT
  5
111
100
AcDbEntity
  8
M0
 62
     6
100
AcDbText
 10
337.279327
 20
177.375384
 40
4.32
  1
２０
 41
0.611111
  7
STANDARD
100
AcDbText
  0
TEXT
  5
112
100
AcDbEntity
  8
M0
 62
     6
100
AcDbText
 10
366.079354
 20
177.375384
 40
4.32
  1
４０
 41
0.611111
  7
STANDARD
100
AcDbText
  0
TEXT
  5
113
100
AcDbEntity
  8
M0
 62
     6
100
AcDbText
 10
332.226338
 20
171.684624
 40
4.8384
  1
揚水量（Ｌ／分）
 41
0.611111
  7
STANDARD
100
AcDbText
  0
TEXT
  5
114
100
AcDbEntity
  8
M0
 62
     6
100
AcDbText
 10
322.879355
 20
177.375384
 40
4.32
  1
１０
 41
0.611111
  7
STANDARD
100
AcDbText
  0
TEXT
  5
115
100
AcDbEntity
  8
M0
 62
     6
100
AcDbText
 10
351.679354
 20
177.375384
 40
4.32
  1
３０
 41
0.611111
  7
STANDARD
100
AcDbText
  0
TEXT
  5
116
100
AcDbEntity
  8
M0
 62
     6
100
AcDbText
 10
302.719346
 20
238.361197
 40
4.32
  1
４０
 41
0.611111
  7
STANDARD
100
AcDbText
  0
TEXT
  5
117
100
AcDbEntity
  8
M0
 62
     6
100
AcDbText
 10
302.719346
 20
252.761198
 40
4.32
  1
５０
 41
0.611111
  7
STANDARD
100
AcDbText
  0
LINE
  5
118
100
AcDbEntity
  8
M0
 62
     6
100
AcDbLine
 10
340.08753
 20
251.117889
 11
340.08753
 21
262.013223
  0
LINE
  5
119
100
AcDbEntity
  8
M0
 62
     6
100
AcDbLine
 10
354.48753
 20
226.013223
 11
354.48753
 21
262.013223
  0
LINE
  5
11A
100
AcDbEntity
  8
M0
 62
     6
100
AcDbLine
 10
368.88753
 20
226.013223
 11
368.88753
 21
254.813223
  0
TEXT
  5
11B
100
AcDbEntity
  8
M0
 62
     6
100
AcDbText
 10
313.351463
 20
166.199607
 40
4.32
  1
※破線部域では６０ｋＰａの圧力変動があります。
 41
0.652006
  7
STANDARD
100
AcDbText
  0
TEXT
  5
11C
100
AcDbEntity
  8
M0
 62
     6
100
AcDbText
 10
358.632578
 20
255.937903
 40
4.32
  1
吸込管径：３０ｍｍ
 41
0.590278
  7
STANDARD
100
AcDbText
  0
LINE
  5
11D
100
AcDbEntity
  8
M0
 62
     6
100
AcDbLine
 10
293.154177
 20
267.251172
 11
293.154179
 21
272.435173
  0
LINE
  5
11E
100
AcDbEntity
  8
M0
 62
     6
100
AcDbLine
 10
293.154179
 20
272.435173
 11
309.13818
 21
272.435173
  0
LINE
  5
11F
100
AcDbEntity
  8
M0
 62
     6
100
AcDbLine
 10
309.13818
 20
272.435173
 11
309.138178
 21
267.251172
  0
LINE
  5
120
100
AcDbEntity
  8
M0
 62
     6
100
AcDbLine
 10
309.138178
 20
267.251172
 11
293.154177
 21
267.251172
  0
TEXT
  5
121
100
AcDbEntity
  8
M0
 62
     6
100
AcDbText
 10
293.751177
 20
267.683172
 40
4.32
  1
　深井戸　　　シングルジェット（Ｊ４０－２４ＳＷ）使用時
 41
0.590278
  7
STANDARD
100
AcDbText
  0
TEXT
  5
122
100
AcDbEntity
  8
M0
 62
     6
100
AcDbText
 10
327.241087
 20
245.811125
 40
4.32
  1
吸上高さ２４ｍ時
 41
0.590278
  7
STANDARD
100
AcDbText
  0
LINE
  5
123
100
AcDbEntity
  8
M0
 62
     2
100
AcDbLine
 10
76.023812
 20
66.06942
 11
175.923812
 21
66.06942
  0
LINE
  5
124
100
AcDbEntity
  8
M0
 62
     2
100
AcDbLine
 10
76.023812
 20
145.26942
 11
76.023812
 21
66.06942
  0
LINE
  5
125
100
AcDbEntity
  8
M0
 62
     2
100
AcDbLine
 10
104.823812
 20
66.06942
 11
104.823812
 21
109.26942
  0
LINE
  5
126
100
AcDbEntity
  8
M0
 62
     2
100
AcDbLine
 10
133.623812
 20
66.06942
 11
133.623812
 21
109.26942
  0
LINE
  5
127
100
AcDbEntity
  8
M0
 62
     2
100
AcDbLine
 10
162.423812
 20
66.06942
 11
162.423812
 21
138.06942
  0
LINE
  5
128
100
AcDbEntity
  8
M0
 62
     2
100
AcDbLine
 10
76.023812
 20
80.46942
 11
175.923812
 21
80.46942
  0
LINE
  5
129
100
AcDbEntity
  8
M0
 62
     2
100
AcDbLine
 10
76.023812
 20
94.86942
 11
175.923812
 21
94.86942
  0
LINE
  5
12A
100
AcDbEntity
  8
M0
 62
     2
100
AcDbLine
 10
104.823812
 20
109.26942
 11
104.823812
 21
145.26942
  0
LINE
  5
12B
100
AcDbEntity
  8
M0
 62
     2
100
AcDbLine
 10
90.423812
 20
66.06942
 11
90.423812
 21
145.26942
  0
LINE
  5
12C
100
AcDbEntity
  8
M0
 62
     2
100
AcDbLine
 10
119.223812
 20
66.06942
 11
119.223812
 21
145.26942
  0
LINE
  5
12D
100
AcDbEntity
  8
M0
 62
     2
100
AcDbLine
 10
148.023812
 20
66.06942
 11
148.023812
 21
145.26942
  0
LINE
  5
12E
100
AcDbEntity
  8
M0
 62
     2
100
AcDbLine
 10
76.023812
 20
123.66942
 11
175.923812
 21
123.66942
  0
LINE
  5
12F
100
AcDbEntity
  8
M0
 62
     2
100
AcDbLine
 10
76.023812
 20
109.26942
 11
175.923812
 21
109.26942
  0
LINE
  5
130
100
AcDbEntity
  8
M0
 62
     2
100
AcDbLine
 10
76.023812
 20
138.06942
 11
175.923812
 21
138.06942
  0
ARC
  5
131
100
AcDbEntity
  8
M0
 62
     2
100
AcDbCircle
 10
61.026732
 20
96.34861
 40
4.8384
100
AcDbArc
 50
52.58592
 51
127.41408
  0
ARC
  5
132
100
AcDbEntity
  8
M0
 62
     2
100
AcDbCircle
 10
61.026732
 20
99.385184
 40
4.8384
100
AcDbArc
 50
232.58592
 51
307.41408
  0
TEXT
  5
133
100
AcDbEntity
  8
M0
 62
     2
100
AcDbText
 10
59.010725
 20
110.810056
 40
3.2256
  1
全
 41
1.25
  7
STANDARD
100
AcDbText
  0
TEXT
  5
134
100
AcDbEntity
  8
M0
 62
     2
100
AcDbText
 10
59.010725
 20
107.261896
 40
3.2256
  1
揚
 41
1.25
  7
STANDARD
100
AcDbText
  0
TEXT
  5
135
100
AcDbEntity
  8
M0
 62
     2
100
AcDbText
 10
59.010725
 20
103.713736
 40
3.2256
  1
程
 41
1.25
  7
STANDARD
100
AcDbText
  0
TEXT
  5
136
100
AcDbEntity
  8
M0
 62
     2
100
AcDbText
 10
59.010725
 20
100.165577
 40
3.2256
  1
　
 41
1.25
  7
STANDARD
100
AcDbText
  0
TEXT
  5
137
100
AcDbEntity
  8
M0
 62
     2
100
AcDbText
 10
59.010725
 20
96.617417
 40
3.2256
  1
ｍ
 41
1.25
  7
STANDARD
100
AcDbText
  0
TEXT
  5
138
100
AcDbEntity
  8
M0
 62
     2
100
AcDbText
 10
67.455632
 20
107.217392
 40
4.32
  1
３０
 41
0.611111
  7
STANDARD
100
AcDbText
  0
TEXT
  5
139
100
AcDbEntity
  8
M0
 62
     2
100
AcDbText
 10
67.455632
 20
92.817392
 40
4.32
  1
２０
 41
0.611111
  7
STANDARD
100
AcDbText
  0
TEXT
  5
13A
100
AcDbEntity
  8
M0
 62
     2
100
AcDbText
 10
67.455632
 20
78.417391
 40
4.32
  1
１０
 41
0.611111
  7
STANDARD
100
AcDbText
  0
TEXT
  5
13B
100
AcDbEntity
  8
M0
 62
     2
100
AcDbText
 10
70.335629
 20
64.017391
 40
4.32
  1
０
 41
0.611111
  7
STANDARD
100
AcDbText
  0
TEXT
  5
13C
100
AcDbEntity
  8
M0
 62
     2
100
AcDbText
 10
73.215626
 20
58.831584
 40
4.32
  1
０
 41
0.611111
  7
STANDARD
100
AcDbText
  0
TEXT
  5
13D
100
AcDbEntity
  8
M0
 62
     2
100
AcDbText
 10
102.015629
 20
58.831584
 40
4.32
  1
２０
 41
0.611111
  7
STANDARD
100
AcDbText
  0
TEXT
  5
13E
100
AcDbEntity
  8
M0
 62
     2
100
AcDbText
 10
130.815632
 20
58.831584
 40
4.32
  1
４０
 41
0.611111
  7
STANDARD
100
AcDbText
  0
TEXT
  5
13F
100
AcDbEntity
  8
M0
 62
     2
100
AcDbText
 10
111.690506
 20
51.601875
 40
4.8384
  1
揚水量（Ｌ／分）
 41
0.611111
  7
STANDARD
100
AcDbText
  0
TEXT
  5
140
100
AcDbEntity
  8
M0
 62
     2
100
AcDbText
 10
159.61563
 20
58.831584
 40
4.32
  1
６０
 41
0.611111
  7
STANDARD
100
AcDbText
  0
TEXT
  5
141
100
AcDbEntity
  8
M0
 62
     2
100
AcDbText
 10
87.615628
 20
58.831584
 40
4.32
  1
１０
 41
0.611111
  7
STANDARD
100
AcDbText
  0
TEXT
  5
142
100
AcDbEntity
  8
M0
 62
     2
100
AcDbText
 10
116.415635
 20
58.831584
 40
4.32
  1
３０
 41
0.611111
  7
STANDARD
100
AcDbText
  0
TEXT
  5
143
100
AcDbEntity
  8
M0
 62
     2
100
AcDbText
 10
145.215626
 20
58.831584
 40
4.32
  1
５０
 41
0.611111
  7
STANDARD
100
AcDbText
  0
TEXT
  5
144
100
AcDbEntity
  8
M0
 62
     2
100
AcDbText
 10
67.455632
 20
121.617393
 40
4.32
  1
４０
 41
0.611111
  7
STANDARD
100
AcDbText
  0
TEXT
  5
145
100
AcDbEntity
  8
M0
 62
     2
100
AcDbText
 10
67.455632
 20
136.017395
 40
4.32
  1
５０
 41
0.611111
  7
STANDARD
100
AcDbText
  0
LINE
  5
146
100
AcDbEntity
  8
M0
 62
     2
100
AcDbLine
 10
133.623812
 20
118.450274
 11
133.623812
 21
145.26942
  0
TEXT
  5
147
100
AcDbEntity
  8
M0
 62
     2
100
AcDbText
 10
78.087746
 20
45.45581
 40
4.32
  1
※破線部域では６０ｋＰａの圧力変動があります。
 41
0.652006
  7
STANDARD
100
AcDbText
  0
TEXT
  5
148
100
AcDbEntity
  8
M0
 62
     2
100
AcDbText
 10
120.777365
 20
111.693481
 40
4.32
  1
吸上高さ１２ｍ時
 41
0.590278
  7
STANDARD
100
AcDbText
  0
TEXT
  5
149
100
AcDbEntity
  8
M0
 62
     2
100
AcDbText
 10
152.447428
 20
139.02713
 40
4.32
  1
圧力管径：２５ｍｍ
 41
0.590278
  7
STANDARD
100
AcDbText
  0
TEXT
  5
14A
100
AcDbEntity
  8
M0
 62
     2
100
AcDbText
 10
152.447428
 20
144.421211
 40
4.32
  1
吸込管径：３０ｍｍ
 41
0.590278
  7
STANDARD
100
AcDbText
  0
LINE
  5
14B
100
AcDbEntity
  8
M0
 62
     2
100
AcDbLine
 10
87.253043
 20
151.698325
 11
87.253044
 21
156.882325
  0
LINE
  5
14C
100
AcDbEntity
  8
M0
 62
     2
100
AcDbLine
 10
87.253044
 20
156.882325
 11
109.357042
 21
156.882325
  0
LINE
  5
14D
100
AcDbEntity
  8
M0
 62
     2
100
AcDbLine
 10
109.357042
 20
156.882325
 11
109.35704
 21
151.698325
  0
LINE
  5
14E
100
AcDbEntity
  8
M0
 62
     2
100
AcDbLine
 10
109.35704
 20
151.698325
 11
87.253043
 21
151.698325
  0
TEXT
  5
14F
100
AcDbEntity
  8
M0
 62
     2
100
AcDbText
 10
87.850043
 20
152.130325
 40
4.32
  1
　深井戸配管　　　標準ジェット（Ｊ４０－６Ｗ）使用時
 41
0.590278
  7
STANDARD
100
AcDbText
  0
ENDSEC
  0
SECTION
  2
OBJECTS
  0
DICTIONARY
  5
C
100
AcDbDictionary
  3
ACAD_GROUP
350
D
  3
ACAD_MLINESTYLE
350
E
  0
DICTIONARY
  5
D
102
{ACAD_REACTORS
330
C
102
}
100
AcDbDictionary
  0
DICTIONARY
  5
E
102
{ACAD_REACTORS
330
C
102
}
100
AcDbDictionary
  3
STANDARD
350
13
  0
MLINESTYLE
  5
13
102
{ACAD_REACTORS
330
E
102
}
100
AcDbMlineStyle
  2
STANDARD
 70
     0
  3

 62
     0
 51
90.0
 52
90.0
 71
     2
 49
0.5
 62
   256
  6
BYLAYER
 49
-0.5
 62
   256
  6
BYLAYER
  0
ENDSEC
  0
EOF
