  0
SECTION
  2
HEADER
  9
$ACADVER
  1
AC1012
  9
$INSBASE
 10
0.000000
 20
0.000000
 30
0.0
  9
$VIEWCTR
 10
7.531722
 20
4.5
  9
$VIEWSIZE
 40
9.0
  9
$SNAPMODE
 70
     0
  9
$SNAPUNIT
 10
1.0
 20
1.0
  9
$SNAPBASE
 10
0.0
 20
0.0
  9
$SNAPANG
 50
0.0
  9
$SNAPSTYLE
 70
     0
  9
$SNAPISOPAIR
 70
     0
  9
$GRIDMODE
 70
     0
  9
$GRIDUNIT
 10
0.0
 20
0.0
  9
$ORTHOMODE
 70
     0
  9
$REGENMODE
 70
     1
  9
$FILLMODE
 70
     1
  9
$QTEXTMODE
 70
     0
  9
$DRAGMODE
 70
     2
  9
$LTSCALE
  40
     1.000000
  9
$OSMODE
 70
     0
  9
$ATTMODE
 70
     1
  9
$TEXTSIZE
 40
0.2
  9
$TRACEWID
 40
0.05
  9
$TEXTSTYLE
  7
STANDARD
  9
$CELTYPE
  6
BYLAYER
  9
$CECOLOR
 62
   256
  9
$DIMSCALE
 40
1.0
  9
$DIMASZ
 40
0.18
  9
$DIMEXO
 40
0.0625
  9
$DIMDLI
 40
0.38
  9
$DIMRND
 40
0.0
  9
$DIMDLE
 40
0.0
  9
$DIMEXE
 40
0.18
  9
$DIMTP
 40
0.0
  9
$DIMTM
 40
0.0
  9
$DIMTXT
 40
0.18
  9
$DIMCEN
 40
0.09
  9
$DIMTSZ
 40
0.0
  9
$DIMTOL
 70
     0
  9
$DIMLIM
 70
     0
  9
$DIMTIH
 70
     1
  9
$DIMTOH
 70
     1
  9
$DIMSE1
 70
     0
  9
$DIMSE2
 70
     0
  9
$DIMTAD
 70
     0
  9
$DIMZIN
 70
     0
  9
$DIMBLK
  1

  9
$LUNITS
 70
     2
  9
$LUPREC
 70
     4
  9
$AXISMODE
 70
     0
  9
$AXISUNIT
 10
0.0
 20
0.0
  9
$SKETCHINC
 40
0.1
  9
$FILLETRAD
 40
0.0
  9
$AUNITS
 70
     0
  9
$AUPREC
 70
     0
  9
$MENU
  1
ACAD
  9
$ELEVATION
 40
0.0
  9
$THICKNESS
 40
0.0
  9
$VIEWDIR
 10
0.0
 20
0.0
 30
1.0
  9
$LIMCHECK
 70
     0
  9
$BLIPMODE
 70
     1
  9
$CHAMFERA
 40
0.0
  9
$CHAMFERB
 40
0.0
  9
$FASTZOOM
 70
     1
  9
$SKPOLY
 70
     0
  9
$TDCREATE
 40
0000000.0000000000
  9
$TDUPDATE
 40
0000000.0000000000
  9
$TDINDWG
 40
0.0000000000
  9
$TDUSRTIMER
 40
0.0000000000
  9
$USRTIMER
 70
     1
  9
$ANGBASE
 50
0.0
  9
$ANGDIR
 70
     0
  9
$PDMODE
 70
     0
  9
$PDSIZE
 40
0.0
  9
$PLINEWID
 40
0.0
  9
$COORDS
 70
     0
  9
$USERI1
 70
     0
  9
$USERI2
 70
     0
  9
$USERI3
 70
     0
  9
$USERI4
 70
     0
  9
$USERI5
 70
     0
  9
$USERR1
 40
0.0
  9
$USERR2
 40
0.0
  9
$USERR3
 40
0.0
  9
$USERR4
 40
0.0
  9
$USERR5
 40
0.0
  9
$CLAYER
  8
M0
  9
$EXTMIN
 10
0.0
 20
0.0
  9
$EXTMAX
 10
420.0
 20
297.0
  9
$LIMMIN
 10
0.0
 20
0.0
  9
$LIMMAX
 10
420.0
 20
297.0
  9
$HANDSEED
  5
13E
  0
ENDSEC
  0
SECTION
  2
CLASSES
  0
ENDSEC
  0
SECTION
  2
TABLES
  0
TABLE
  2
VPORT
  5
8
100
AcDbSymbolTable
 70
     2
  0
VPORT
  5
14
100
AcDbSymbolTableRecord
100
AcDbViewportTableRecord
  2
*ACTIVE
 70
     0
 10
0.0
 20
0.0
 11
1.0
 21
1.0
 12
484.0
 22
297.0
 13
0.0
 23
0.0
 14
1.0
 24
1.0
 15
0.0
 25
0.0
 16
0.0
 26
0.0
 36
1.0
 17
0.0
 27
0.0
 37
0.0
 40
594.0
 41
2.0
 42
50.0
 43
0.0
 44
0.0
 50
0.0
 51
0.0
 71
     0
 72
   100
 73
     1
 74
     1
 75
     0
 76
     0
 77
     0
 78
     0
  0
ENDTAB
  0
TABLE
  2
LTYPE
  5
5
100
AcDbSymbolTable
 70
     5
  0
LTYPE
  5
15
100
AcDbSymbolTableRecord
100
AcDbLinetypeTableRecord
  2
BYBLOCK
 70
     0
  3

 72
    65
 73
     0
 40
0.0
  0
LTYPE
  5
16
100
AcDbSymbolTableRecord
100
AcDbLinetypeTableRecord
  2
BYLAYER
 70
     0
  3

 72
    65
 73
     0
 40
0.0
  0
LTYPE
  5
17
100
AcDbSymbolTableRecord
100
AcDbLinetypeTableRecord
  2
CONTINUOUS
 70
    64
  3
Solid line
 72
    65
 73
     0
 40
0.0
  0
LTYPE
  5
18
100
AcDbSymbolTableRecord
100
AcDbLinetypeTableRecord
  2
DASHED
 70
    64
  3
__ __ __ __ __ __ __ __ __ __ __ __ __ __ __ __
 72
    65
 73
     2
 40
0.75
 49
0.5
 74
     0
 49
-0.25
 74
     0
  0
LTYPE
  5
19
100
AcDbSymbolTableRecord
100
AcDbLinetypeTableRecord
  2
DASHDOT
 70
    64
  3
__ . __ . __ . __ . __ . __ . __ . __ . __ . __
 72
    65
 73
     4
 40
1.0
 49
0.5
 74
     0
 49
-0.25
 74
     0
 49
0.0
 74
     0
 49
-0.25
 74
     0
  0
LTYPE
  5
1A
100
AcDbSymbolTableRecord
100
AcDbLinetypeTableRecord
  2
DIVIDE
 70
    64
  3
____ . . ____ . . ____ . . ____ . . ____ . . __
 72
    65
 73
     6
 40
1.25
 49
0.5
 74
     0
 49
-0.25
 74
     0
 49
0.0
 74
     0
 49
-0.25
 74
     0
 49
0.0
 74
     0
 49
-0.25
 74
     0
  0
LTYPE
  5
1B
100
AcDbSymbolTableRecord
100
AcDbLinetypeTableRecord
  2
DOT
 70
    64
  3
. . . . . . . . . . . . . . . . . . . . . . . .
 72
    65
 73
     2
 40
0.25
 49
0.0
 74
     0
 49
-0.25
 74
     0
  0
ENDTAB
  0
TABLE
  2
LAYER
  5
2
100
AcDbSymbolTable
 70
   102
  0
LAYER
  5
F
100
AcDbSymbolTableRecord
100
AcDbLayerTableRecord
  2
0
 70
     0
 62
     7
  6
CONTINUOUS
  0
LAYER
  5
1C
100
AcDbSymbolTableRecord
100
AcDbLayerTableRecord
  2
DEFPOINTS
 70
     0
 62
     7
  6
CONTINUOUS
  0
LAYER
  5
1D
100
AcDbSymbolTableRecord
100
AcDbLayerTableRecord
  2
M0
 70
     0
 62
     3
  6
CONTINUOUS
  0
LAYER
  5
1E
100
AcDbSymbolTableRecord
100
AcDbLayerTableRecord
  2
DD0
 70
     0
 62
     4
  6
CONTINUOUS
  0
ENDTAB
  0
TABLE
  2
STYLE
  5
3
100
AcDbSymbolTable
 70
     2
  0
STYLE
  5
10
100
AcDbSymbolTableRecord
100
AcDbTextStyleTableRecord
  2
STANDARD
 70
     0
 40
0.0
 41
1.0
 50
0.0
 71
     0
 42
0.2
  3
txt
  4
BIGFONT
  0
ENDTAB
  0
TABLE
  2
VIEW
  5
6
100
AcDbSymbolTable
 70
     0
  0
ENDTAB
  0
TABLE
  2
UCS
  5
7
100
AcDbSymbolTable
 70
     0
  0
ENDTAB
  0
TABLE
  2
APPID
  5
9
100
AcDbSymbolTable
 70
     1
  0
APPID
  5
11
100
AcDbSymbolTableRecord
100
AcDbRegAppTableRecord
  2
ACAD
 70
     0
  0
ENDTAB
  0
TABLE
  2
DIMSTYLE
  5
A
100
AcDbSymbolTable
 70
     2
  0
DIMSTYLE
105
25
100
AcDbSymbolTableRecord
100
AcDbDimStyleTableRecord
  2
STANDARD
 70
     0
  3

  4

  5

  6
_OPEN
  7
_OPEN
 40
1.0
 41
3.0
 42
0.0
 43
8.0
 44
1.5
 45
0.0
 46
0.0
 47
0.0
 48
0.0
140
3.5
141
0.09
142
0.0
143
0.03937
144
1.0
145
0.0
146
1.0
147
1.0
 71
     0
 72
     0
 73
     1
 74
     1
 75
     0
 76
     0
 77
     3
 78
     8
170
     0
171
     2
172
     0
173
     1
174
     0
175
     0
176
     0
177
     0
178
     0
270
     2
271
     2
272
     4
273
     2
274
     2
340
10
275
     0
280
     0
281
     0
282
     0
283
     1
284
     0
285
     0
286
     0
287
     3
288
     0
  0
DIMSTYLE
105
26
100
AcDbSymbolTableRecord
100
AcDbDimStyleTableRecord
  2
LEADSTYL
 70
     0
  3

  4

  5

  6
_OPEN
  7
_OPEN
 40
1.0
 41
3.0
 42
0.0625
 43
0.38
 44
0.18
 45
0.0
 46
0.0
 47
0.0
 48
0.0
140
3.2
141
0.09
142
0.0
143
25.4
144
1.0
145
0.0
146
1.0
147
1.0
 71
     0
 72
     0
 73
     1
 74
     1
 75
     0
 76
     0
 77
     0
 78
     0
170
     0
171
     2
172
     0
173
     1
174
     0
175
     0
176
     0
177
     0
178
     0
270
     2
271
     4
272
     4
273
     2
274
     2
340
10
275
     0
280
     0
281
     0
282
     0
283
     1
284
     0
285
     0
286
     0
287
     3
288
     0
  0
ENDTAB
  0
TABLE
  2
BLOCK_RECORD
  5
1
100
AcDbSymbolTable
 70
     6
  0
BLOCK_RECORD
  5
1F
100
AcDbSymbolTableRecord
100
AcDbBlockTableRecord
  2
*MODEL_SPACE
  0
BLOCK_RECORD
  5
22
100
AcDbSymbolTableRecord
100
AcDbBlockTableRecord
  2
*PAPER_SPACE
  0
BLOCK_RECORD
  5
27
100
AcDbSymbolTableRecord
100
AcDbBlockTableRecord
  2
_NONE
  0
BLOCK_RECORD
  5
2B
100
AcDbSymbolTableRecord
100
AcDbBlockTableRecord
  2
_OPEN
  0
BLOCK_RECORD
  5
31
100
AcDbSymbolTableRecord
100
AcDbBlockTableRecord
  2
_CLOSED
  0
BLOCK_RECORD
  5
38
100
AcDbSymbolTableRecord
100
AcDbBlockTableRecord
  2
_ORIGIN
  0
BLOCK_RECORD
  5
3D
100
AcDbSymbolTableRecord
100
AcDbBlockTableRecord
  2
_DOT
  0
BLOCK_RECORD
  5
45
100
AcDbSymbolTableRecord
100
AcDbBlockTableRecord
  2
_OBLIQUE
  0
ENDTAB
  0
ENDSEC
  0
SECTION
  2
BLOCKS
  0
BLOCK
  5
20
100
AcDbEntity
  8
0
100
AcDbBlockBegin
  2
*MODEL_SPACE
 70
     0
 10
0.0
 20
0.0
 30
0.0
  3
*MODEL_SPACE
  1

  0
ENDBLK
  5
21
100
AcDbEntity
  8
0
100
AcDbBlockEnd
  0
BLOCK
  5
23
100
AcDbEntity
 67
     1
  8
0
100
AcDbBlockBegin
  2
*PAPER_SPACE
 70
     0
 10
0.0
 20
0.0
 30
0.0
  3
*PAPER_SPACE
  1

  0
ENDBLK
  5
24
100
AcDbEntity
 67
     1
  8
0
100
AcDbBlockEnd
  0
BLOCK
  5
28
100
AcDbEntity
  8
0
100
AcDbBlockBegin
  2
_NONE
 70
     0
 10
0.0
 20
0.0
  0
CIRCLE
  5
29
100
AcDbEntity
  8
0
 62
     0
100
AcDbCircle
 10
0.0
 20
0.0
 40
0.25
  0
ENDBLK
  5
2A
100
AcDbEntity
  8
0
100
AcDbBlockEnd
  0
BLOCK
  5
2C
100
AcDbEntity
  8
0
100
AcDbBlockBegin
  2
_OPEN
 70
     0
 10
0.0
 20
0.0
  0
LINE
  5
2D
100
AcDbEntity
  8
0
 62
     0
100
AcDbLine
 10
-0.965926
 20
0.258819
 11
0.0
 21
0.0
  0
LINE
  5
2E
100
AcDbEntity
  8
0
 62
     0
100
AcDbLine
 10
0.0
 20
0.0
 11
-0.965926
 21
-0.258819
  0
LINE
  5
2F
100
AcDbEntity
  8
0
 62
     0
100
AcDbLine
 10
0.0
 20
0.0
 11
-1.0
 21
0.0
  0
ENDBLK
  5
30
100
AcDbEntity
  8
0
100
AcDbBlockEnd
  0
BLOCK
  5
32
100
AcDbEntity
  8
0
100
AcDbBlockBegin
  2
_CLOSED
 70
     0
 10
0.0
 20
0.0
  0
LINE
  5
33
100
AcDbEntity
  8
0
 62
     0
100
AcDbLine
 10
-0.965926
 20
0.258819
 11
0.0
 21
0.0
  0
LINE
  5
34
100
AcDbEntity
  8
0
 62
     0
100
AcDbLine
 10
0.0
 20
0.0
 11
-0.965926
 21
-0.258819
  0
LINE
  5
35
100
AcDbEntity
  8
0
 62
     0
100
AcDbLine
 10
-0.965926
 20
0.258819
 11
-0.965926
 21
-0.258819
  0
LINE
  5
36
100
AcDbEntity
  8
0
 62
     0
100
AcDbLine
 10
0.0
 20
0.0
 11
-1.0
 21
0.0
  0
ENDBLK
  5
37
100
AcDbEntity
  8
0
100
AcDbBlockEnd
  0
BLOCK
  5
39
100
AcDbEntity
  8
0
100
AcDbBlockBegin
  2
_ORIGIN
 70
     0
 10
0.0
 20
0.0
  0
CIRCLE
  5
3A
100
AcDbEntity
  8
0
 62
     0
100
AcDbCircle
 10
0.0
 20
0.0
 40
0.5
  0
LINE
  5
3B
100
AcDbEntity
  8
0
 62
     0
100
AcDbLine
 10
0.0
 20
0.0
 11
-1.0
 21
0.0
  0
ENDBLK
  5
3C
100
AcDbEntity
  8
0
100
AcDbBlockEnd
  0
BLOCK
  5
3E
100
AcDbEntity
  8
0
100
AcDbBlockBegin
  2
_DOT
 70
     0
 10
0.0
 20
0.0
  0
POLYLINE
  5
3F
100
AcDbEntity
  8
0
 62
     0
100
AcDb2dPolyline
 66
     1
 70
     1
 40
0.5
 41
0.5
  0
VERTEX
  5
40
100
AcDbEntity
  8
0
 62
     0
100
AcDbVertex
100
AcDb2dVertex
 10
-0.25
 20
0.0
 42
1.0
  0
VERTEX
  5
41
100
AcDbEntity
  8
0
 62
     0
100
AcDbVertex
100
AcDb2dVertex
 10
0.25
 20
0.0
 42
1.0
  0
SEQEND
  5
42
100
AcDbEntity
  8
0
 62
     0
  0
LINE
  5
43
100
AcDbEntity
  8
0
 62
     0
100
AcDbLine
 10
-0.5
 20
0.0
 11
-1.0
 21
0.0
  0
ENDBLK
  5
44
100
AcDbEntity
  8
0
100
AcDbBlockEnd
  0
BLOCK
  5
46
100
AcDbEntity
  8
0
100
AcDbBlockBegin
  2
_OBLIQUE
 70
     0
 10
0.0
 20
0.0
  0
LINE
  5
47
100
AcDbEntity
  8
0
 62
     0
100
AcDbLine
 10
-0.353553
 20
-0.353553
 11
0.353553
 21
0.353553
  0
ENDBLK
  5
48
100
AcDbEntity
  8
0
100
AcDbBlockEnd
  0
ENDSEC
  0
SECTION
  2
ENTITIES
  0
LEADER
  5
49
100
AcDbEntity
  8
DD0
100
AcDbLeader
  3
LEADSTYL
 76
     3
 10
46.968693
 20
243.39386
 10
55.531857
 20
255.993851
 10
106.53186
 20
255.993851
340
4A
 77
     4
  0
TEXT
  5
4A
100
AcDbEntity
  8
DD0
100
AcDbText
 10
56.823523
 20
256.993835
 40
3.5
  1
「高」ＯＦＦ圧　３４０ｋＰａ
 41
0.833333
  7
STANDARD
100
AcDbText
  0
LEADER
  5
4B
100
AcDbEntity
  8
DD0
100
AcDbLeader
  3
LEADSTYL
 76
     3
 10
60.874245
 20
229.39386
 10
68.115974
 20
247.767471
 10
122.615974
 20
247.767471
340
4C
 77
     4
  0
TEXT
  5
4C
100
AcDbEntity
  8
DD0
100
AcDbText
 10
69.407641
 20
248.767471
 40
3.5
  1
「標準」ＯＦＦ圧　２４０ｋＰａ
 41
0.833333
  7
STANDARD
100
AcDbText
  0
LEADER
  5
4D
100
AcDbEntity
  8
DD0
100
AcDbLeader
  3
LEADSTYL
 76
     3
 10
167.181747
 20
147.405746
 10
169.774857
 20
151.144684
 10
224.274857
 20
151.144684
340
4E
 77
     4
  0
TEXT
  5
4E
100
AcDbEntity
  8
DD0
100
AcDbText
 10
171.066523
 20
152.144684
 40
3.5
  1
「標準」ＯＦＦ圧　２４０ｋＰａ
 41
0.833333
  7
STANDARD
100
AcDbText
  0
LEADER
  5
4F
100
AcDbEntity
  8
DD0
100
AcDbLeader
  3
LEADSTYL
 76
     3
 10
46.597015
 20
132.005753
 10
55.433121
 20
148.80574
 10
109.933121
 20
148.80574
340
50
 77
     4
  0
TEXT
  5
50
100
AcDbEntity
  8
DD0
100
AcDbText
 10
56.724787
 20
149.80574
 40
3.5
  1
「標準」ＯＦＦ圧　２４０ｋＰａ
 41
0.833333
  7
STANDARD
100
AcDbText
  0
LEADER
  5
51
100
AcDbEntity
  8
DD0
100
AcDbLeader
  3
LEADSTYL
 76
     3
 10
192.030167
 20
236.39386
 10
196.633774
 20
249.082733
 10
251.133774
 20
249.082733
340
52
 77
     4
  0
TEXT
  5
52
100
AcDbEntity
  8
DD0
100
AcDbText
 10
197.92544
 20
250.082733
 40
3.5
  1
「標準」ＯＦＦ圧　２４０ｋＰａ
 41
0.833333
  7
STANDARD
100
AcDbText
  0
LEADER
  5
53
100
AcDbEntity
  8
DD0
100
AcDbLeader
  3
LEADSTYL
 76
     3
 10
170.045639
 20
250.39386
 10
167.321075
 20
255.993851
 10
218.321075
 20
255.993851
340
54
 77
     4
  0
TEXT
  5
54
100
AcDbEntity
  8
DD0
100
AcDbText
 10
168.612742
 20
256.993835
 40
3.5
  1
「高」ＯＦＦ圧　３４０ｋＰａ
 41
0.833333
  7
STANDARD
100
AcDbText
  0
LEADER
  5
55
100
AcDbEntity
  8
DD0
100
AcDbLeader
  3
LEADSTYL
 76
     3
 10
289.134155
 20
132.005753
 10
295.53186
 20
148.805756
 10
350.03186
 20
148.805756
340
56
 77
     4
  0
TEXT
  5
56
100
AcDbEntity
  8
DD0
100
AcDbText
 10
296.823527
 20
149.805756
 40
3.5
  1
「標準」ＯＦＦ圧　２４０ｋＰａ
 41
0.833333
  7
STANDARD
100
AcDbText
  0
LEADER
  5
57
100
AcDbEntity
  8
DD0
100
AcDbLeader
  3
LEADSTYL
 76
     3
 10
92.263359
 20
223.793854
 10
96.64724
 20
240.124924
 10
147.647232
 20
240.124924
340
58
 77
     4
  0
TEXT
  5
58
100
AcDbEntity
  8
DD0
100
AcDbText
 10
97.938906
 20
241.124924
 40
3.5
  1
「低」ＯＦＦ圧　２００ｋＰａ
 41
0.833333
  7
STANDARD
100
AcDbText
  0
LEADER
  5
59
100
AcDbEntity
  8
DD0
100
AcDbLeader
  3
LEADSTYL
 76
     3
 10
209.370819
 20
230.793854
 10
223.847473
 20
238.746628
 10
274.847473
 20
238.746628
340
5A
 77
     4
  0
TEXT
  5
5A
100
AcDbEntity
  8
DD0
100
AcDbText
 10
225.13914
 20
239.746628
 40
3.5
  1
「低」ＯＦＦ圧　２００ｋＰａ
 41
0.833333
  7
STANDARD
100
AcDbText
  0
LEADER
  5
5B
100
AcDbEntity
  8
DD0
100
AcDbLeader
  3
LEADSTYL
 76
     3
 10
61.64608
 20
126.405746
 10
77.628059
 20
142.763809
 10
128.628067
 20
142.763809
340
5C
 77
     4
  0
TEXT
  5
5C
100
AcDbEntity
  8
DD0
100
AcDbText
 10
78.919726
 20
143.763809
 40
3.5
  1
「低」ＯＦＦ圧　２００ｋＰａ
 41
0.833333
  7
STANDARD
100
AcDbText
  0
LEADER
  5
5D
100
AcDbEntity
  8
DD0
100
AcDbLeader
  3
LEADSTYL
 76
     3
 10
175.466934
 20
141.805756
 10
184.364197
 20
145.570465
 10
235.364197
 20
145.570465
340
5E
 77
     4
  0
TEXT
  5
5E
100
AcDbEntity
  8
DD0
100
AcDbText
 10
185.655863
 20
146.570465
 40
3.5
  1
「低」ＯＦＦ圧　２００ｋＰａ
 41
0.833333
  7
STANDARD
100
AcDbText
  0
LEADER
  5
5F
100
AcDbEntity
  8
DD0
100
AcDbLeader
  3
LEADSTYL
 76
     3
 10
290.897186
 20
126.405746
 10
303.985107
 20
138.928848
 10
354.985107
 20
138.928848
340
60
 77
     4
  0
TEXT
  5
60
100
AcDbEntity
  8
DD0
100
AcDbText
 10
305.276774
 20
139.928848
 40
3.5
  1
「低」ＯＦＦ圧　２００ｋＰａ
 41
0.833333
  7
STANDARD
100
AcDbText
  0
LINE
  5
61
100
AcDbEntity
  8
M0
 62
   234
100
AcDbLine
 10
281.531855
 20
120.805749
 11
342.240854
 21
120.805749
  0
LINE
  5
62
100
AcDbEntity
  8
M0
 62
   234
100
AcDbLine
 10
309.531855
 20
136.205749
 11
309.531855
 21
64.805749
  0
LINE
  5
63
100
AcDbEntity
  8
M0
 62
   234
100
AcDbLine
 10
281.531855
 20
106.805749
 11
342.240854
 21
106.805749
  0
LINE
  5
64
100
AcDbEntity
  8
M0
 62
   234
100
AcDbLine
 10
337.531855
 20
64.805749
 11
337.531855
 21
136.205749
  0
LINE
  5
65
100
AcDbEntity
  8
M0
 62
   234
100
AcDbLine
 10
342.240854
 20
64.805749
 11
281.531855
 21
64.805749
  0
LINE
  5
66
100
AcDbEntity
  8
M0
 62
   234
100
AcDbLine
 10
281.531855
 20
78.805749
 11
342.240854
 21
78.805749
  0
LINE
  5
67
100
AcDbEntity
  8
M0
 62
   234
100
AcDbLine
 10
281.531855
 20
92.805749
 11
342.240854
 21
92.805749
  0
LINE
  5
68
100
AcDbEntity
  8
M0
 62
   234
100
AcDbLine
 10
295.531855
 20
146.061612
 11
295.531855
 21
64.805749
  0
LINE
  5
69
100
AcDbEntity
  8
M0
 62
   234
100
AcDbLine
 10
281.531855
 20
151.605749
 11
281.531855
 21
64.805749
  0
LINE
  5
6A
100
AcDbEntity
  8
M0
 62
   234
100
AcDbLine
 10
281.531855
 20
92.805749
 11
334.107681
 21
92.805749
  0
LINE
  5
6B
100
AcDbEntity
  8
M0
 62
   234
100
AcDbLine
 10
281.531855
 20
134.805749
 11
342.240854
 21
134.805749
  0
LINE
  5
6C
100
AcDbEntity
  8
M0
 62
   234
100
AcDbLine
 10
281.531855
 20
148.805749
 11
293.455688
 21
148.805749
  0
LINE
  5
6D
100
AcDbEntity
  8
M0
 62
   234
100
AcDbLine
 10
323.531855
 20
136.205749
 11
323.531855
 21
64.805749
  0
TEXT
  5
6E
100
AcDbEntity
  8
M0
100
AcDbText
 10
309.683707
 20
55.632212
 40
3.6
  1
揚水量（Ｌ／分）
 41
0.63786
  7
STANDARD
100
AcDbText
  0
TEXT
  5
6F
100
AcDbEntity
  8
M0
100
AcDbText
 10
279.86447
 20
161.314805
 40
3.528
  1
【深井戸用特殊ジェットＪ４０－２４ＳＸ組合わせ時】
 41
0.777778
  7
STANDARD
100
AcDbText
  0
TEXT
  5
70
100
AcDbEntity
  8
M0
100
AcDbText
 10
283.291667
 20
156.379636
 40
3.528
  1
吸上高さ２４ｍ
 41
0.777778
  7
STANDARD
100
AcDbText
  0
TEXT
  5
71
100
AcDbEntity
  8
M0
100
AcDbText
 10
62.683707
 20
55.632212
 40
3.6
  1
揚水量（Ｌ／分）
 41
0.63786
  7
STANDARD
100
AcDbText
  0
LINE
  5
72
100
AcDbEntity
  8
M0
 62
   234
100
AcDbLine
 10
41.531855
 20
255.993853
 11
41.531855
 21
185.993853
  0
LINE
  5
73
100
AcDbEntity
  8
M0
 62
   234
100
AcDbLine
 10
128.331855
 20
185.993853
 11
41.531855
 21
185.993853
  0
LINE
  5
74
100
AcDbEntity
  8
M0
 62
   234
100
AcDbLine
 10
55.531855
 20
254.037967
 11
55.531855
 21
185.993853
  0
LINE
  5
75
100
AcDbEntity
  8
M0
 62
   234
100
AcDbLine
 10
41.531855
 20
199.993853
 11
128.331855
 21
199.993853
  0
LINE
  5
76
100
AcDbEntity
  8
M0
 62
   234
100
AcDbLine
 10
41.531855
 20
213.993853
 11
94.107681
 21
213.993853
  0
LINE
  5
77
100
AcDbEntity
  8
M0
 62
   234
100
AcDbLine
 10
41.531855
 20
227.993853
 11
88.797238
 21
227.993853
  0
LINE
  5
78
100
AcDbEntity
  8
M0
 62
   234
100
AcDbLine
 10
41.531855
 20
213.993853
 11
128.331855
 21
213.993853
  0
LINE
  5
79
100
AcDbEntity
  8
M0
 62
   234
100
AcDbLine
 10
97.531855
 20
185.993853
 11
97.531855
 21
237.155748
  0
LINE
  5
7A
100
AcDbEntity
  8
M0
 62
   234
100
AcDbLine
 10
41.531855
 20
241.993853
 11
66.707972
 21
241.993853
  0
LINE
  5
7B
100
AcDbEntity
  8
M0
 62
   234
100
AcDbLine
 10
111.531855
 20
185.993853
 11
111.531855
 21
237.155748
  0
LINE
  5
7C
100
AcDbEntity
  8
M0
 62
   234
100
AcDbLine
 10
125.531855
 20
185.993853
 11
125.531855
 21
237.155748
  0
LINE
  5
7D
100
AcDbEntity
  8
M0
 62
   234
100
AcDbLine
 10
41.531855
 20
255.993853
 11
53.292393
 21
255.993853
  0
LINE
  5
7E
100
AcDbEntity
  8
M0
 62
   234
100
AcDbLine
 10
83.531855
 20
237.155748
 11
83.531855
 21
185.993853
  0
LINE
  5
7F
100
AcDbEntity
  8
M0
 62
   234
100
AcDbLine
 10
69.531855
 20
238.521153
 11
69.531855
 21
185.993853
  0
LINE
  5
80
100
AcDbEntity
  8
M0
  6
DASHED
 62
     1
100
AcDbLine
 10
41.531855
 20
243.393853
 11
52.405532
 21
243.393853
  0
ARC
  5
81
100
AcDbEntity
  8
M0
 62
     1
100
AcDbCircle
 10
52.405532
 20
241.993853
 40
1.4
100
AcDbArc
 50
63.75865
 51
90.0
  0
CIRCLE
  5
82
100
AcDbEntity
  8
M0
 62
     1
100
AcDbCircle
 10
41.531855
 20
139.425749
 40
0.5
  0
LINE
  5
83
100
AcDbEntity
  8
M0
  6
DASHED
 62
     1
100
AcDbLine
 10
48.065243
 20
139.425749
 11
38.216395
 21
139.425749
  0
LINE
  5
84
100
AcDbEntity
  8
M0
  6
DASHED
 62
     2
100
AcDbLine
 10
41.531855
 20
229.393853
 11
86.749036
 21
229.393853
  0
ARC
  5
85
100
AcDbEntity
  8
M0
 62
     2
100
AcDbCircle
 10
86.749036
 20
226.593853
 40
2.8
100
AcDbArc
 50
67.985497
 51
90.0
  0
TEXT
  5
86
100
AcDbEntity
  8
M0
100
AcDbText
 10
39.864471
 20
267.902903
 40
3.528
  1
【標準ジェットＪ７５－７Ｙ組合わせ時】
 41
0.777778
  7
STANDARD
100
AcDbText
  0
TEXT
  5
87
100
AcDbEntity
  8
M0
100
AcDbText
 10
43.29168
 20
262.967734
 40
3.528
  1
吸上高さ７ｍ
 41
0.777778
  7
STANDARD
100
AcDbText
  0
TEXT
  5
88
100
AcDbEntity
  8
M0
100
AcDbText
 10
40.372448
 20
181.320774
 40
3.6
  1
０
 41
0.601852
  7
STANDARD
100
AcDbText
  0
TEXT
  5
89
100
AcDbEntity
  8
M0
100
AcDbText
 10
53.390038
 20
181.320774
 40
3.6
  1
１０
 41
0.601852
  7
STANDARD
100
AcDbText
  0
TEXT
  5
8A
100
AcDbEntity
  8
M0
100
AcDbText
 10
67.390038
 20
181.320774
 40
3.6
  1
２０
 41
0.601852
  7
STANDARD
100
AcDbText
  0
TEXT
  5
8B
100
AcDbEntity
  8
M0
100
AcDbText
 10
81.390038
 20
181.320774
 40
3.6
  1
３０
 41
0.601852
  7
STANDARD
100
AcDbText
  0
TEXT
  5
8C
100
AcDbEntity
  8
M0
100
AcDbText
 10
95.390032
 20
181.320774
 40
3.6
  1
４０
 41
0.601852
  7
STANDARD
100
AcDbText
  0
TEXT
  5
8D
100
AcDbEntity
  8
M0
100
AcDbText
 10
109.390032
 20
181.320774
 40
3.6
  1
５０
 41
0.601852
  7
STANDARD
100
AcDbText
  0
TEXT
  5
8E
100
AcDbEntity
  8
M0
100
AcDbText
 10
123.390032
 20
181.320774
 40
3.6
  1
６０
 41
0.601852
  7
STANDARD
100
AcDbText
  0
TEXT
  5
8F
100
AcDbEntity
  8
M0
100
AcDbText
 10
69.683707
 20
176.820316
 40
3.6
  1
揚水量（Ｌ／分）
 41
0.63786
  7
STANDARD
100
AcDbText
  0
TEXT
  5
90
100
AcDbEntity
  8
M0
100
AcDbText
 10
38.256579
 20
183.920774
 40
3.6
  1
０
 41
0.601852
  7
STANDARD
100
AcDbText
  0
TEXT
  5
91
100
AcDbEntity
  8
M0
100
AcDbText
 10
35.907836
 20
198.28483
 40
3.6
  1
１０
 41
0.601852
  7
STANDARD
100
AcDbText
  0
TEXT
  5
92
100
AcDbEntity
  8
M0
100
AcDbText
 10
35.907836
 20
212.284836
 40
3.6
  1
２０
 41
0.601852
  7
STANDARD
100
AcDbText
  0
TEXT
  5
93
100
AcDbEntity
  8
M0
100
AcDbText
 10
35.907836
 20
226.284836
 40
3.6
  1
３０
 41
0.601852
  7
STANDARD
100
AcDbText
  0
TEXT
  5
94
100
AcDbEntity
  8
M0
100
AcDbText
 10
35.806286
 20
240.196738
 40
3.6
  1
４０
 41
0.601852
  7
STANDARD
100
AcDbText
  0
TEXT
  5
95
100
AcDbEntity
  8
M0
100
AcDbText
 10
35.806286
 20
254.196738
 40
3.6
  1
５０
 41
0.601852
  7
STANDARD
100
AcDbText
  0
TEXT
  5
96
100
AcDbEntity
  8
M0
100
AcDbText
 10
33.319319
 20
206.785317
 40
3.6
  1
（　）
 50
90.000003
 41
0.63786
  7
STANDARD
100
AcDbText
  0
TEXT
  5
97
100
AcDbEntity
  8
M0
100
AcDbText
 10
30.050899
 20
224.393853
 40
3.6
  1
全
 41
0.833333
  7
STANDARD
100
AcDbText
  0
TEXT
  5
98
100
AcDbEntity
  8
M0
100
AcDbText
 10
30.050899
 20
220.638298
 40
3.6
  1
揚
 41
0.833333
  7
STANDARD
100
AcDbText
  0
TEXT
  5
99
100
AcDbEntity
  8
M0
100
AcDbText
 10
30.050899
 20
216.882742
 40
3.6
  1
程
 41
0.833333
  7
STANDARD
100
AcDbText
  0
TEXT
  5
9A
100
AcDbEntity
  8
M0
100
AcDbText
 10
30.050899
 20
213.127187
 40
3.6
  1
　
 41
0.833333
  7
STANDARD
100
AcDbText
  0
TEXT
  5
9B
100
AcDbEntity
  8
M0
100
AcDbText
 10
30.050899
 20
209.371631
 40
3.6
  1
ｍ
 41
0.833333
  7
STANDARD
100
AcDbText
  0
LINE
  5
9C
100
AcDbEntity
  8
M0
100
AcDbLine
 10
53.024547
 20
243.249568
 11
113.456633
 21
218.815625
  0
ARC
  5
9D
100
AcDbEntity
  8
M0
100
AcDbCircle
 10
100.871745
 20
222.393853
 40
1.4
100
AcDbArc
 50
67.985497
 51
90.0
  0
LINE
  5
9E
100
AcDbEntity
  8
M0
  6
DASHED
 62
     2
100
AcDbLine
 10
161.531855
 20
147.405749
 11
172.831642
 21
147.405749
  0
LINE
  5
9F
100
AcDbEntity
  8
M0
100
AcDbLine
 10
174.098388
 20
146.601865
 11
176.798601
 21
140.863913
  0
ARC
  5
A0
100
AcDbEntity
  8
M0
100
AcDbCircle
 10
175.466936
 20
140.405749
 40
1.4
100
AcDbArc
 50
25.201124
 51
90.0
  0
ARC
  5
A1
100
AcDbEntity
  8
M0
100
AcDbCircle
 10
172.831642
 20
146.005749
 40
1.4
100
AcDbArc
 50
25.201124
 51
90.0
  0
LINE
  5
A2
100
AcDbEntity
  8
M0
  6
DASHED
 62
     2
100
AcDbLine
 10
41.531855
 20
132.005749
 11
62.13034
 21
132.005749
  0
LINE
  5
A3
100
AcDbEntity
  8
M0
100
AcDbLine
 10
181.131855
 20
250.393853
 11
210.531855
 21
239.193853
  0
LINE
  5
A4
100
AcDbEntity
  8
M0
100
AcDbLine
 10
210.531855
 20
239.193853
 11
231.068405
 21
220.710957
  0
ARC
  5
A5
100
AcDbEntity
  8
M0
100
AcDbCircle
 10
230.131855
 20
219.670346
 40
1.4
100
AcDbArc
 50
0.0
 51
48.012788
  0
LINE
  5
A6
100
AcDbEntity
  8
M0
100
AcDbLine
 10
231.531855
 20
219.670346
 11
231.531855
 21
209.793853
  0
ARC
  5
A7
100
AcDbEntity
  8
M0
100
AcDbCircle
 10
219.327958
 20
229.393853
 40
1.4
100
AcDbArc
 50
48.012788
 51
90.0
  0
LINE
  5
A8
100
AcDbEntity
  8
M0
  6
DASHED
 62
     2
100
AcDbLine
 10
161.531855
 20
236.393853
 11
213.105735
 21
236.393853
  0
ARC
  5
A9
100
AcDbEntity
  8
M0
 62
     2
100
AcDbCircle
 10
213.105735
 20
234.993853
 40
1.4
100
AcDbArc
 50
48.012788
 51
90.0
  0
TEXT
  5
AA
100
AcDbEntity
  8
M0
100
AcDbText
 10
163.291674
 20
262.967734
 40
3.528
  1
吸上高さ１２ｍ
 41
0.777778
  7
STANDARD
100
AcDbText
  0
TEXT
  5
AB
100
AcDbEntity
  8
M0
100
AcDbText
 10
159.864464
 20
267.902903
 40
3.528
  1
【標準ジェットＪ７５－７Ｙ組合わせ時】
 41
0.777778
  7
STANDARD
100
AcDbText
  0
TEXT
  5
AC
100
AcDbEntity
  8
M0
100
AcDbText
 10
39.864469
 20
161.314805
 40
3.528
  1
【浅井戸ジェットＪ７５－２４Ｘ組合わせ時】
 41
0.777778
  7
STANDARD
100
AcDbText
  0
TEXT
  5
AD
100
AcDbEntity
  8
M0
100
AcDbText
 10
43.291672
 20
156.379636
 40
3.528
  1
吸上高さ２４ｍ
 41
0.777778
  7
STANDARD
100
AcDbText
  0
TEXT
  5
AE
100
AcDbEntity
  8
M0
100
AcDbText
 10
163.291672
 20
156.379636
 40
3.528
  1
吸上高さ３５ｍ
 41
0.777778
  7
STANDARD
100
AcDbText
  0
TEXT
  5
AF
100
AcDbEntity
  8
M0
100
AcDbText
 10
159.864475
 20
161.314805
 40
3.528
  1
【浅井戸ジェットＪ７５－３５Ｘ組合わせ時】
 41
0.777778
  7
STANDARD
100
AcDbText
  0
TEXT
  5
B0
100
AcDbEntity
  8
M0
100
AcDbText
 10
32.406432
 20
275.058005
 40
7.0
  1
揚水性能
 41
0.780952
  7
STANDARD
100
AcDbText
  0
LINE
  5
B1
100
AcDbEntity
  8
M0
  6
DASHED
 62
     1
100
AcDbLine
 10
161.531855
 20
250.393853
 11
181.131855
 21
250.393853
  0
TEXT
  5
B2
100
AcDbEntity
  8
M0
100
AcDbText
 10
153.319319
 20
206.785317
 40
3.6
  1
（　）
 50
90.000003
 41
0.63786
  7
STANDARD
100
AcDbText
  0
TEXT
  5
B3
100
AcDbEntity
  8
M0
100
AcDbText
 10
150.050899
 20
224.393853
 40
3.6
  1
全
 41
0.833333
  7
STANDARD
100
AcDbText
  0
TEXT
  5
B4
100
AcDbEntity
  8
M0
100
AcDbText
 10
150.050899
 20
220.638298
 40
3.6
  1
揚
 41
0.833333
  7
STANDARD
100
AcDbText
  0
TEXT
  5
B5
100
AcDbEntity
  8
M0
100
AcDbText
 10
150.050899
 20
216.882742
 40
3.6
  1
程
 41
0.833333
  7
STANDARD
100
AcDbText
  0
TEXT
  5
B6
100
AcDbEntity
  8
M0
100
AcDbText
 10
150.050899
 20
213.127187
 40
3.6
  1
　
 41
0.833333
  7
STANDARD
100
AcDbText
  0
TEXT
  5
B7
100
AcDbEntity
  8
M0
100
AcDbText
 10
150.050899
 20
209.371631
 40
3.6
  1
ｍ
 41
0.833333
  7
STANDARD
100
AcDbText
  0
ARC
  5
B8
100
AcDbEntity
  8
M0
100
AcDbCircle
 10
290.655204
 20
129.380749
 40
2.625
100
AcDbArc
 50
8.130102
 51
90.0
  0
LINE
  5
B9
100
AcDbEntity
  8
M0
100
AcDbLine
 10
293.253822
 20
129.75198
 11
295.514266
 21
113.928867
  0
LINE
  5
BA
100
AcDbEntity
  8
M0
100
AcDbLine
 10
295.531855
 20
113.68138
 11
295.531855
 21
98.405749
  0
ARC
  5
BB
100
AcDbEntity
  8
M0
100
AcDbCircle
 10
292.517641
 20
125.005749
 40
1.4
100
AcDbArc
 50
8.130102
 51
90.0
  0
TEXT
  5
BC
100
AcDbEntity
  8
M0
100
AcDbText
 10
40.036324
 20
32.264263
 40
3.456
  1
※破線部域では運転圧力「標準」「低」時に６０ｋＰａ、「高」時に１４０ｋＰａの圧力変動があります。
 50
-1.001791E-005
 41
0.652006
  7
STANDARD
100
AcDbText
  0
LINE
  5
BD
100
AcDbEntity
  8
M0
  6
DASHED
 62
     2
100
AcDbLine
 10
281.531855
 20
132.005749
 11
290.655204
 21
132.005749
  0
LINE
  5
BE
100
AcDbEntity
  8
M0
100
AcDbLine
 10
59.979765
 20
283.558007
 11
29.979765
 21
283.558007
  0
LINE
  5
BF
100
AcDbEntity
  8
M0
100
AcDbLine
 10
59.979765
 20
273.558007
 11
59.979765
 21
283.558007
  0
LINE
  5
C0
100
AcDbEntity
  8
M0
100
AcDbLine
 10
29.979765
 20
273.558007
 11
59.979765
 21
273.558007
  0
LINE
  5
C1
100
AcDbEntity
  8
M0
100
AcDbLine
 10
29.979765
 20
283.558007
 11
29.979765
 21
273.558007
  0
TEXT
  5
C2
100
AcDbEntity
  8
M0
100
AcDbText
 10
189.683707
 20
176.820316
 40
3.6
  1
揚水量（Ｌ／分）
 41
0.63786
  7
STANDARD
100
AcDbText
  0
TEXT
  5
C3
100
AcDbEntity
  8
M0
100
AcDbText
 10
280.372448
 20
60.13267
 40
3.6
  1
０
 41
0.601852
  7
STANDARD
100
AcDbText
  0
TEXT
  5
C4
100
AcDbEntity
  8
M0
100
AcDbText
 10
293.390035
 20
60.13267
 40
3.6
  1
１０
 41
0.601852
  7
STANDARD
100
AcDbText
  0
TEXT
  5
C5
100
AcDbEntity
  8
M0
100
AcDbText
 10
307.390038
 20
60.13267
 40
3.6
  1
２０
 41
0.601852
  7
STANDARD
100
AcDbText
  0
TEXT
  5
C6
100
AcDbEntity
  8
M0
100
AcDbText
 10
321.390035
 20
60.13267
 40
3.6
  1
３０
 41
0.601852
  7
STANDARD
100
AcDbText
  0
TEXT
  5
C7
100
AcDbEntity
  8
M0
100
AcDbText
 10
335.390032
 20
60.13267
 40
3.6
  1
４０
 41
0.601852
  7
STANDARD
100
AcDbText
  0
TEXT
  5
C8
100
AcDbEntity
  8
M0
100
AcDbText
 10
273.319319
 20
85.597212
 40
3.6
  1
（　）
 50
90.000003
 41
0.63786
  7
STANDARD
100
AcDbText
  0
TEXT
  5
C9
100
AcDbEntity
  8
M0
100
AcDbText
 10
270.050899
 20
103.205749
 40
3.6
  1
全
 41
0.833333
  7
STANDARD
100
AcDbText
  0
TEXT
  5
CA
100
AcDbEntity
  8
M0
100
AcDbText
 10
270.050899
 20
99.450193
 40
3.6
  1
揚
 41
0.833333
  7
STANDARD
100
AcDbText
  0
TEXT
  5
CB
100
AcDbEntity
  8
M0
100
AcDbText
 10
270.050899
 20
95.694638
 40
3.6
  1
程
 41
0.833333
  7
STANDARD
100
AcDbText
  0
TEXT
  5
CC
100
AcDbEntity
  8
M0
100
AcDbText
 10
270.050899
 20
91.939082
 40
3.6
  1
　
 41
0.833333
  7
STANDARD
100
AcDbText
  0
TEXT
  5
CD
100
AcDbEntity
  8
M0
100
AcDbText
 10
270.050899
 20
88.183527
 40
3.6
  1
ｍ
 41
0.833333
  7
STANDARD
100
AcDbText
  0
TEXT
  5
CE
100
AcDbEntity
  8
M0
100
AcDbText
 10
153.319319
 20
85.597212
 40
3.6
  1
（　）
 50
90.000003
 41
0.63786
  7
STANDARD
100
AcDbText
  0
TEXT
  5
CF
100
AcDbEntity
  8
M0
100
AcDbText
 10
150.050899
 20
103.205749
 40
3.6
  1
全
 41
0.833333
  7
STANDARD
100
AcDbText
  0
TEXT
  5
D0
100
AcDbEntity
  8
M0
100
AcDbText
 10
150.050899
 20
99.450193
 40
3.6
  1
揚
 41
0.833333
  7
STANDARD
100
AcDbText
  0
TEXT
  5
D1
100
AcDbEntity
  8
M0
100
AcDbText
 10
150.050899
 20
95.694638
 40
3.6
  1
程
 41
0.833333
  7
STANDARD
100
AcDbText
  0
TEXT
  5
D2
100
AcDbEntity
  8
M0
100
AcDbText
 10
150.050899
 20
91.939082
 40
3.6
  1
　
 41
0.833333
  7
STANDARD
100
AcDbText
  0
TEXT
  5
D3
100
AcDbEntity
  8
M0
100
AcDbText
 10
150.050899
 20
88.183527
 40
3.6
  1
ｍ
 41
0.833333
  7
STANDARD
100
AcDbText
  0
TEXT
  5
D4
100
AcDbEntity
  8
M0
100
AcDbText
 10
158.256579
 20
62.73267
 40
3.6
  1
０
 41
0.601852
  7
STANDARD
100
AcDbText
  0
TEXT
  5
D5
100
AcDbEntity
  8
M0
100
AcDbText
 10
155.907836
 20
77.096726
 40
3.6
  1
１０
 41
0.601852
  7
STANDARD
100
AcDbText
  0
TEXT
  5
D6
100
AcDbEntity
  8
M0
100
AcDbText
 10
155.907836
 20
91.096732
 40
3.6
  1
２０
 41
0.601852
  7
STANDARD
100
AcDbText
  0
TEXT
  5
D7
100
AcDbEntity
  8
M0
100
AcDbText
 10
155.907836
 20
105.096732
 40
3.6
  1
３０
 41
0.601852
  7
STANDARD
100
AcDbText
  0
TEXT
  5
D8
100
AcDbEntity
  8
M0
100
AcDbText
 10
155.806286
 20
119.008634
 40
3.6
  1
４０
 41
0.601852
  7
STANDARD
100
AcDbText
  0
TEXT
  5
D9
100
AcDbEntity
  8
M0
100
AcDbText
 10
155.806286
 20
133.008634
 40
3.6
  1
５０
 41
0.601852
  7
STANDARD
100
AcDbText
  0
TEXT
  5
DA
100
AcDbEntity
  8
M0
100
AcDbText
 10
155.806286
 20
147.008634
 40
3.6
  1
６０
 41
0.601852
  7
STANDARD
100
AcDbText
  0
TEXT
  5
DB
100
AcDbEntity
  8
M0
100
AcDbText
 10
175.683707
 20
55.632212
 40
3.6
  1
揚水量（Ｌ／分）
 41
0.63786
  7
STANDARD
100
AcDbText
  0
TEXT
  5
DC
100
AcDbEntity
  8
M0
100
AcDbText
 10
160.372448
 20
60.13267
 40
3.6
  1
０
 41
0.601852
  7
STANDARD
100
AcDbText
  0
TEXT
  5
DD
100
AcDbEntity
  8
M0
100
AcDbText
 10
173.390035
 20
60.13267
 40
3.6
  1
１０
 41
0.601852
  7
STANDARD
100
AcDbText
  0
TEXT
  5
DE
100
AcDbEntity
  8
M0
100
AcDbText
 10
187.390038
 20
60.13267
 40
3.6
  1
２０
 41
0.601852
  7
STANDARD
100
AcDbText
  0
TEXT
  5
DF
100
AcDbEntity
  8
M0
100
AcDbText
 10
201.390035
 20
60.13267
 40
3.6
  1
３０
 41
0.601852
  7
STANDARD
100
AcDbText
  0
TEXT
  5
E0
100
AcDbEntity
  8
M0
100
AcDbText
 10
215.390026
 20
60.13267
 40
3.6
  1
４０
 41
0.601852
  7
STANDARD
100
AcDbText
  0
TEXT
  5
E1
100
AcDbEntity
  8
M0
100
AcDbText
 10
33.319319
 20
85.597212
 40
3.6
  1
（　）
 50
90.000003
 41
0.63786
  7
STANDARD
100
AcDbText
  0
TEXT
  5
E2
100
AcDbEntity
  8
M0
100
AcDbText
 10
30.050899
 20
103.205749
 40
3.6
  1
全
 41
0.833333
  7
STANDARD
100
AcDbText
  0
TEXT
  5
E3
100
AcDbEntity
  8
M0
100
AcDbText
 10
30.050899
 20
99.450193
 40
3.6
  1
揚
 41
0.833333
  7
STANDARD
100
AcDbText
  0
TEXT
  5
E4
100
AcDbEntity
  8
M0
100
AcDbText
 10
30.050899
 20
95.694638
 40
3.6
  1
程
 41
0.833333
  7
STANDARD
100
AcDbText
  0
TEXT
  5
E5
100
AcDbEntity
  8
M0
100
AcDbText
 10
30.050899
 20
91.939082
 40
3.6
  1
　
 41
0.833333
  7
STANDARD
100
AcDbText
  0
TEXT
  5
E6
100
AcDbEntity
  8
M0
100
AcDbText
 10
30.050899
 20
88.183527
 40
3.6
  1
ｍ
 41
0.833333
  7
STANDARD
100
AcDbText
  0
TEXT
  5
E7
100
AcDbEntity
  8
M0
100
AcDbText
 10
38.256579
 20
62.73267
 40
3.6
  1
０
 41
0.601852
  7
STANDARD
100
AcDbText
  0
TEXT
  5
E8
100
AcDbEntity
  8
M0
100
AcDbText
 10
35.907836
 20
77.096726
 40
3.6
  1
１０
 41
0.601852
  7
STANDARD
100
AcDbText
  0
TEXT
  5
E9
100
AcDbEntity
  8
M0
100
AcDbText
 10
35.907836
 20
91.096732
 40
3.6
  1
２０
 41
0.601852
  7
STANDARD
100
AcDbText
  0
TEXT
  5
EA
100
AcDbEntity
  8
M0
100
AcDbText
 10
35.907836
 20
105.096732
 40
3.6
  1
３０
 41
0.601852
  7
STANDARD
100
AcDbText
  0
TEXT
  5
EB
100
AcDbEntity
  8
M0
100
AcDbText
 10
35.806286
 20
119.008634
 40
3.6
  1
４０
 41
0.601852
  7
STANDARD
100
AcDbText
  0
TEXT
  5
EC
100
AcDbEntity
  8
M0
100
AcDbText
 10
35.806286
 20
133.008634
 40
3.6
  1
５０
 41
0.601852
  7
STANDARD
100
AcDbText
  0
TEXT
  5
ED
100
AcDbEntity
  8
M0
100
AcDbText
 10
35.806286
 20
147.008634
 40
3.6
  1
６０
 41
0.601852
  7
STANDARD
100
AcDbText
  0
TEXT
  5
EE
100
AcDbEntity
  8
M0
100
AcDbText
 10
40.372448
 20
60.13267
 40
3.6
  1
０
 41
0.601852
  7
STANDARD
100
AcDbText
  0
TEXT
  5
EF
100
AcDbEntity
  8
M0
100
AcDbText
 10
53.390035
 20
60.13267
 40
3.6
  1
１０
 41
0.601852
  7
STANDARD
100
AcDbText
  0
TEXT
  5
F0
100
AcDbEntity
  8
M0
100
AcDbText
 10
67.390038
 20
60.13267
 40
3.6
  1
２０
 41
0.601852
  7
STANDARD
100
AcDbText
  0
TEXT
  5
F1
100
AcDbEntity
  8
M0
100
AcDbText
 10
81.390035
 20
60.13267
 40
3.6
  1
３０
 41
0.601852
  7
STANDARD
100
AcDbText
  0
TEXT
  5
F2
100
AcDbEntity
  8
M0
100
AcDbText
 10
95.390032
 20
60.13267
 40
3.6
  1
４０
 41
0.601852
  7
STANDARD
100
AcDbText
  0
TEXT
  5
F3
100
AcDbEntity
  8
M0
100
AcDbText
 10
160.372448
 20
181.320774
 40
3.6
  1
０
 41
0.601852
  7
STANDARD
100
AcDbText
  0
TEXT
  5
F4
100
AcDbEntity
  8
M0
100
AcDbText
 10
173.390038
 20
181.320774
 40
3.6
  1
１０
 41
0.601852
  7
STANDARD
100
AcDbText
  0
TEXT
  5
F5
100
AcDbEntity
  8
M0
100
AcDbText
 10
187.390038
 20
181.320774
 40
3.6
  1
２０
 41
0.601852
  7
STANDARD
100
AcDbText
  0
TEXT
  5
F6
100
AcDbEntity
  8
M0
100
AcDbText
 10
201.390038
 20
181.320774
 40
3.6
  1
３０
 41
0.601852
  7
STANDARD
100
AcDbText
  0
TEXT
  5
F7
100
AcDbEntity
  8
M0
100
AcDbText
 10
215.390032
 20
181.320774
 40
3.6
  1
４０
 41
0.601852
  7
STANDARD
100
AcDbText
  0
TEXT
  5
F8
100
AcDbEntity
  8
M0
100
AcDbText
 10
229.390032
 20
181.320774
 40
3.6
  1
５０
 41
0.601852
  7
STANDARD
100
AcDbText
  0
TEXT
  5
F9
100
AcDbEntity
  8
M0
100
AcDbText
 10
243.390032
 20
181.320774
 40
3.6
  1
６０
 41
0.601852
  7
STANDARD
100
AcDbText
  0
LINE
  5
FA
100
AcDbEntity
  8
M0
 62
   234
100
AcDbLine
 10
161.531855
 20
120.805749
 11
221.235814
 21
120.805749
  0
LINE
  5
FB
100
AcDbEntity
  8
M0
 62
   234
100
AcDbLine
 10
161.531855
 20
106.805749
 11
221.235814
 21
106.805749
  0
LINE
  5
FC
100
AcDbEntity
  8
M0
 62
   234
100
AcDbLine
 10
221.235814
 20
64.805749
 11
161.531855
 21
64.805749
  0
LINE
  5
FD
100
AcDbEntity
  8
M0
 62
   234
100
AcDbLine
 10
161.531855
 20
78.805749
 11
221.235814
 21
78.805749
  0
LINE
  5
FE
100
AcDbEntity
  8
M0
 62
   234
100
AcDbLine
 10
175.531855
 20
150.403154
 11
175.531855
 21
64.805749
  0
LINE
  5
FF
100
AcDbEntity
  8
M0
 62
   234
100
AcDbLine
 10
161.531855
 20
151.605749
 11
161.531855
 21
64.805749
  0
LINE
  5
100
100
AcDbEntity
  8
M0
 62
   234
100
AcDbLine
 10
161.531855
 20
92.805749
 11
221.235814
 21
92.805749
  0
LINE
  5
101
100
AcDbEntity
  8
M0
 62
   234
100
AcDbLine
 10
161.531855
 20
134.805749
 11
221.235814
 21
134.805749
  0
LINE
  5
102
100
AcDbEntity
  8
M0
 62
   234
100
AcDbLine
 10
161.531855
 20
148.805749
 11
177.714999
 21
148.805749
  0
LINE
  5
103
100
AcDbEntity
  8
M0
 62
   234
100
AcDbLine
 10
189.531855
 20
138.474272
 11
189.531855
 21
64.805749
  0
LINE
  5
104
100
AcDbEntity
  8
M0
 62
   234
100
AcDbLine
 10
203.531855
 20
138.474272
 11
203.531855
 21
64.805749
  0
LINE
  5
105
100
AcDbEntity
  8
M0
 62
   234
100
AcDbLine
 10
217.531855
 20
138.474272
 11
217.531855
 21
64.805749
  0
LINE
  5
106
100
AcDbEntity
  8
M0
 62
   234
100
AcDbLine
 10
41.531855
 20
120.805749
 11
100.331855
 21
120.805749
  0
LINE
  5
107
100
AcDbEntity
  8
M0
 62
   234
100
AcDbLine
 10
69.531855
 20
143.86463
 11
69.531855
 21
64.805749
  0
LINE
  5
108
100
AcDbEntity
  8
M0
 62
   234
100
AcDbLine
 10
41.531855
 20
106.805749
 11
100.331855
 21
106.805749
  0
LINE
  5
109
100
AcDbEntity
  8
M0
 62
   234
100
AcDbLine
 10
97.531855
 20
64.805749
 11
97.531855
 21
142.239906
  0
LINE
  5
10A
100
AcDbEntity
  8
M0
 62
   234
100
AcDbLine
 10
100.331855
 20
64.805749
 11
41.531855
 21
64.805749
  0
LINE
  5
10B
100
AcDbEntity
  8
M0
 62
   234
100
AcDbLine
 10
41.531855
 20
78.805749
 11
100.331855
 21
78.805749
  0
LINE
  5
10C
100
AcDbEntity
  8
M0
 62
   234
100
AcDbLine
 10
41.531855
 20
92.805749
 11
100.331855
 21
92.805749
  0
LINE
  5
10D
100
AcDbEntity
  8
M0
 62
   234
100
AcDbLine
 10
55.531855
 20
143.735249
 11
55.531855
 21
64.805749
  0
LINE
  5
10E
100
AcDbEntity
  8
M0
 62
   234
100
AcDbLine
 10
41.531855
 20
151.605749
 11
41.531855
 21
64.805749
  0
LINE
  5
10F
100
AcDbEntity
  8
M0
 62
   234
100
AcDbLine
 10
41.531855
 20
92.805749
 11
94.107681
 21
92.805749
  0
LINE
  5
110
100
AcDbEntity
  8
M0
 62
   234
100
AcDbLine
 10
41.531855
 20
134.805749
 11
100.026946
 21
134.805749
  0
LINE
  5
111
100
AcDbEntity
  8
M0
 62
   234
100
AcDbLine
 10
41.531855
 20
148.805749
 11
52.157959
 21
148.805749
  0
LINE
  5
112
100
AcDbEntity
  8
M0
 62
   234
100
AcDbLine
 10
83.531855
 20
142.239906
 11
83.531855
 21
64.805749
  0
LINE
  5
113
100
AcDbEntity
  8
M0
 62
   234
100
AcDbLine
 10
161.531855
 20
255.993853
 11
161.531855
 21
185.993853
  0
LINE
  5
114
100
AcDbEntity
  8
M0
 62
   234
100
AcDbLine
 10
248.331855
 20
185.993853
 11
161.531855
 21
185.993853
  0
LINE
  5
115
100
AcDbEntity
  8
M0
 62
   234
100
AcDbLine
 10
175.531855
 20
254.317843
 11
175.531855
 21
185.993853
  0
LINE
  5
116
100
AcDbEntity
  8
M0
 62
   234
100
AcDbLine
 10
189.531855
 20
254.317843
 11
189.531855
 21
185.993853
  0
LINE
  5
117
100
AcDbEntity
  8
M0
 62
   234
100
AcDbLine
 10
161.531855
 20
199.993853
 11
248.331855
 21
199.993853
  0
LINE
  5
118
100
AcDbEntity
  8
M0
 62
   234
100
AcDbLine
 10
203.531855
 20
247.101459
 11
203.531855
 21
185.993853
  0
LINE
  5
119
100
AcDbEntity
  8
M0
 62
   234
100
AcDbLine
 10
161.531855
 20
213.993853
 11
248.331855
 21
213.993853
  0
LINE
  5
11A
100
AcDbEntity
  8
M0
 62
   234
100
AcDbLine
 10
217.531855
 20
185.993853
 11
217.531855
 21
247.101459
  0
LINE
  5
11B
100
AcDbEntity
  8
M0
 62
   234
100
AcDbLine
 10
161.531855
 20
241.993853
 11
219.23239
 21
241.993853
  0
LINE
  5
11C
100
AcDbEntity
  8
M0
 62
   234
100
AcDbLine
 10
231.531855
 20
185.993853
 11
231.531855
 21
230.957552
  0
LINE
  5
11D
100
AcDbEntity
  8
M0
 62
   234
100
AcDbLine
 10
245.531855
 20
185.993853
 11
245.531855
 21
230.957552
  0
LINE
  5
11E
100
AcDbEntity
  8
M0
 62
   234
100
AcDbLine
 10
161.531855
 20
255.993853
 11
164.417764
 21
255.993853
  0
LINE
  5
11F
100
AcDbEntity
  8
M0
 62
   234
100
AcDbLine
 10
161.531855
 20
227.993853
 11
248.331855
 21
227.993853
  0
TEXT
  5
120
100
AcDbEntity
  8
M0
100
AcDbText
 10
158.256579
 20
183.920774
 40
3.6
  1
０
 41
0.601852
  7
STANDARD
100
AcDbText
  0
TEXT
  5
121
100
AcDbEntity
  8
M0
100
AcDbText
 10
155.907836
 20
198.28483
 40
3.6
  1
１０
 41
0.601852
  7
STANDARD
100
AcDbText
  0
TEXT
  5
122
100
AcDbEntity
  8
M0
100
AcDbText
 10
155.907836
 20
212.284836
 40
3.6
  1
２０
 41
0.601852
  7
STANDARD
100
AcDbText
  0
TEXT
  5
123
100
AcDbEntity
  8
M0
100
AcDbText
 10
155.907836
 20
226.284836
 40
3.6
  1
３０
 41
0.601852
  7
STANDARD
100
AcDbText
  0
TEXT
  5
124
100
AcDbEntity
  8
M0
100
AcDbText
 10
155.806286
 20
240.196738
 40
3.6
  1
４０
 41
0.601852
  7
STANDARD
100
AcDbText
  0
TEXT
  5
125
100
AcDbEntity
  8
M0
100
AcDbText
 10
155.806286
 20
254.196738
 40
3.6
  1
５０
 41
0.601852
  7
STANDARD
100
AcDbText
  0
TEXT
  5
126
100
AcDbEntity
  8
M0
100
AcDbText
 10
278.256579
 20
62.73267
 40
3.6
  1
０
 41
0.601852
  7
STANDARD
100
AcDbText
  0
TEXT
  5
127
100
AcDbEntity
  8
M0
100
AcDbText
 10
275.907836
 20
77.096726
 40
3.6
  1
１０
 41
0.601852
  7
STANDARD
100
AcDbText
  0
TEXT
  5
128
100
AcDbEntity
  8
M0
100
AcDbText
 10
275.907836
 20
91.096732
 40
3.6
  1
２０
 41
0.601852
  7
STANDARD
100
AcDbText
  0
TEXT
  5
129
100
AcDbEntity
  8
M0
100
AcDbText
 10
275.907836
 20
105.096732
 40
3.6
  1
３０
 41
0.601852
  7
STANDARD
100
AcDbText
  0
TEXT
  5
12A
100
AcDbEntity
  8
M0
100
AcDbText
 10
275.806286
 20
119.008634
 40
3.6
  1
４０
 41
0.601852
  7
STANDARD
100
AcDbText
  0
TEXT
  5
12B
100
AcDbEntity
  8
M0
100
AcDbText
 10
275.806286
 20
133.008634
 40
3.6
  1
５０
 41
0.601852
  7
STANDARD
100
AcDbText
  0
TEXT
  5
12C
100
AcDbEntity
  8
M0
100
AcDbText
 10
275.806286
 20
147.008634
 40
3.6
  1
６０
 41
0.601852
  7
STANDARD
100
AcDbText
  0
LINE
  5
12D
100
AcDbEntity
  8
M0
 62
     7
100
AcDbLine
 10
225.931855
 20
202.793853
 11
225.931855
 21
224.710346
  0
LINE
  5
12E
100
AcDbEntity
  8
M0
 62
     7
100
AcDbLine
 10
73.731855
 20
98.405749
 11
73.731855
 21
124.229802
  0
LINE
  5
12F
100
AcDbEntity
  8
M0
 62
     7
100
AcDbLine
 10
176.931855
 20
140.267797
 11
176.931855
 21
113.805749
  0
LINE
  5
130
100
AcDbEntity
  8
M0
 62
     7
100
AcDbLine
 10
114.331855
 20
217.517701
 11
114.331855
 21
195.793853
  0
LINE
  5
131
100
AcDbEntity
  8
M0
  6
DASHED
 62
     7
100
AcDbLine
 10
41.531855
 20
223.793853
 11
100.871745
 21
223.793853
  0
LINE
  5
132
100
AcDbEntity
  8
M0
  6
DASHED
 62
     7
100
AcDbLine
 10
161.531855
 20
230.793853
 11
219.327958
 21
230.793853
  0
LINE
  5
133
100
AcDbEntity
  8
M0
  6
DASHED
 62
     7
100
AcDbLine
 10
41.531855
 20
126.405749
 11
71.09034
 21
126.405749
  0
LINE
  5
134
100
AcDbEntity
  8
M0
  6
DASHED
 62
     7
100
AcDbLine
 10
161.531855
 20
141.805749
 11
175.466936
 21
141.805749
  0
LINE
  5
135
100
AcDbEntity
  8
M0
  6
DASHED
 62
     7
100
AcDbLine
 10
281.531855
 20
126.405749
 11
292.517641
 21
126.405749
  0
ARC
  5
136
100
AcDbEntity
  8
M0
 62
     7
100
AcDbCircle
 10
112.931855
 20
217.517701
 40
1.4
100
AcDbArc
 50
0.0
 51
67.985497
  0
ARC
  5
137
100
AcDbEntity
  8
M0
 62
     7
100
AcDbCircle
 10
224.531855
 20
224.710346
 40
1.4
100
AcDbArc
 50
0.0
 51
48.012788
  0
LINE
  5
138
100
AcDbEntity
  8
M0
 62
     7
100
AcDbLine
 10
73.073853
 20
125.417
 11
62.872339
 21
131.792946
  0
ARC
  5
139
100
AcDbEntity
  8
M0
 62
     7
100
AcDbCircle
 10
62.13034
 20
130.605749
 40
1.4
100
AcDbArc
 50
57.994617
 51
90.0
  0
ARC
  5
13A
100
AcDbEntity
  8
M0
 62
     7
100
AcDbCircle
 10
72.331855
 20
124.229802
 40
1.4
100
AcDbArc
 50
0.0
 51
57.994617
  0
ARC
  5
13B
100
AcDbEntity
  8
M0
 62
     7
100
AcDbCircle
 10
71.09034
 20
125.005749
 40
1.4
100
AcDbArc
 50
57.994617
 51
90.0
  0
ARC
  5
13C
100
AcDbEntity
  8
M0
 62
     7
100
AcDbCircle
 10
175.531855
 20
140.267797
 40
1.4
100
AcDbArc
 50
0.0
 51
25.201124
  0
ENDSEC
  0
SECTION
  2
OBJECTS
  0
DICTIONARY
  5
C
100
AcDbDictionary
  3
ACAD_GROUP
350
D
  3
ACAD_MLINESTYLE
350
E
  0
DICTIONARY
  5
D
102
{ACAD_REACTORS
330
C
102
}
100
AcDbDictionary
  0
DICTIONARY
  5
E
102
{ACAD_REACTORS
330
C
102
}
100
AcDbDictionary
  3
STANDARD
350
13
  0
MLINESTYLE
  5
13
102
{ACAD_REACTORS
330
E
102
}
100
AcDbMlineStyle
  2
STANDARD
 70
     0
  3

 62
     0
 51
90.0
 52
90.0
 71
     2
 49
0.5
 62
   256
  6
BYLAYER
 49
-0.5
 62
   256
  6
BYLAYER
  0
ENDSEC
  0
EOF
