  0
SECTION
  2
HEADER
  9
$ACADVER
  1
AC1012
  9
$INSBASE
 10
0.0
 20
0.0
  9
$VIEWCTR
 10
7.531722
 20
4.5
  9
$VIEWSIZE
 40
9.0
  9
$SNAPMODE
 70
     0
  9
$SNAPUNIT
 10
1.0
 20
1.0
  9
$SNAPBASE
 10
0.0
 20
0.0
  9
$SNAPANG
 50
0.0
  9
$SNAPSTYLE
 70
     0
  9
$SNAPISOPAIR
 70
     0
  9
$GRIDMODE
 70
     0
  9
$GRIDUNIT
 10
0.0
 20
0.0
  9
$ORTHOMODE
 70
     0
  9
$REGENMODE
 70
     1
  9
$FILLMODE
 70
     1
  9
$QTEXTMODE
 70
     0
  9
$DRAGMODE
 70
     2
  9
$LTSCALE
 40
1.0
  9
$OSMODE
 70
     0
  9
$ATTMODE
 70
     1
  9
$TEXTSIZE
 40
0.2
  9
$TRACEWID
 40
0.05
  9
$TEXTSTYLE
  7
STANDARD
  9
$CELTYPE
  6
BYLAYER
  9
$CECOLOR
 62
   256
  9
$DIMSCALE
 40
1.0
  9
$DIMASZ
 40
0.18
  9
$DIMEXO
 40
0.0625
  9
$DIMDLI
 40
0.38
  9
$DIMRND
 40
0.0
  9
$DIMDLE
 40
0.0
  9
$DIMEXE
 40
0.18
  9
$DIMTP
 40
0.0
  9
$DIMTM
 40
0.0
  9
$DIMTXT
 40
0.18
  9
$DIMCEN
 40
0.09
  9
$DIMTSZ
 40
0.0
  9
$DIMTOL
 70
     0
  9
$DIMLIM
 70
     0
  9
$DIMTIH
 70
     1
  9
$DIMTOH
 70
     1
  9
$DIMSE1
 70
     0
  9
$DIMSE2
 70
     0
  9
$DIMTAD
 70
     0
  9
$DIMZIN
 70
     0
  9
$DIMBLK
  1

  9
$LUNITS
 70
     2
  9
$LUPREC
 70
     4
  9
$AXISMODE
 70
     0
  9
$AXISUNIT
 10
0.0
 20
0.0
  9
$SKETCHINC
 40
0.1
  9
$FILLETRAD
 40
0.0
  9
$AUNITS
 70
     0
  9
$AUPREC
 70
     0
  9
$MENU
  1
ACAD
  9
$ELEVATION
 40
0.0
  9
$THICKNESS
 40
0.0
  9
$VIEWDIR
 10
0.0
 20
0.0
 30
1.0
  9
$LIMCHECK
 70
     0
  9
$BLIPMODE
 70
     1
  9
$CHAMFERA
 40
0.0
  9
$CHAMFERB
 40
0.0
  9
$FASTZOOM
 70
     1
  9
$SKPOLY
 70
     0
  9
$TDCREATE
 40
0000000.0000000000
  9
$TDUPDATE
 40
0000000.0000000000
  9
$TDINDWG
 40
0.0000000000
  9
$TDUSRTIMER
 40
0.0000000000
  9
$USRTIMER
 70
     1
  9
$ANGBASE
 50
0.0
  9
$ANGDIR
 70
     0
  9
$PDMODE
 70
     0
  9
$PDSIZE
 40
0.0
  9
$PLINEWID
 40
0.0
  9
$COORDS
 70
     0
  9
$USERI1
 70
     0
  9
$USERI2
 70
     0
  9
$USERI3
 70
     0
  9
$USERI4
 70
     0
  9
$USERI5
 70
     0
  9
$USERR1
 40
0.0
  9
$USERR2
 40
0.0
  9
$USERR3
 40
0.0
  9
$USERR4
 40
0.0
  9
$USERR5
 40
0.0
  9
$CLAYER
  8
M0
  9
$EXTMIN
 10
0.0
 20
0.0
  9
$EXTMAX
 10
420.0
 20
297.0
  9
$LIMMIN
 10
0.0
 20
0.0
  9
$LIMMAX
 10
420.0
 20
297.0
  9
$HANDSEED
  5
498
  0
ENDSEC
  0
SECTION
  2
CLASSES
  0
ENDSEC
  0
SECTION
  2
TABLES
  0
TABLE
  2
VPORT
  5
8
100
AcDbSymbolTable
 70
     2
  0
VPORT
  5
14
100
AcDbSymbolTableRecord
100
AcDbViewportTableRecord
  2
*ACTIVE
 70
     0
 10
0.0
 20
0.0
 11
1.0
 21
1.0
 12
484.0
 22
297.0
 13
0.0
 23
0.0
 14
1.0
 24
1.0
 15
0.0
 25
0.0
 16
0.0
 26
0.0
 36
1.0
 17
0.0
 27
0.0
 37
0.0
 40
594.0
 41
2.0
 42
50.0
 43
0.0
 44
0.0
 50
0.0
 51
0.0
 71
     0
 72
   100
 73
     1
 74
     1
 75
     0
 76
     0
 77
     0
 78
     0
  0
ENDTAB
  0
TABLE
  2
LTYPE
  5
5
100
AcDbSymbolTable
 70
     5
  0
LTYPE
  5
15
100
AcDbSymbolTableRecord
100
AcDbLinetypeTableRecord
  2
BYBLOCK
 70
     0
  3

 72
    65
 73
     0
 40
0.0
  0
LTYPE
  5
16
100
AcDbSymbolTableRecord
100
AcDbLinetypeTableRecord
  2
BYLAYER
 70
     0
  3

 72
    65
 73
     0
 40
0.0
  0
LTYPE
  5
17
100
AcDbSymbolTableRecord
100
AcDbLinetypeTableRecord
  2
CONTINUOUS
 70
    64
  3
Solid line
 72
    65
 73
     0
 40
0.0
  0
LTYPE
  5
18
100
AcDbSymbolTableRecord
100
AcDbLinetypeTableRecord
  2
DASHED
 70
    64
  3
__ __ __ __ __ __ __ __ __ __ __ __ __ __ __ __
 72
    65
 73
     2
 40
0.75
 49
0.5
 74
     0
 49
-0.25
 74
     0
  0
LTYPE
  5
19
100
AcDbSymbolTableRecord
100
AcDbLinetypeTableRecord
  2
DASHDOT
 70
    64
  3
__ . __ . __ . __ . __ . __ . __ . __ . __ . __
 72
    65
 73
     4
 40
1.0
 49
0.5
 74
     0
 49
-0.25
 74
     0
 49
0.0
 74
     0
 49
-0.25
 74
     0
  0
LTYPE
  5
1A
100
AcDbSymbolTableRecord
100
AcDbLinetypeTableRecord
  2
DIVIDE
 70
    64
  3
____ . . ____ . . ____ . . ____ . . ____ . . __
 72
    65
 73
     6
 40
1.25
 49
0.5
 74
     0
 49
-0.25
 74
     0
 49
0.0
 74
     0
 49
-0.25
 74
     0
 49
0.0
 74
     0
 49
-0.25
 74
     0
  0
LTYPE
  5
1B
100
AcDbSymbolTableRecord
100
AcDbLinetypeTableRecord
  2
DOT
 70
    64
  3
. . . . . . . . . . . . . . . . . . . . . . . .
 72
    65
 73
     2
 40
0.25
 49
0.0
 74
     0
 49
-0.25
 74
     0
  0
ENDTAB
  0
TABLE
  2
LAYER
  5
2
100
AcDbSymbolTable
 70
   102
  0
LAYER
  5
F
100
AcDbSymbolTableRecord
100
AcDbLayerTableRecord
  2
0
 70
     0
 62
     7
  6
CONTINUOUS
  0
LAYER
  5
1C
100
AcDbSymbolTableRecord
100
AcDbLayerTableRecord
  2
DEFPOINTS
 70
     0
 62
     7
  6
CONTINUOUS
  0
LAYER
  5
1D
100
AcDbSymbolTableRecord
100
AcDbLayerTableRecord
  2
M0
 70
     0
 62
     3
  6
CONTINUOUS
  0
LAYER
  5
1E
100
AcDbSymbolTableRecord
100
AcDbLayerTableRecord
  2
M46
 70
     0
 62
     3
  6
CONTINUOUS
  0
LAYER
  5
1F
100
AcDbSymbolTableRecord
100
AcDbLayerTableRecord
  2
DD0
 70
     0
 62
     4
  6
CONTINUOUS
  0
ENDTAB
  0
TABLE
  2
STYLE
  5
3
100
AcDbSymbolTable
 70
     2
  0
STYLE
  5
10
100
AcDbSymbolTableRecord
100
AcDbTextStyleTableRecord
  2
STANDARD
 70
     0
 40
0.0
 41
1.0
 50
0.0
 71
     0
 42
0.2
  3
txt
  4
BIGFONT
  0
ENDTAB
  0
TABLE
  2
VIEW
  5
6
100
AcDbSymbolTable
 70
     0
  0
ENDTAB
  0
TABLE
  2
UCS
  5
7
100
AcDbSymbolTable
 70
     0
  0
ENDTAB
  0
TABLE
  2
APPID
  5
9
100
AcDbSymbolTable
 70
     1
  0
APPID
  5
11
100
AcDbSymbolTableRecord
100
AcDbRegAppTableRecord
  2
ACAD
 70
     0
  0
ENDTAB
  0
TABLE
  2
DIMSTYLE
  5
A
100
AcDbSymbolTable
 70
     2
  0
DIMSTYLE
105
26
100
AcDbSymbolTableRecord
100
AcDbDimStyleTableRecord
  2
STANDARD
 70
     0
  3

  4

  5

  6
_OPEN
  7
_OPEN
 40
1.0
 41
3.0
 42
0.0
 43
8.0
 44
1.5
 45
0.0
 46
0.0
 47
0.0
 48
0.0
140
3.5
141
0.09
142
0.0
143
0.03937
144
1.0
145
0.0
146
1.0
147
1.0
 71
     0
 72
     0
 73
     0
 74
     0
 75
     0
 76
     0
 77
     3
 78
     8
170
     0
171
     2
172
     0
173
     1
174
     0
175
     0
176
     0
177
     0
178
     0
270
     2
271
     2
272
     4
273
     2
274
     2
340
10
275
     0
280
     0
281
     0
282
     0
283
     1
284
     0
285
     0
286
     0
287
     3
288
     0
  0
DIMSTYLE
105
27
100
AcDbSymbolTableRecord
100
AcDbDimStyleTableRecord
  2
LEADSTYL
 70
     0
  3

  4

  5

  6
_OPEN
  7
_OPEN
 40
1.0
 41
3.0
 42
0.0625
 43
0.38
 44
0.18
 45
0.0
 46
0.0
 47
0.0
 48
0.0
140
3.5
141
0.09
142
0.0
143
25.4
144
1.0
145
0.0
146
1.0
147
1.0
 71
     0
 72
     0
 73
     1
 74
     1
 75
     0
 76
     0
 77
     0
 78
     0
170
     0
171
     2
172
     0
173
     1
174
     0
175
     0
176
     0
177
     0
178
     0
270
     2
271
     4
272
     4
273
     2
274
     2
340
10
275
     0
280
     0
281
     0
282
     0
283
     1
284
     0
285
     0
286
     0
287
     3
288
     0
  0
ENDTAB
  0
TABLE
  2
BLOCK_RECORD
  5
1
100
AcDbSymbolTable
 70
    21
  0
BLOCK_RECORD
  5
20
100
AcDbSymbolTableRecord
100
AcDbBlockTableRecord
  2
*MODEL_SPACE
  0
BLOCK_RECORD
  5
23
100
AcDbSymbolTableRecord
100
AcDbBlockTableRecord
  2
*PAPER_SPACE
  0
BLOCK_RECORD
  5
28
100
AcDbSymbolTableRecord
100
AcDbBlockTableRecord
  2
_NONE
  0
BLOCK_RECORD
  5
2C
100
AcDbSymbolTableRecord
100
AcDbBlockTableRecord
  2
_OPEN
  0
BLOCK_RECORD
  5
32
100
AcDbSymbolTableRecord
100
AcDbBlockTableRecord
  2
_CLOSED
  0
BLOCK_RECORD
  5
39
100
AcDbSymbolTableRecord
100
AcDbBlockTableRecord
  2
_ORIGIN
  0
BLOCK_RECORD
  5
3E
100
AcDbSymbolTableRecord
100
AcDbBlockTableRecord
  2
_DOT
  0
BLOCK_RECORD
  5
46
100
AcDbSymbolTableRecord
100
AcDbBlockTableRecord
  2
_OBLIQUE
  0
BLOCK_RECORD
  5
4A
100
AcDbSymbolTableRecord
100
AcDbBlockTableRecord
  2
DIMS0
  0
BLOCK_RECORD
  5
54
100
AcDbSymbolTableRecord
100
AcDbBlockTableRecord
  2
DIMS1
  0
BLOCK_RECORD
  5
5E
100
AcDbSymbolTableRecord
100
AcDbBlockTableRecord
  2
DIMS2
  0
BLOCK_RECORD
  5
70
100
AcDbSymbolTableRecord
100
AcDbBlockTableRecord
  2
DIMS3
  0
BLOCK_RECORD
  5
7A
100
AcDbSymbolTableRecord
100
AcDbBlockTableRecord
  2
DIMS4
  0
BLOCK_RECORD
  5
84
100
AcDbSymbolTableRecord
100
AcDbBlockTableRecord
  2
DIMS5
  0
BLOCK_RECORD
  5
90
100
AcDbSymbolTableRecord
100
AcDbBlockTableRecord
  2
DIMS6
  0
BLOCK_RECORD
  5
9A
100
AcDbSymbolTableRecord
100
AcDbBlockTableRecord
  2
DIMS7
  0
BLOCK_RECORD
  5
A4
100
AcDbSymbolTableRecord
100
AcDbBlockTableRecord
  2
DIMS8
  0
BLOCK_RECORD
  5
AE
100
AcDbSymbolTableRecord
100
AcDbBlockTableRecord
  2
DIMS9
  0
BLOCK_RECORD
  5
BA
100
AcDbSymbolTableRecord
100
AcDbBlockTableRecord
  2
DIMS10
  0
BLOCK_RECORD
  5
C6
100
AcDbSymbolTableRecord
100
AcDbBlockTableRecord
  2
DIMS11
  0
BLOCK_RECORD
  5
D0
100
AcDbSymbolTableRecord
100
AcDbBlockTableRecord
  2
DIMS12
  0
BLOCK_RECORD
  5
DC
100
AcDbSymbolTableRecord
100
AcDbBlockTableRecord
  2
DIMS13
  0
BLOCK_RECORD
  5
E6
100
AcDbSymbolTableRecord
100
AcDbBlockTableRecord
  2
DIMS14
  0
ENDTAB
  0
ENDSEC
  0
SECTION
  2
BLOCKS
  0
BLOCK
  5
21
100
AcDbEntity
  8
0
100
AcDbBlockBegin
  2
*MODEL_SPACE
 70
     0
 10
0.0
 20
0.0
 30
0.0
  3
*MODEL_SPACE
  1

  0
ENDBLK
  5
22
100
AcDbEntity
  8
0
100
AcDbBlockEnd
  0
BLOCK
  5
24
100
AcDbEntity
 67
     1
  8
0
100
AcDbBlockBegin
  2
*PAPER_SPACE
 70
     0
 10
0.0
 20
0.0
 30
0.0
  3
*PAPER_SPACE
  1

  0
ENDBLK
  5
25
100
AcDbEntity
 67
     1
  8
0
100
AcDbBlockEnd
  0
BLOCK
  5
29
100
AcDbEntity
  8
0
100
AcDbBlockBegin
  2
_NONE
 70
     0
 10
0.0
 20
0.0
  0
CIRCLE
  5
2A
100
AcDbEntity
  8
0
 62
     0
100
AcDbCircle
 10
0.0
 20
0.0
 40
0.25
  0
ENDBLK
  5
2B
100
AcDbEntity
  8
0
100
AcDbBlockEnd
  0
BLOCK
  5
2D
100
AcDbEntity
  8
0
100
AcDbBlockBegin
  2
_OPEN
 70
     0
 10
0.0
 20
0.0
  0
LINE
  5
2E
100
AcDbEntity
  8
0
 62
     0
100
AcDbLine
 10
-0.965926
 20
0.25882
 11
0.0
 21
0.0
  0
LINE
  5
2F
100
AcDbEntity
  8
0
 62
     0
100
AcDbLine
 10
0.0
 20
0.0
 11
-0.965926
 21
-0.25882
  0
LINE
  5
30
100
AcDbEntity
  8
0
 62
     0
100
AcDbLine
 10
0.0
 20
0.0
 11
-1.0
 21
0.0
  0
ENDBLK
  5
31
100
AcDbEntity
  8
0
100
AcDbBlockEnd
  0
BLOCK
  5
33
100
AcDbEntity
  8
0
100
AcDbBlockBegin
  2
_CLOSED
 70
     0
 10
0.0
 20
0.0
  0
LINE
  5
34
100
AcDbEntity
  8
0
 62
     0
100
AcDbLine
 10
-0.965926
 20
0.25882
 11
0.0
 21
0.0
  0
LINE
  5
35
100
AcDbEntity
  8
0
 62
     0
100
AcDbLine
 10
0.0
 20
0.0
 11
-0.965926
 21
-0.25882
  0
LINE
  5
36
100
AcDbEntity
  8
0
 62
     0
100
AcDbLine
 10
-0.965926
 20
0.25882
 11
-0.965926
 21
-0.25882
  0
LINE
  5
37
100
AcDbEntity
  8
0
 62
     0
100
AcDbLine
 10
0.0
 20
0.0
 11
-1.0
 21
0.0
  0
ENDBLK
  5
38
100
AcDbEntity
  8
0
100
AcDbBlockEnd
  0
BLOCK
  5
3A
100
AcDbEntity
  8
0
100
AcDbBlockBegin
  2
_ORIGIN
 70
     0
 10
0.0
 20
0.0
  0
CIRCLE
  5
3B
100
AcDbEntity
  8
0
 62
     0
100
AcDbCircle
 10
0.0
 20
0.0
 40
0.5
  0
LINE
  5
3C
100
AcDbEntity
  8
0
 62
     0
100
AcDbLine
 10
0.0
 20
0.0
 11
-1.0
 21
0.0
  0
ENDBLK
  5
3D
100
AcDbEntity
  8
0
100
AcDbBlockEnd
  0
BLOCK
  5
3F
100
AcDbEntity
  8
0
100
AcDbBlockBegin
  2
_DOT
 70
     0
 10
0.0
 20
0.0
  0
POLYLINE
  5
40
100
AcDbEntity
  8
0
 62
     0
100
AcDb2dPolyline
 66
     1
 70
     1
 40
0.5
 41
0.5
  0
VERTEX
  5
41
100
AcDbEntity
  8
0
 62
     0
100
AcDbVertex
100
AcDb2dVertex
 10
-0.25
 20
0.0
 42
1.0
  0
VERTEX
  5
42
100
AcDbEntity
  8
0
 62
     0
100
AcDbVertex
100
AcDb2dVertex
 10
0.25
 20
0.0
 42
1.0
  0
SEQEND
  5
43
100
AcDbEntity
  8
0
 62
     0
  0
LINE
  5
44
100
AcDbEntity
  8
0
 62
     0
100
AcDbLine
 10
-0.5
 20
0.0
 11
-1.0
 21
0.0
  0
ENDBLK
  5
45
100
AcDbEntity
  8
0
100
AcDbBlockEnd
  0
BLOCK
  5
47
100
AcDbEntity
  8
0
100
AcDbBlockBegin
  2
_OBLIQUE
 70
     0
 10
0.0
 20
0.0
  0
LINE
  5
48
100
AcDbEntity
  8
0
 62
     0
100
AcDbLine
 10
-0.353553
 20
-0.353553
 11
0.353553
 21
0.353553
  0
ENDBLK
  5
49
100
AcDbEntity
  8
0
100
AcDbBlockEnd
  0
BLOCK
  5
4B
100
AcDbEntity
  8
DD0
100
AcDbBlockBegin
  2
DIMS0
 70
     0
 10
0.0
 20
0.0
  0
LINE
  5
4C
100
AcDbEntity
  8
DD0
100
AcDbLine
 10
85.010841
 20
125.089622
 11
141.307175
 21
125.089622
  0
LINE
  5
4D
100
AcDbEntity
  8
DD0
100
AcDbLine
 10
114.867386
 20
52.310944
 11
141.307175
 21
52.310944
  0
INSERT
  5
4E
100
AcDbEntity
  8
DD0
100
AcDbBlockReference
  2
_OPEN
 10
139.807175
 20
52.310944
 41
3.0
 42
3.0
 50
270.0
  0
INSERT
  5
4F
100
AcDbEntity
  8
DD0
100
AcDbBlockReference
  2
_OPEN
 10
139.807175
 20
125.089622
 41
3.0
 42
3.0
 50
90.0
  0
LINE
  5
50
100
AcDbEntity
  8
DD0
100
AcDbLine
 10
139.807175
 20
122.089622
 11
139.807175
 21
55.310944
  0
TEXT
  5
51
100
AcDbEntity
  8
DD0
100
AcDbText
 10
138.807175
 20
83.741954
 40
3.5
  1
４３６
 50
90.000003
 41
0.833333
  7
STANDARD
100
AcDbText
  0
ENDBLK
  5
52
100
AcDbEntity
  8
DD0
100
AcDbBlockEnd
  0
BLOCK
  5
55
100
AcDbEntity
  8
DD0
100
AcDbBlockBegin
  2
DIMS1
 70
     0
 10
0.0
 20
0.0
  0
LINE
  5
56
100
AcDbEntity
  8
DD0
100
AcDbLine
 10
64.752281
 20
61.495941
 11
36.279839
 21
61.495941
  0
LINE
  5
57
100
AcDbEntity
  8
DD0
100
AcDbLine
 10
52.612839
 20
52.310944
 11
36.279839
 21
52.310944
  0
INSERT
  5
58
100
AcDbEntity
  8
DD0
100
AcDbBlockReference
  2
_OPEN
 10
37.779839
 20
52.310944
 41
3.0
 42
3.0
 50
270.0
  0
INSERT
  5
59
100
AcDbEntity
  8
DD0
100
AcDbBlockReference
  2
_OPEN
 10
37.779839
 20
61.495941
 41
3.0
 42
3.0
 50
90.0
  0
LINE
  5
5A
100
AcDbEntity
  8
DD0
100
AcDbLine
 10
37.779839
 20
58.495941
 11
37.779839
 21
55.310944
  0
TEXT
  5
5B
100
AcDbEntity
  8
DD0
100
AcDbText
 10
36.779839
 20
53.695109
 40
3.5
  1
５５
 50
90.000003
 41
0.833333
  7
STANDARD
100
AcDbText
  0
ENDBLK
  5
5C
100
AcDbEntity
  8
DD0
100
AcDbBlockEnd
  0
BLOCK
  5
5F
100
AcDbEntity
  8
DD0
100
AcDbBlockBegin
  2
DIMS2
 70
     0
 10
0.0
 20
0.0
  0
LINE
  5
60
100
AcDbEntity
  8
DD0
100
AcDbLine
 10
122.222855
 20
64.836029
 11
129.544144
 21
64.836029
  0
LINE
  5
61
100
AcDbEntity
  8
DD0
100
AcDbLine
 10
114.867386
 20
52.310944
 11
129.544144
 21
52.310944
  0
INSERT
  5
62
100
AcDbEntity
  8
DD0
100
AcDbBlockReference
  2
_OPEN
 10
128.044144
 20
52.310944
 41
3.0
 42
3.0
 50
270.0
  0
INSERT
  5
63
100
AcDbEntity
  8
DD0
100
AcDbBlockReference
  2
_OPEN
 10
128.044144
 20
64.836029
 41
3.0
 42
3.0
 50
90.0
  0
LINE
  5
64
100
AcDbEntity
  8
DD0
100
AcDbLine
 10
128.044144
 20
61.836029
 11
128.044144
 21
55.310944
  0
TEXT
  5
65
100
AcDbEntity
  8
DD0
100
AcDbText
 10
127.044144
 20
55.365153
 40
3.5
  1
７５
 50
90.000003
 41
0.833333
  7
STANDARD
100
AcDbText
  0
ENDBLK
  5
66
100
AcDbEntity
  8
DD0
100
AcDbBlockEnd
  0
BLOCK
  5
71
100
AcDbEntity
  8
DD0
100
AcDbBlockBegin
  2
DIMS3
 70
     0
 10
0.0
 20
0.0
  0
LINE
  5
72
100
AcDbEntity
  8
DD0
100
AcDbLine
 10
86.413124
 20
245.910385
 11
86.413124
 21
262.243378
  0
LINE
  5
73
100
AcDbEntity
  8
DD0
100
AcDbLine
 10
106.620132
 20
250.663605
 11
106.620132
 21
262.243378
  0
INSERT
  5
74
100
AcDbEntity
  8
DD0
100
AcDbBlockReference
  2
_OPEN
 10
106.620132
 20
260.743378
 41
3.0
 42
3.0
  0
INSERT
  5
75
100
AcDbEntity
  8
DD0
100
AcDbBlockReference
  2
_OPEN
 10
86.413124
 20
260.743378
 41
3.0
 42
3.0
 50
180.0
  0
LINE
  5
76
100
AcDbEntity
  8
DD0
100
AcDbLine
 10
89.413124
 20
260.743378
 11
103.620132
 21
260.743378
  0
TEXT
  5
77
100
AcDbEntity
  8
DD0
100
AcDbText
 10
91.558299
 20
261.743378
 40
3.5
  1
１２１
 41
0.833333
  7
STANDARD
100
AcDbText
  0
ENDBLK
  5
78
100
AcDbEntity
  8
DD0
100
AcDbBlockEnd
  0
BLOCK
  5
7B
100
AcDbEntity
  8
DD0
100
AcDbBlockBegin
  2
DIMS4
 70
     0
 10
0.0
 20
0.0
  0
LINE
  5
7C
100
AcDbEntity
  8
DD0
100
AcDbLine
 10
115.638123
 20
236.725388
 11
115.638123
 21
270.243378
  0
LINE
  5
7D
100
AcDbEntity
  8
DD0
100
AcDbLine
 10
57.021122
 20
200.820389
 11
57.021122
 21
270.243378
  0
INSERT
  5
7E
100
AcDbEntity
  8
DD0
100
AcDbBlockReference
  2
_OPEN
 10
57.021122
 20
268.743378
 41
3.0
 42
3.0
 50
180.0
  0
INSERT
  5
7F
100
AcDbEntity
  8
DD0
100
AcDbBlockReference
  2
_OPEN
 10
115.638123
 20
268.743378
 41
3.0
 42
3.0
  0
LINE
  5
80
100
AcDbEntity
  8
DD0
100
AcDbLine
 10
112.638123
 20
268.743378
 11
60.021122
 21
268.743378
  0
TEXT
  5
81
100
AcDbEntity
  8
DD0
100
AcDbText
 10
81.371287
 20
269.743378
 40
3.5
  1
３５１
 41
0.833333
  7
STANDARD
100
AcDbText
  0
ENDBLK
  5
82
100
AcDbEntity
  8
DD0
100
AcDbBlockEnd
  0
BLOCK
  5
85
100
AcDbEntity
  8
DD0
100
AcDbBlockBegin
  2
DIMS5
 70
     0
 10
0.0
 20
0.0
  0
LINE
  5
86
100
AcDbEntity
  8
DD0
100
AcDbLine
 10
57.021122
 20
197.480392
 11
57.021122
 21
151.337189
  0
LINE
  5
87
100
AcDbEntity
  8
DD0
100
AcDbLine
 10
97.43512
 20
179.444397
 11
97.43512
 21
151.337189
  0
INSERT
  5
88
100
AcDbEntity
  8
DD0
100
AcDbBlockReference
  2
_OPEN
 10
97.43512
 20
152.837189
 41
3.0
 42
3.0
  0
INSERT
  5
89
100
AcDbEntity
  8
DD0
100
AcDbBlockReference
  2
_OPEN
 10
57.021122
 20
152.837189
 41
3.0
 42
3.0
 50
180.0
  0
LINE
  5
8A
100
AcDbEntity
  8
DD0
100
AcDbLine
 10
60.021122
 20
152.837189
 11
94.43512
 21
152.837189
  0
TEXT
  5
8B
100
AcDbEntity
  8
DD0
100
AcDbText
 10
72.269786
 20
153.837189
 40
3.5
  1
２４２
 41
0.833333
  7
STANDARD
100
AcDbText
  0
ENDBLK
  5
8C
100
AcDbEntity
  8
DD0
100
AcDbBlockEnd
  0
BLOCK
  5
91
100
AcDbEntity
  8
DD0
100
AcDbBlockBegin
  2
DIMS6
 70
     0
 10
0.0
 20
0.0
  0
LINE
  5
92
100
AcDbEntity
  8
DD0
100
AcDbLine
 10
109.709633
 20
171.929382
 11
151.144119
 21
171.929382
  0
LINE
  5
93
100
AcDbEntity
  8
DD0
100
AcDbLine
 10
113.154701
 20
248.348587
 11
151.144119
 21
248.348587
  0
INSERT
  5
94
100
AcDbEntity
  8
DD0
100
AcDbBlockReference
  2
_OPEN
 10
149.644119
 20
248.348587
 41
3.0
 42
3.0
 50
90.0
  0
INSERT
  5
95
100
AcDbEntity
  8
DD0
100
AcDbBlockReference
  2
_OPEN
 10
149.644119
 20
171.929382
 41
3.0
 42
3.0
 50
270.0
  0
LINE
  5
96
100
AcDbEntity
  8
DD0
100
AcDbLine
 10
149.644119
 20
174.929382
 11
149.644119
 21
245.348587
  0
TEXT
  5
97
100
AcDbEntity
  8
DD0
100
AcDbText
 10
148.644119
 20
205.180644
 40
3.5
  1
４５８
 50
90.000003
 41
0.833333
  7
STANDARD
100
AcDbText
  0
ENDBLK
  5
98
100
AcDbEntity
  8
DD0
100
AcDbBlockEnd
  0
BLOCK
  5
9B
100
AcDbEntity
  8
DD0
100
AcDbBlockBegin
  2
DIMS7
 70
     0
 10
0.0
 20
0.0
  0
LINE
  5
9C
100
AcDbEntity
  8
DD0
100
AcDbLine
 10
54.182125
 20
210.840393
 11
54.182125
 21
278.243439
  0
LINE
  5
9D
100
AcDbEntity
  8
DD0
100
AcDbLine
 10
118.644119
 20
210.840393
 11
118.644119
 21
278.243439
  0
INSERT
  5
9E
100
AcDbEntity
  8
DD0
100
AcDbBlockReference
  2
_OPEN
 10
118.644119
 20
276.743439
 41
3.0
 42
3.0
  0
INSERT
  5
9F
100
AcDbEntity
  8
DD0
100
AcDbBlockReference
  2
_OPEN
 10
54.182125
 20
276.743439
 41
3.0
 42
3.0
 50
180.0
  0
LINE
  5
A0
100
AcDbEntity
  8
DD0
100
AcDbLine
 10
57.182125
 20
276.743439
 11
115.644119
 21
276.743439
  0
TEXT
  5
A1
100
AcDbEntity
  8
DD0
100
AcDbText
 10
81.454791
 20
277.743439
 40
3.5
  1
３８６
 41
0.833333
  7
STANDARD
100
AcDbText
  0
ENDBLK
  5
A2
100
AcDbEntity
  8
DD0
100
AcDbBlockEnd
  0
BLOCK
  5
A5
100
AcDbEntity
  8
DD0
100
AcDbBlockBegin
  2
DIMS8
 70
     0
 10
0.0
 20
0.0
  0
LINE
  5
A6
100
AcDbEntity
  8
DD0
100
AcDbLine
 10
99.105125
 20
181.114395
 11
143.144119
 21
181.114395
  0
LINE
  5
A7
100
AcDbEntity
  8
DD0
100
AcDbLine
 10
117.308121
 20
235.055389
 11
143.144119
 21
235.055389
  0
INSERT
  5
A8
100
AcDbEntity
  8
DD0
100
AcDbBlockReference
  2
_OPEN
 10
141.644119
 20
235.055389
 41
3.0
 42
3.0
 50
90.0
  0
INSERT
  5
A9
100
AcDbEntity
  8
DD0
100
AcDbBlockReference
  2
_OPEN
 10
141.644119
 20
181.114395
 41
3.0
 42
3.0
 50
270.0
  0
LINE
  5
AA
100
AcDbEntity
  8
DD0
100
AcDbLine
 10
141.644119
 20
184.114395
 11
141.644119
 21
232.055389
  0
TEXT
  5
AB
100
AcDbEntity
  8
DD0
100
AcDbText
 10
140.644119
 20
203.126567
 40
3.5
  1
３２３
 50
90.000003
 41
0.833333
  7
STANDARD
100
AcDbText
  0
ENDBLK
  5
AC
100
AcDbEntity
  8
DD0
100
AcDbBlockEnd
  0
BLOCK
  5
AF
100
AcDbEntity
  8
DD0
100
AcDbBlockBegin
  2
DIMS9
 70
     0
 10
0.0
 20
0.0
  0
LINE
  5
B0
100
AcDbEntity
  8
DD0
100
AcDbLine
 10
113.968124
 20
235.055389
 11
37.148293
 21
235.055389
  0
LINE
  5
B1
100
AcDbEntity
  8
DD0
100
AcDbLine
 10
55.351124
 20
199.150391
 11
37.148293
 21
199.150391
  0
INSERT
  5
B2
100
AcDbEntity
  8
DD0
100
AcDbBlockReference
  2
_OPEN
 10
38.648293
 20
199.150391
 41
3.0
 42
3.0
 50
270.0
  0
INSERT
  5
B3
100
AcDbEntity
  8
DD0
100
AcDbBlockReference
  2
_OPEN
 10
38.648293
 20
235.055389
 41
3.0
 42
3.0
 50
90.0
  0
LINE
  5
B4
100
AcDbEntity
  8
DD0
100
AcDbLine
 10
38.648293
 20
232.055389
 11
38.648293
 21
202.150391
  0
TEXT
  5
B5
100
AcDbEntity
  8
DD0
100
AcDbText
 10
37.648293
 20
212.144557
 40
3.5
  1
２１５
 50
90.000003
 41
0.833333
  7
STANDARD
100
AcDbText
  0
ENDBLK
  5
B6
100
AcDbEntity
  8
DD0
100
AcDbBlockEnd
  0
BLOCK
  5
BB
100
AcDbEntity
  8
DD0
100
AcDbBlockBegin
  2
DIMS10
 70
     0
 10
0.0
 20
0.0
  0
LINE
  5
BC
100
AcDbEntity
  8
DD0
100
AcDbLine
 10
219.192581
 20
52.077034
 11
235.500702
 21
52.077034
  0
LINE
  5
BD
100
AcDbEntity
  8
DD0
100
AcDbLine
 10
217.209656
 20
64.618469
 11
235.500702
 21
64.618469
  0
INSERT
  5
BE
100
AcDbEntity
  8
DD0
100
AcDbBlockReference
  2
_OPEN
 10
234.000702
 20
64.618469
 41
3.0
 42
3.0
 50
270.0
  0
INSERT
  5
BF
100
AcDbEntity
  8
DD0
100
AcDbBlockReference
  2
_OPEN
 10
234.000702
 20
52.077034
 41
3.0
 42
3.0
 50
90.0
  0
LINE
  5
C0
100
AcDbEntity
  8
DD0
100
AcDbLine
 10
234.000702
 20
48.777034
 11
234.000702
 21
49.077034
  0
LINE
  5
C1
100
AcDbEntity
  8
DD0
100
AcDbLine
 10
234.000702
 20
52.077034
 11
234.000702
 21
64.618469
  0
LINE
  5
C2
100
AcDbEntity
  8
DD0
100
AcDbLine
 10
234.000702
 20
67.618469
 11
234.000702
 21
67.918469
  0
TEXT
  5
C3
100
AcDbEntity
  8
DD0
100
AcDbText
 10
233.000702
 20
55.139418
 40
3.5
  1
７５
 50
90.000003
 41
0.833333
  7
STANDARD
100
AcDbText
  0
ENDBLK
  5
C4
100
AcDbEntity
  8
DD0
100
AcDbBlockEnd
  0
BLOCK
  5
C7
100
AcDbEntity
  8
DD0
100
AcDbBlockBegin
  2
DIMS11
 70
     0
 10
0.0
 20
0.0
  0
LINE
  5
C8
100
AcDbEntity
  8
DD0
100
AcDbLine
 10
114.867386
 20
52.310944
 11
135.569107
 21
52.310944
  0
LINE
  5
C9
100
AcDbEntity
  8
DD0
100
AcDbLine
 10
128.976379
 20
82.771057
 11
135.569107
 21
82.771057
  0
INSERT
  5
CA
100
AcDbEntity
  8
DD0
100
AcDbBlockReference
  2
_OPEN
 10
134.069107
 20
82.771057
 41
3.0
 42
3.0
 50
90.0
  0
INSERT
  5
CB
100
AcDbEntity
  8
DD0
100
AcDbBlockReference
  2
_OPEN
 10
134.069107
 20
52.310944
 41
3.0
 42
3.0
 50
270.0
  0
LINE
  5
CC
100
AcDbEntity
  8
DD0
100
AcDbLine
 10
134.069107
 20
55.310944
 11
134.069107
 21
79.771057
  0
TEXT
  5
CD
100
AcDbEntity
  8
DD0
100
AcDbText
 10
133.069107
 20
62.582667
 40
3.5
  1
１８２
 50
90.000003
 41
0.833333
  7
STANDARD
100
AcDbText
  0
ENDBLK
  5
CE
100
AcDbEntity
  8
DD0
100
AcDbBlockEnd
  0
BLOCK
  5
D1
100
AcDbEntity
  8
DD0
100
AcDbBlockBegin
  2
DIMS12
 70
     0
 10
0.0
 20
0.0
  0
LINE
  5
D2
100
AcDbEntity
  8
DD0
100
AcDbLine
 10
123.880157
 20
210.840393
 11
135.144119
 21
210.840393
  0
LINE
  5
D3
100
AcDbEntity
  8
DD0
100
AcDbLine
 10
124.756897
 20
195.058746
 11
135.144119
 21
195.058746
  0
INSERT
  5
D4
100
AcDbEntity
  8
DD0
100
AcDbBlockReference
  2
_OPEN
 10
133.644119
 20
195.058746
 41
3.0
 42
3.0
 50
90.0
  0
INSERT
  5
D5
100
AcDbEntity
  8
DD0
100
AcDbBlockReference
  2
_OPEN
 10
133.644119
 20
210.840393
 41
3.0
 42
3.0
 50
270.0
  0
LINE
  5
D6
100
AcDbEntity
  8
DD0
100
AcDbLine
 10
133.644119
 20
214.140393
 11
133.644119
 21
213.840393
  0
LINE
  5
D7
100
AcDbEntity
  8
DD0
100
AcDbLine
 10
133.644119
 20
210.840393
 11
133.644119
 21
195.058746
  0
LINE
  5
D8
100
AcDbEntity
  8
DD0
100
AcDbLine
 10
133.644119
 20
192.058746
 11
133.644119
 21
191.758746
  0
TEXT
  5
D9
100
AcDbEntity
  8
DD0
100
AcDbText
 10
132.644119
 20
199.741236
 40
3.5
  1
９５
 50
90.000003
 41
0.833333
  7
STANDARD
100
AcDbText
  0
ENDBLK
  5
DA
100
AcDbEntity
  8
DD0
100
AcDbBlockEnd
  0
BLOCK
  5
DD
100
AcDbEntity
  8
DD0
100
AcDbBlockBegin
  2
DIMS13
 70
     0
 10
0.0
 20
0.0
  0
LINE
  5
DE
100
AcDbEntity
  8
DD0
100
AcDbLine
 10
72.218086
 20
168.377136
 11
72.218086
 21
159.337189
  0
INSERT
  5
DF
100
AcDbEntity
  8
DD0
100
AcDbBlockReference
  2
_DOT
 10
80.735123
 20
160.837189
  0
INSERT
  5
E0
100
AcDbEntity
  8
DD0
100
AcDbBlockReference
  2
_OPEN
 10
72.218086
 20
160.837189
 41
3.0
 42
3.0
  0
LINE
  5
E1
100
AcDbEntity
  8
DD0
100
AcDbLine
 10
68.918086
 20
160.837189
 11
69.218086
 21
160.837189
  0
LINE
  5
E2
100
AcDbEntity
  8
DD0
100
AcDbLine
 10
72.218086
 20
160.837189
 11
79.735123
 21
160.837189
  0
TEXT
  5
E3
100
AcDbEntity
  8
DD0
100
AcDbText
 10
73.268275
 20
161.837189
 40
3.5
  1
５１
 41
0.833333
  7
STANDARD
100
AcDbText
  0
ENDBLK
  5
E4
100
AcDbEntity
  8
DD0
100
AcDbBlockEnd
  0
BLOCK
  5
E7
100
AcDbEntity
  8
DD0
100
AcDbBlockBegin
  2
DIMS14
 70
     0
 10
0.0
 20
0.0
  0
LINE
  5
E8
100
AcDbEntity
  8
DD0
100
AcDbLine
 10
80.735146
 20
168.112854
 11
80.735146
 21
159.337189
  0
LINE
  5
E9
100
AcDbEntity
  8
DD0
100
AcDbLine
 10
86.413124
 20
168.890167
 11
86.413124
 21
159.337189
  0
INSERT
  5
EA
100
AcDbEntity
  8
DD0
100
AcDbBlockReference
  2
_OPEN
 10
86.413124
 20
160.837189
 41
3.0
 42
3.0
 50
180.0
  0
INSERT
  5
EB
100
AcDbEntity
  8
DD0
100
AcDbBlockReference
  2
_DOT
 10
80.735146
 20
160.837189
 50
180.0
  0
LINE
  5
EC
100
AcDbEntity
  8
DD0
100
AcDbLine
 10
81.735146
 20
160.837189
 11
86.413124
 21
160.837189
  0
LINE
  5
ED
100
AcDbEntity
  8
DD0
100
AcDbLine
 10
89.413124
 20
160.837189
 11
97.713124
 21
160.837189
  0
TEXT
  5
EE
100
AcDbEntity
  8
DD0
100
AcDbText
 10
90.004794
 20
161.837189
 40
3.5
  1
３４
 41
0.833333
  7
STANDARD
100
AcDbText
  0
ENDBLK
  5
EF
100
AcDbEntity
  8
DD0
100
AcDbBlockEnd
  0
ENDSEC
  0
SECTION
  2
ENTITIES
  0
INSERT
  5
53
100
AcDbEntity
  8
DD0
100
AcDbBlockReference
  2
DIMS0
 10
0.0
 20
0.0
  0
INSERT
  5
5D
100
AcDbEntity
  8
DD0
100
AcDbBlockReference
  2
DIMS1
 10
0.0
 20
0.0
  0
INSERT
  5
67
100
AcDbEntity
  8
DD0
100
AcDbBlockReference
  2
DIMS2
 10
0.0
 20
0.0
  0
LEADER
  5
68
100
AcDbEntity
  8
DD0
100
AcDbLeader
  3
LEADSTYL
 76
     3
 10
80.697845
 20
54.894321
 10
91.363403
 20
25.897213
 10
149.363403
 20
25.897213
340
69
 77
     4
  0
TEXT
  5
69
100
AcDbEntity
  8
DD0
100
AcDbText
 10
92.65507
 20
26.897213
 40
3.5
  1
吸込口Ｒｐ１　１／４（３０ｍｍ）
 41
0.833333
  7
STANDARD
100
AcDbText
  0
LEADER
  5
6A
100
AcDbEntity
  8
DD0
100
AcDbLeader
  3
LEADSTYL
 76
     3
 10
68.633354
 20
56.803783
 10
36.220863
 20
25.581902
 10
87.392464
 20
25.581902
340
6B
 77
     4
  0
TEXT
  5
6B
100
AcDbEntity
  8
DD0
100
AcDbText
 10
41.18413
 20
26.581902
 40
3.5
  1
圧力口Ｒｐ１　（２５ｍｍ）
 41
0.833333
  7
STANDARD
100
AcDbText
  0
LEADER
  5
6C
100
AcDbEntity
  8
DD0
100
AcDbLeader
  3
LEADSTYL
 76
     3
 10
108.461449
 20
62.018482
 10
113.024437
 20
33.786446
 10
157.024445
 20
33.786446
340
6D
 77
     4
  0
TEXT
  5
6D
100
AcDbEntity
  8
DD0
100
AcDbText
 10
114.316104
 20
34.786446
 40
3.5
  1
吐出口Ｒｐ１（２５ｍｍ）
 41
0.833333
  7
STANDARD
100
AcDbText
  0
LEADER
  5
6E
100
AcDbEntity
  8
DD0
100
AcDbLeader
  3
LEADSTYL
 76
     3
 10
108.369278
 20
247.162888
 10
128.152573
 20
268.829285
 10
168.652573
 20
268.829285
340
6F
 77
     4
  0
TEXT
  5
6F
100
AcDbEntity
  8
DD0
100
AcDbText
 10
129.444239
 20
269.829285
 40
3.5
  1
吐出口（予備フランジ）
 41
0.833333
  7
STANDARD
100
AcDbText
  0
INSERT
  5
79
100
AcDbEntity
  8
DD0
100
AcDbBlockReference
  2
DIMS3
 10
0.0
 20
0.0
  0
INSERT
  5
83
100
AcDbEntity
  8
DD0
100
AcDbBlockReference
  2
DIMS4
 10
0.0
 20
0.0
  0
INSERT
  5
8D
100
AcDbEntity
  8
DD0
100
AcDbBlockReference
  2
DIMS5
 10
0.0
 20
0.0
  0
LEADER
  5
8E
100
AcDbEntity
  8
DD0
100
AcDbLeader
  3
LEADSTYL
 76
     3
 10
122.167801
 20
193.047073
 10
136.742004
 20
162.691452
 10
177.242004
 20
162.691452
340
8F
 77
     4
  0
TEXT
  5
8F
100
AcDbEntity
  8
DD0
100
AcDbText
 10
138.033671
 20
163.691452
 40
3.5
  1
吐出口（予備フランジ）
 41
0.833333
  7
STANDARD
100
AcDbText
  0
INSERT
  5
99
100
AcDbEntity
  8
DD0
100
AcDbBlockReference
  2
DIMS6
 10
0.0
 20
0.0
  0
INSERT
  5
A3
100
AcDbEntity
  8
DD0
100
AcDbBlockReference
  2
DIMS7
 10
0.0
 20
0.0
  0
INSERT
  5
AD
100
AcDbEntity
  8
DD0
100
AcDbBlockReference
  2
DIMS8
 10
0.0
 20
0.0
  0
INSERT
  5
B7
100
AcDbEntity
  8
DD0
100
AcDbBlockReference
  2
DIMS9
 10
0.0
 20
0.0
  0
LEADER
  5
B8
100
AcDbEntity
  8
DD0
100
AcDbLeader
  3
LEADSTYL
 76
     3
 10
97.852989
 20
180.203674
 10
107.814468
 20
152.837189
 10
151.814468
 20
152.837189
340
B9
 77
     4
  0
TEXT
  5
B9
100
AcDbEntity
  8
DD0
100
AcDbText
 10
109.106135
 20
153.837189
 40
3.5
  1
ベース固定穴：３－φ１２
 41
0.833333
  7
STANDARD
100
AcDbText
  0
INSERT
  5
C5
100
AcDbEntity
  8
DD0
100
AcDbBlockReference
  2
DIMS10
 10
0.0
 20
0.0
  0
INSERT
  5
CF
100
AcDbEntity
  8
DD0
100
AcDbBlockReference
  2
DIMS11
 10
0.0
 20
0.0
  0
INSERT
  5
DB
100
AcDbEntity
  8
DD0
100
AcDbBlockReference
  2
DIMS12
 10
0.0
 20
0.0
  0
INSERT
  5
E5
100
AcDbEntity
  8
DD0
100
AcDbBlockReference
  2
DIMS13
 10
0.0
 20
0.0
  0
INSERT
  5
F0
100
AcDbEntity
  8
DD0
100
AcDbBlockReference
  2
DIMS14
 10
0.0
 20
0.0
  0
TEXT
  5
F1
100
AcDbEntity
  8
M0
100
AcDbText
 10
79.833209
 20
187.196563
 40
2.505
  1
ポンプの中心
 50
90.000003
 41
0.844444
  7
STANDARD
100
AcDbText
  0
LINE
  5
F2
100
AcDbEntity
  8
M0
  6
DASHDOT
100
AcDbLine
 10
101.025632
 20
178.174335
 11
101.025632
 21
171.5255
  0
ARC
  5
F3
100
AcDbEntity
  8
M0
100
AcDbCircle
 10
99.564382
 20
246.828888
 40
0.334
100
AcDbArc
 50
90.0
 51
180.0
  0
LINE
  5
F4
100
AcDbEntity
  8
M0
100
AcDbLine
 10
99.230382
 20
246.828888
 11
99.230382
 21
245.743388
  0
LINE
  5
F5
100
AcDbEntity
  8
M0
100
AcDbLine
 10
113.675882
 20
247.162888
 11
99.564382
 21
247.162888
  0
ARC
  5
F6
100
AcDbEntity
  8
M0
100
AcDbCircle
 10
113.675882
 20
246.828888
 40
0.334
100
AcDbArc
 50
0.0
 51
90.0
  0
LINE
  5
F7
100
AcDbEntity
  8
M0
100
AcDbLine
 10
114.009882
 20
246.828888
 11
114.009882
 21
245.743388
  0
LINE
  5
F8
100
AcDbEntity
  8
M0
100
AcDbLine
 10
99.230382
 20
245.743388
 11
114.009882
 21
245.743388
  0
LINE
  5
F9
100
AcDbEntity
  8
M0
  6
DASHDOT
100
AcDbLine
 10
106.620132
 20
250.663611
 11
106.620132
 21
242.826861
  0
LINE
  5
FA
100
AcDbEntity
  8
M0
100
AcDbLine
 10
120.581303
 20
192.55375
 11
121.249303
 21
192.55375
  0
LINE
  5
FB
100
AcDbEntity
  8
M0
100
AcDbLine
 10
122.167803
 20
192.88775
 11
122.167803
 21
194.47425
  0
LINE
  5
FC
100
AcDbEntity
  8
M0
100
AcDbLine
 10
121.416303
 20
197.39675
 11
121.416303
 21
192.72075
  0
LINE
  5
FD
100
AcDbEntity
  8
M0
100
AcDbLine
 10
122.167803
 20
194.47425
 11
121.416303
 21
194.47425
  0
LINE
  5
FE
100
AcDbEntity
  8
M0
100
AcDbLine
 10
122.167803
 20
192.88775
 11
121.416303
 21
192.88775
  0
LINE
  5
FF
100
AcDbEntity
  8
M0
100
AcDbLine
 10
120.581303
 20
192.55375
 11
120.581303
 21
197.56375
  0
ARC
  5
100
100
AcDbEntity
  8
M0
100
AcDbCircle
 10
121.249303
 20
192.72075
 40
0.167
100
AcDbArc
 50
270.0
 51
360.0
  0
LINE
  5
101
100
AcDbEntity
  8
M0
100
AcDbLine
 10
120.581303
 20
197.56375
 11
121.249303
 21
197.56375
  0
LINE
  5
102
100
AcDbEntity
  8
M0
100
AcDbLine
 10
122.167803
 20
197.22975
 11
122.167803
 21
195.64325
  0
LINE
  5
103
100
AcDbEntity
  8
M0
100
AcDbLine
 10
122.167803
 20
195.64325
 11
121.416303
 21
195.64325
  0
LINE
  5
104
100
AcDbEntity
  8
M0
100
AcDbLine
 10
122.167803
 20
197.22975
 11
121.416303
 21
197.22975
  0
ARC
  5
105
100
AcDbEntity
  8
M0
100
AcDbCircle
 10
121.249303
 20
197.39675
 40
0.167
100
AcDbArc
 50
0.0
 51
90.0
  0
LINE
  5
106
100
AcDbEntity
  8
M0
100
AcDbLine
 10
120.163803
 20
202.1145
 11
120.163803
 21
197.4385
  0
ARC
  5
107
100
AcDbEntity
  8
M0
100
AcDbCircle
 10
119.829804
 20
202.1145
 40
0.334
100
AcDbArc
 50
0.0
 51
90.0
  0
ARC
  5
108
100
AcDbEntity
  8
M0
100
AcDbCircle
 10
120.330803
 20
197.4385
 40
0.167
100
AcDbArc
 50
180.0
 51
270.0
  0
LINE
  5
109
100
AcDbEntity
  8
M0
100
AcDbLine
 10
119.829804
 20
202.4485
 11
118.744304
 21
202.4485
  0
LINE
  5
10A
100
AcDbEntity
  8
M0
100
AcDbLine
 10
120.581303
 20
197.2715
 11
120.330803
 21
197.2715
  0
LINE
  5
10B
100
AcDbEntity
  8
M0
100
AcDbLine
 10
120.163803
 20
188.003
 11
120.163803
 21
192.679
  0
ARC
  5
10C
100
AcDbEntity
  8
M0
100
AcDbCircle
 10
119.829804
 20
188.003
 40
0.334
100
AcDbArc
 50
-90.0
 51
0.0
  0
ARC
  5
10D
100
AcDbEntity
  8
M0
100
AcDbCircle
 10
120.330803
 20
192.679
 40
0.167
100
AcDbArc
 50
90.0
 51
180.0
  0
LINE
  5
10E
100
AcDbEntity
  8
M0
100
AcDbLine
 10
119.829804
 20
187.669001
 11
118.744304
 21
187.669001
  0
LINE
  5
10F
100
AcDbEntity
  8
M0
100
AcDbLine
 10
120.581303
 20
192.846
 11
120.330803
 21
192.846
  0
LINE
  5
110
100
AcDbEntity
  8
M0
100
AcDbLine
 10
118.744304
 20
202.4485
 11
118.744304
 21
187.669001
  0
LINE
  5
111
100
AcDbEntity
  8
M0
  6
DASHDOT
100
AcDbLine
 10
106.620132
 20
170.25939
 11
106.620132
 21
177.27339
  0
LINE
  5
112
100
AcDbEntity
  8
M0
100
AcDbLine
 10
99.439132
 20
175.01889
 11
99.439132
 21
174.60139
  0
LINE
  5
113
100
AcDbEntity
  8
M0
100
AcDbLine
 10
113.801132
 20
174.60139
 11
113.801132
 21
175.01889
  0
LINE
  5
114
100
AcDbEntity
  8
M0
100
AcDbLine
 10
113.133132
 20
175.60339
 11
113.133132
 21
175.01889
  0
LINE
  5
115
100
AcDbEntity
  8
M0
100
AcDbLine
 10
113.133132
 20
175.60339
 11
100.107132
 21
175.60339
  0
LINE
  5
116
100
AcDbEntity
  8
M0
100
AcDbLine
 10
100.107132
 20
175.60339
 11
100.107132
 21
175.01889
  0
LINE
  5
117
100
AcDbEntity
  8
M0
100
AcDbLine
 10
99.439132
 20
175.01889
 11
100.107132
 21
175.01889
  0
LINE
  5
118
100
AcDbEntity
  8
M0
100
AcDbLine
 10
113.133132
 20
175.01889
 11
113.801132
 21
175.01889
  0
LINE
  5
119
100
AcDbEntity
  8
M0
100
AcDbLine
 10
103.029632
 20
174.60139
 11
103.363632
 21
174.26739
  0
LINE
  5
11A
100
AcDbEntity
  8
M0
100
AcDbLine
 10
103.363632
 20
174.26739
 11
103.363632
 21
172.09639
  0
ARC
  5
11B
100
AcDbEntity
  8
M0
100
AcDbCircle
 10
103.530632
 20
172.09639
 40
0.167
100
AcDbArc
 50
180.0
 51
270.0
  0
LINE
  5
11C
100
AcDbEntity
  8
M0
100
AcDbLine
 10
103.530632
 20
171.92939
 11
109.709632
 21
171.92939
  0
ARC
  5
11D
100
AcDbEntity
  8
M0
100
AcDbCircle
 10
109.709632
 20
172.09639
 40
0.167
100
AcDbArc
 50
270.0
 51
360.0
  0
LINE
  5
11E
100
AcDbEntity
  8
M0
100
AcDbLine
 10
110.210632
 20
174.60139
 11
109.876632
 21
174.26739
  0
LINE
  5
11F
100
AcDbEntity
  8
M0
100
AcDbLine
 10
109.876632
 20
174.26739
 11
109.876632
 21
172.09639
  0
LINE
  5
120
100
AcDbEntity
  8
M0
100
AcDbLine
 10
113.801132
 20
174.60139
 11
99.439132
 21
174.60139
  0
LINE
  5
121
100
AcDbEntity
  8
M0
  6
DASHDOT
100
AcDbLine
 10
112.005882
 20
176.373843
 11
112.005882
 21
173.998226
  0
LINE
  5
122
100
AcDbEntity
  8
M0
100
AcDbLine
 10
113.300132
 20
175.93739
 11
99.940132
 21
175.93739
  0
LINE
  5
123
100
AcDbEntity
  8
M0
100
AcDbLine
 10
99.940132
 20
175.60339
 11
113.300132
 21
175.60339
  0
LINE
  5
124
100
AcDbEntity
  8
M0
100
AcDbLine
 10
113.300132
 20
175.60339
 11
113.300132
 21
175.93739
  0
LINE
  5
125
100
AcDbEntity
  8
M0
100
AcDbLine
 10
99.940132
 20
175.60339
 11
99.940132
 21
175.93739
  0
LINE
  5
126
100
AcDbEntity
  8
M0
  6
DASHDOT
100
AcDbLine
 10
112.005882
 20
178.182255
 11
112.005882
 21
172.799673
  0
LINE
  5
127
100
AcDbEntity
  8
M0
100
AcDbLine
 10
113.508882
 20
174.33419
 11
110.502882
 21
174.33419
  0
LINE
  5
128
100
AcDbEntity
  8
M0
100
AcDbLine
 10
113.508882
 20
174.60139
 11
113.508882
 21
174.33419
  0
LINE
  5
129
100
AcDbEntity
  8
M0
100
AcDbLine
 10
110.502882
 20
174.60139
 11
113.508882
 21
174.60139
  0
LINE
  5
12A
100
AcDbEntity
  8
M0
100
AcDbLine
 10
110.502882
 20
174.60139
 11
110.502882
 21
174.33419
  0
ARC
  5
12B
100
AcDbEntity
  8
M0
100
AcDbCircle
 10
111.065811
 20
173.704461
 40
0.629729
100
AcDbArc
 50
60.158276
 51
119.841724
  0
ARC
  5
12C
100
AcDbEntity
  8
M0
100
AcDbCircle
 10
112.945952
 20
173.704461
 40
0.629729
100
AcDbArc
 50
60.158276
 51
119.841724
  0
ARC
  5
12D
100
AcDbEntity
  8
M0
100
AcDbCircle
 10
112.945952
 20
174.045419
 40
0.629729
100
AcDbArc
 50
240.158276
 51
299.841724
  0
ARC
  5
12E
100
AcDbEntity
  8
M0
100
AcDbCircle
 10
111.065811
 20
174.045419
 40
0.629729
100
AcDbArc
 50
240.158276
 51
299.841724
  0
ARC
  5
12F
100
AcDbEntity
  8
M0
100
AcDbCircle
 10
112.005882
 20
171.940523
 40
2.393667
100
AcDbArc
 50
74.821821
 51
105.178179
  0
ARC
  5
130
100
AcDbEntity
  8
M0
100
AcDbCircle
 10
112.005882
 20
175.809356
 40
2.393667
100
AcDbArc
 50
254.821821
 51
285.178179
  0
LINE
  5
131
100
AcDbEntity
  8
M0
100
AcDbLine
 10
112.632595
 20
174.25069
 11
112.632595
 21
173.49919
  0
LINE
  5
132
100
AcDbEntity
  8
M0
100
AcDbLine
 10
111.379168
 20
174.25069
 11
111.379168
 21
173.49919
  0
LINE
  5
133
100
AcDbEntity
  8
M0
100
AcDbLine
 10
113.259309
 20
174.25069
 11
113.259309
 21
173.49919
  0
LINE
  5
134
100
AcDbEntity
  8
M0
100
AcDbLine
 10
112.945952
 20
173.41569
 11
111.379168
 21
173.41569
  0
LINE
  5
135
100
AcDbEntity
  8
M0
100
AcDbLine
 10
111.379168
 20
173.41569
 11
111.065811
 21
173.41569
  0
LINE
  5
136
100
AcDbEntity
  8
M0
100
AcDbLine
 10
110.752454
 20
174.25069
 11
110.752454
 21
173.49919
  0
LINE
  5
137
100
AcDbEntity
  8
M0
  6
DASHDOT
100
AcDbLine
 10
106.620132
 20
244.723126
 11
106.620132
 21
241.588209
  0
LINE
  5
138
100
AcDbEntity
  8
M0
100
AcDbLine
 10
76.100834
 20
175.50319
 11
68.335334
 21
175.50319
  0
LINE
  5
139
100
AcDbEntity
  8
M0
100
AcDbLine
 10
75.641584
 20
174.33419
 11
75.474584
 21
174.16719
  0
LINE
  5
13A
100
AcDbEntity
  8
M0
100
AcDbLine
 10
68.627584
 20
174.50119
 11
75.558105
 21
174.50119
  0
LINE
  5
13B
100
AcDbEntity
  8
M0
100
AcDbLine
 10
75.307584
 20
171.82919
 11
69.128584
 21
171.82919
  0
LINE
  5
13C
100
AcDbEntity
  8
M0
100
AcDbLine
 10
75.474584
 20
171.99619
 11
75.474584
 21
174.16719
  0
ARC
  5
13D
100
AcDbEntity
  8
M0
100
AcDbCircle
 10
75.307584
 20
171.99619
 40
0.167
100
AcDbArc
 50
270.0
 51
360.0
  0
LINE
  5
13E
100
AcDbEntity
  8
M0
100
AcDbLine
 10
68.627584
 20
174.50119
 11
68.961584
 21
174.16719
  0
LINE
  5
13F
100
AcDbEntity
  8
M0
100
AcDbLine
 10
68.627584
 20
174.50119
 11
68.335334
 21
174.50119
  0
LINE
  5
140
100
AcDbEntity
  8
M0
100
AcDbLine
 10
68.961584
 20
171.99619
 11
68.961584
 21
174.16719
  0
ARC
  5
141
100
AcDbEntity
  8
M0
100
AcDbCircle
 10
69.128584
 20
171.99619
 40
0.167
100
AcDbArc
 50
180.0
 51
270.0
  0
LINE
  5
142
100
AcDbEntity
  8
M0
100
AcDbLine
 10
68.335334
 20
175.50319
 11
68.335334
 21
174.50119
  0
ARC
  5
143
100
AcDbEntity
  8
M0
100
AcDbCircle
 10
72.218084
 20
175.78709
 40
2.505
100
AcDbArc
 50
255.511533
 51
284.488467
  0
LINE
  5
144
100
AcDbEntity
  8
M0
100
AcDbLine
 10
73.158155
 20
173.28209
 11
71.278013
 21
173.28209
  0
ARC
  5
145
100
AcDbEntity
  8
M0
100
AcDbCircle
 10
73.158155
 20
173.544466
 40
0.656124
100
AcDbArc
 50
61.47202
 51
118.52798
  0
ARC
  5
146
100
AcDbEntity
  8
M0
100
AcDbCircle
 10
72.218084
 20
171.69559
 40
2.505
100
AcDbArc
 50
75.511533
 51
104.488467
  0
ARC
  5
147
100
AcDbEntity
  8
M0
100
AcDbCircle
 10
71.278013
 20
173.544466
 40
0.656124
100
AcDbArc
 50
61.47202
 51
118.52798
  0
LINE
  5
148
100
AcDbEntity
  8
M0
100
AcDbLine
 10
73.158155
 20
174.20059
 11
71.278013
 21
174.20059
  0
ARC
  5
149
100
AcDbEntity
  8
M0
100
AcDbCircle
 10
71.278013
 20
173.938214
 40
0.656124
100
AcDbArc
 50
241.47202
 51
298.52798
  0
ARC
  5
14A
100
AcDbEntity
  8
M0
100
AcDbCircle
 10
73.158155
 20
173.938214
 40
0.656124
100
AcDbArc
 50
241.47202
 51
298.52798
  0
LINE
  5
14B
100
AcDbEntity
  8
M0
100
AcDbLine
 10
72.844798
 20
173.361754
 11
72.844798
 21
174.120926
  0
LINE
  5
14C
100
AcDbEntity
  8
M0
100
AcDbLine
 10
71.59137
 20
173.361754
 11
71.59137
 21
174.120926
  0
LINE
  5
14D
100
AcDbEntity
  8
M0
100
AcDbLine
 10
70.964657
 20
173.361754
 11
70.964657
 21
174.120926
  0
LINE
  5
14E
100
AcDbEntity
  8
M0
100
AcDbLine
 10
73.471511
 20
173.361754
 11
73.471511
 21
174.120926
  0
LINE
  5
14F
100
AcDbEntity
  8
M0
100
AcDbLine
 10
70.715084
 20
174.23399
 11
70.715084
 21
174.50119
  0
LINE
  5
150
100
AcDbEntity
  8
M0
100
AcDbLine
 10
70.715084
 20
174.23399
 11
73.721084
 21
174.23399
  0
LINE
  5
151
100
AcDbEntity
  8
M0
100
AcDbLine
 10
73.721084
 20
174.23399
 11
73.721084
 21
174.50119
  0
LINE
  5
152
100
AcDbEntity
  8
M0
100
AcDbLine
 10
73.721084
 20
174.50119
 11
70.715084
 21
174.50119
  0
LINE
  5
153
100
AcDbEntity
  8
M0
100
AcDbLine
 10
71.666984
 20
174.20059
 11
71.666984
 21
174.23399
  0
LINE
  5
154
100
AcDbEntity
  8
M0
100
AcDbLine
 10
72.769184
 20
174.20059
 11
72.769184
 21
174.23399
  0
LINE
  5
155
100
AcDbEntity
  8
M0
100
AcDbLine
 10
75.558105
 20
175.50319
 11
85.912192
 21
175.50319
  0
LINE
  5
156
100
AcDbEntity
  8
M0
100
AcDbLine
 10
84.534398
 20
171.16119
 11
76.935898
 21
171.16119
  0
LINE
  5
157
100
AcDbEntity
  8
M0
100
AcDbLine
 10
76.768898
 20
171.32819
 11
76.768898
 21
173.11509
  0
LINE
  5
158
100
AcDbEntity
  8
M0
100
AcDbLine
 10
85.912192
 20
174.33419
 11
75.558105
 21
174.33419
  0
LINE
  5
159
100
AcDbEntity
  8
M0
100
AcDbLine
 10
84.701398
 20
171.32819
 11
84.701398
 21
173.79144
  0
LINE
  5
15A
100
AcDbEntity
  8
M0
100
AcDbLine
 10
85.244148
 20
174.33419
 11
84.701398
 21
173.79144
  0
ARC
  5
15B
100
AcDbEntity
  8
M0
100
AcDbCircle
 10
76.935898
 20
171.32819
 40
0.167
100
AcDbArc
 50
180.0
 51
270.0
  0
ARC
  5
15C
100
AcDbEntity
  8
M0
100
AcDbCircle
 10
84.534398
 20
171.32819
 40
0.167
100
AcDbArc
 50
270.0
 51
360.0
  0
LINE
  5
15D
100
AcDbEntity
  8
M0
100
AcDbLine
 10
75.558105
 20
175.50319
 11
75.558105
 21
174.33419
  0
LINE
  5
15E
100
AcDbEntity
  8
M0
100
AcDbLine
 10
85.912192
 20
175.50319
 11
85.912192
 21
174.33419
  0
ARC
  5
15F
100
AcDbEntity
  8
M0
100
AcDbCircle
 10
77.144605
 20
175.62009
 40
2.505
100
AcDbArc
 50
255.511533
 51
284.488467
  0
LINE
  5
160
100
AcDbEntity
  8
M0
100
AcDbLine
 10
78.084675
 20
173.11509
 11
76.204534
 21
173.11509
  0
ARC
  5
161
100
AcDbEntity
  8
M0
100
AcDbCircle
 10
78.084675
 20
173.377466
 40
0.656124
100
AcDbArc
 50
61.47202
 51
118.52798
  0
ARC
  5
162
100
AcDbEntity
  8
M0
100
AcDbCircle
 10
77.144605
 20
171.52859
 40
2.505
100
AcDbArc
 50
75.511533
 51
104.488467
  0
ARC
  5
163
100
AcDbEntity
  8
M0
100
AcDbCircle
 10
76.204534
 20
173.377466
 40
0.656124
100
AcDbArc
 50
61.47202
 51
118.52798
  0
LINE
  5
164
100
AcDbEntity
  8
M0
100
AcDbLine
 10
78.084675
 20
174.03359
 11
76.204534
 21
174.03359
  0
ARC
  5
165
100
AcDbEntity
  8
M0
100
AcDbCircle
 10
76.204534
 20
173.771214
 40
0.656124
100
AcDbArc
 50
241.47202
 51
298.52798
  0
ARC
  5
166
100
AcDbEntity
  8
M0
100
AcDbCircle
 10
78.084675
 20
173.771214
 40
0.656124
100
AcDbArc
 50
241.47202
 51
298.52798
  0
LINE
  5
167
100
AcDbEntity
  8
M0
100
AcDbLine
 10
77.771318
 20
173.194754
 11
77.771318
 21
173.953926
  0
LINE
  5
168
100
AcDbEntity
  8
M0
100
AcDbLine
 10
76.517891
 20
173.194754
 11
76.517891
 21
173.953926
  0
LINE
  5
169
100
AcDbEntity
  8
M0
100
AcDbLine
 10
75.891177
 20
173.194754
 11
75.891177
 21
173.953926
  0
LINE
  5
16A
100
AcDbEntity
  8
M0
100
AcDbLine
 10
78.398032
 20
173.194754
 11
78.398032
 21
173.953926
  0
LINE
  5
16B
100
AcDbEntity
  8
M0
100
AcDbLine
 10
75.641605
 20
174.06699
 11
75.641605
 21
174.33419
  0
LINE
  5
16C
100
AcDbEntity
  8
M0
100
AcDbLine
 10
75.641605
 20
174.06699
 11
78.647605
 21
174.06699
  0
LINE
  5
16D
100
AcDbEntity
  8
M0
100
AcDbLine
 10
78.647605
 20
174.06699
 11
78.647605
 21
174.33419
  0
LINE
  5
16E
100
AcDbEntity
  8
M0
100
AcDbLine
 10
76.593505
 20
174.03359
 11
76.593505
 21
174.06699
  0
LINE
  5
16F
100
AcDbEntity
  8
M0
100
AcDbLine
 10
77.695705
 20
174.03359
 11
77.695705
 21
174.06699
  0
LINE
  5
170
100
AcDbEntity
  8
M0
100
AcDbLine
 10
99.522632
 20
174.33419
 11
102.528632
 21
174.33419
  0
LINE
  5
171
100
AcDbEntity
  8
M0
100
AcDbLine
 10
99.522632
 20
174.60139
 11
99.522632
 21
174.33419
  0
LINE
  5
172
100
AcDbEntity
  8
M0
100
AcDbLine
 10
102.528632
 20
174.60139
 11
99.522632
 21
174.60139
  0
LINE
  5
173
100
AcDbEntity
  8
M0
100
AcDbLine
 10
102.528632
 20
174.60139
 11
102.528632
 21
174.33419
  0
ARC
  5
174
100
AcDbEntity
  8
M0
100
AcDbCircle
 10
101.965703
 20
173.704461
 40
0.629729
100
AcDbArc
 50
60.158276
 51
119.841724
  0
ARC
  5
175
100
AcDbEntity
  8
M0
100
AcDbCircle
 10
100.085561
 20
173.704461
 40
0.629729
100
AcDbArc
 50
60.158276
 51
119.841724
  0
ARC
  5
176
100
AcDbEntity
  8
M0
100
AcDbCircle
 10
100.085561
 20
174.045419
 40
0.629729
100
AcDbArc
 50
240.158276
 51
299.841724
  0
ARC
  5
177
100
AcDbEntity
  8
M0
100
AcDbCircle
 10
101.965703
 20
174.045419
 40
0.629729
100
AcDbArc
 50
240.158276
 51
299.841724
  0
ARC
  5
178
100
AcDbEntity
  8
M0
100
AcDbCircle
 10
101.025632
 20
171.940523
 40
2.393667
100
AcDbArc
 50
74.821821
 51
105.178179
  0
ARC
  5
179
100
AcDbEntity
  8
M0
100
AcDbCircle
 10
101.025632
 20
175.809356
 40
2.393667
100
AcDbArc
 50
254.821821
 51
285.178179
  0
LINE
  5
17A
100
AcDbEntity
  8
M0
100
AcDbLine
 10
100.398918
 20
174.25069
 11
100.398918
 21
173.49919
  0
LINE
  5
17B
100
AcDbEntity
  8
M0
100
AcDbLine
 10
101.652346
 20
174.25069
 11
101.652346
 21
173.49919
  0
LINE
  5
17C
100
AcDbEntity
  8
M0
100
AcDbLine
 10
99.772205
 20
174.25069
 11
99.772205
 21
173.49919
  0
LINE
  5
17D
100
AcDbEntity
  8
M0
100
AcDbLine
 10
100.085561
 20
173.41569
 11
101.652346
 21
173.41569
  0
LINE
  5
17E
100
AcDbEntity
  8
M0
100
AcDbLine
 10
101.652346
 20
173.41569
 11
101.965703
 21
173.41569
  0
LINE
  5
17F
100
AcDbEntity
  8
M0
100
AcDbLine
 10
102.279059
 20
174.25069
 11
102.279059
 21
173.49919
  0
LINE
  5
180
100
AcDbEntity
  8
M0
100
AcDbLine
 10
120.431003
 20
199.150389
 11
120.431003
 21
202.156389
  0
LINE
  5
181
100
AcDbEntity
  8
M0
100
AcDbLine
 10
120.163803
 20
199.150389
 11
120.431003
 21
199.150389
  0
LINE
  5
182
100
AcDbEntity
  8
M0
100
AcDbLine
 10
120.163803
 20
202.156389
 11
120.163803
 21
199.150389
  0
LINE
  5
183
100
AcDbEntity
  8
M0
100
AcDbLine
 10
120.163803
 20
202.156389
 11
120.431003
 21
202.156389
  0
ARC
  5
184
100
AcDbEntity
  8
M0
100
AcDbCircle
 10
121.060733
 20
201.59346
 40
0.629729
100
AcDbArc
 50
150.158276
 51
209.841724
  0
ARC
  5
185
100
AcDbEntity
  8
M0
100
AcDbCircle
 10
121.060733
 20
199.713319
 40
0.629729
100
AcDbArc
 50
150.158276
 51
209.841724
  0
ARC
  5
186
100
AcDbEntity
  8
M0
100
AcDbCircle
 10
120.719774
 20
199.713319
 40
0.629729
100
AcDbArc
 50
-29.841724
 51
29.841724
  0
ARC
  5
187
100
AcDbEntity
  8
M0
100
AcDbCircle
 10
120.719774
 20
201.59346
 40
0.629729
100
AcDbArc
 50
330.158276
 51
389.841724
  0
ARC
  5
188
100
AcDbEntity
  8
M0
100
AcDbCircle
 10
122.82467
 20
200.653389
 40
2.393667
100
AcDbArc
 50
164.821821
 51
195.178179
  0
ARC
  5
189
100
AcDbEntity
  8
M0
100
AcDbCircle
 10
118.955837
 20
200.653389
 40
2.393667
100
AcDbArc
 50
344.821821
 51
375.178179
  0
LINE
  5
18A
100
AcDbEntity
  8
M0
100
AcDbLine
 10
120.514503
 20
200.026675
 11
121.266003
 21
200.026675
  0
LINE
  5
18B
100
AcDbEntity
  8
M0
100
AcDbLine
 10
120.514503
 20
201.280103
 11
121.266003
 21
201.280103
  0
LINE
  5
18C
100
AcDbEntity
  8
M0
100
AcDbLine
 10
120.514503
 20
199.399962
 11
121.266003
 21
199.399962
  0
LINE
  5
18D
100
AcDbEntity
  8
M0
100
AcDbLine
 10
121.349503
 20
199.713319
 11
121.349503
 21
201.280103
  0
LINE
  5
18E
100
AcDbEntity
  8
M0
100
AcDbLine
 10
121.349503
 20
201.280103
 11
121.349503
 21
201.59346
  0
LINE
  5
18F
100
AcDbEntity
  8
M0
100
AcDbLine
 10
120.514503
 20
201.906816
 11
121.266003
 21
201.906816
  0
LINE
  5
190
100
AcDbEntity
  8
M0
100
AcDbLine
 10
120.431003
 20
190.967112
 11
120.431003
 21
187.961112
  0
LINE
  5
191
100
AcDbEntity
  8
M0
100
AcDbLine
 10
120.163803
 20
190.967112
 11
120.431003
 21
190.967112
  0
LINE
  5
192
100
AcDbEntity
  8
M0
100
AcDbLine
 10
120.163803
 20
187.961112
 11
120.163803
 21
190.967112
  0
LINE
  5
193
100
AcDbEntity
  8
M0
100
AcDbLine
 10
120.163803
 20
187.961112
 11
120.431003
 21
187.961112
  0
ARC
  5
194
100
AcDbEntity
  8
M0
100
AcDbCircle
 10
121.060733
 20
188.524041
 40
0.629729
100
AcDbArc
 50
150.158276
 51
209.841724
  0
ARC
  5
195
100
AcDbEntity
  8
M0
100
AcDbCircle
 10
121.060733
 20
190.404182
 40
0.629729
100
AcDbArc
 50
150.158276
 51
209.841724
  0
ARC
  5
196
100
AcDbEntity
  8
M0
100
AcDbCircle
 10
120.719774
 20
190.404182
 40
0.629729
100
AcDbArc
 50
330.158276
 51
389.841724
  0
ARC
  5
197
100
AcDbEntity
  8
M0
100
AcDbCircle
 10
120.719774
 20
188.524041
 40
0.629729
100
AcDbArc
 50
-29.841724
 51
29.841724
  0
ARC
  5
198
100
AcDbEntity
  8
M0
100
AcDbCircle
 10
122.82467
 20
189.464112
 40
2.393667
100
AcDbArc
 50
164.821821
 51
195.178179
  0
ARC
  5
199
100
AcDbEntity
  8
M0
100
AcDbCircle
 10
118.955837
 20
189.464112
 40
2.393667
100
AcDbArc
 50
-15.178179
 51
15.178179
  0
LINE
  5
19A
100
AcDbEntity
  8
M0
100
AcDbLine
 10
120.514503
 20
190.090825
 11
121.266003
 21
190.090825
  0
LINE
  5
19B
100
AcDbEntity
  8
M0
100
AcDbLine
 10
120.514503
 20
188.837398
 11
121.266003
 21
188.837398
  0
LINE
  5
19C
100
AcDbEntity
  8
M0
100
AcDbLine
 10
120.514503
 20
190.717539
 11
121.266003
 21
190.717539
  0
LINE
  5
19D
100
AcDbEntity
  8
M0
100
AcDbLine
 10
121.349503
 20
190.404182
 11
121.349503
 21
188.837398
  0
LINE
  5
19E
100
AcDbEntity
  8
M0
100
AcDbLine
 10
121.349503
 20
188.837398
 11
121.349503
 21
188.524041
  0
LINE
  5
19F
100
AcDbEntity
  8
M0
100
AcDbLine
 10
120.514503
 20
188.210684
 11
121.266003
 21
188.210684
  0
LINE
  5
1A0
100
AcDbEntity
  8
M0
  6
DASHDOT
100
AcDbLine
 10
112.214632
 20
243.582022
 11
112.214632
 21
248.964605
  0
LINE
  5
1A1
100
AcDbEntity
  8
M0
100
AcDbLine
 10
113.717632
 20
247.430088
 11
110.711632
 21
247.430088
  0
LINE
  5
1A2
100
AcDbEntity
  8
M0
100
AcDbLine
 10
113.717632
 20
247.162888
 11
113.717632
 21
247.430088
  0
LINE
  5
1A3
100
AcDbEntity
  8
M0
100
AcDbLine
 10
110.711632
 20
247.162888
 11
113.717632
 21
247.162888
  0
LINE
  5
1A4
100
AcDbEntity
  8
M0
100
AcDbLine
 10
110.711632
 20
247.162888
 11
110.711632
 21
247.430088
  0
ARC
  5
1A5
100
AcDbEntity
  8
M0
100
AcDbCircle
 10
111.274561
 20
248.059817
 40
0.629729
100
AcDbArc
 50
240.158276
 51
299.841724
  0
ARC
  5
1A6
100
AcDbEntity
  8
M0
100
AcDbCircle
 10
113.154702
 20
248.059817
 40
0.629729
100
AcDbArc
 50
240.158276
 51
299.841724
  0
ARC
  5
1A7
100
AcDbEntity
  8
M0
100
AcDbCircle
 10
113.154702
 20
247.718859
 40
0.629729
100
AcDbArc
 50
60.158276
 51
119.841724
  0
ARC
  5
1A8
100
AcDbEntity
  8
M0
100
AcDbCircle
 10
111.274561
 20
247.718859
 40
0.629729
100
AcDbArc
 50
60.158276
 51
119.841724
  0
ARC
  5
1A9
100
AcDbEntity
  8
M0
100
AcDbCircle
 10
112.214632
 20
249.823754
 40
2.393667
100
AcDbArc
 50
254.821821
 51
285.178179
  0
ARC
  5
1AA
100
AcDbEntity
  8
M0
100
AcDbCircle
 10
112.214632
 20
245.954921
 40
2.393667
100
AcDbArc
 50
74.821821
 51
105.178179
  0
LINE
  5
1AB
100
AcDbEntity
  8
M0
100
AcDbLine
 10
112.841345
 20
247.513588
 11
112.841345
 21
248.265088
  0
LINE
  5
1AC
100
AcDbEntity
  8
M0
100
AcDbLine
 10
111.587918
 20
247.513588
 11
111.587918
 21
248.265088
  0
LINE
  5
1AD
100
AcDbEntity
  8
M0
100
AcDbLine
 10
113.468059
 20
247.513588
 11
113.468059
 21
248.265088
  0
LINE
  5
1AE
100
AcDbEntity
  8
M0
100
AcDbLine
 10
113.154702
 20
248.348588
 11
111.587918
 21
248.348588
  0
LINE
  5
1AF
100
AcDbEntity
  8
M0
100
AcDbLine
 10
111.587918
 20
248.348588
 11
111.274561
 21
248.348588
  0
LINE
  5
1B0
100
AcDbEntity
  8
M0
100
AcDbLine
 10
110.961204
 20
247.513588
 11
110.961204
 21
248.265088
  0
LINE
  5
1B1
100
AcDbEntity
  8
M0
100
AcDbLine
 10
99.522632
 20
247.430088
 11
102.528632
 21
247.430088
  0
LINE
  5
1B2
100
AcDbEntity
  8
M0
100
AcDbLine
 10
99.522632
 20
247.162888
 11
99.522632
 21
247.430088
  0
LINE
  5
1B3
100
AcDbEntity
  8
M0
100
AcDbLine
 10
102.528632
 20
247.162888
 11
99.522632
 21
247.162888
  0
LINE
  5
1B4
100
AcDbEntity
  8
M0
100
AcDbLine
 10
102.528632
 20
247.162888
 11
102.528632
 21
247.430088
  0
ARC
  5
1B5
100
AcDbEntity
  8
M0
100
AcDbCircle
 10
101.965703
 20
248.059817
 40
0.629729
100
AcDbArc
 50
240.158276
 51
299.841724
  0
ARC
  5
1B6
100
AcDbEntity
  8
M0
100
AcDbCircle
 10
100.085561
 20
248.059817
 40
0.629729
100
AcDbArc
 50
240.158276
 51
299.841724
  0
ARC
  5
1B7
100
AcDbEntity
  8
M0
100
AcDbCircle
 10
100.085561
 20
247.718859
 40
0.629729
100
AcDbArc
 50
60.158276
 51
119.841724
  0
ARC
  5
1B8
100
AcDbEntity
  8
M0
100
AcDbCircle
 10
101.965703
 20
247.718859
 40
0.629729
100
AcDbArc
 50
60.158276
 51
119.841724
  0
ARC
  5
1B9
100
AcDbEntity
  8
M0
100
AcDbCircle
 10
101.025632
 20
249.823754
 40
2.393667
100
AcDbArc
 50
254.821821
 51
285.178179
  0
ARC
  5
1BA
100
AcDbEntity
  8
M0
100
AcDbCircle
 10
101.025632
 20
245.954921
 40
2.393667
100
AcDbArc
 50
74.821821
 51
105.178179
  0
LINE
  5
1BB
100
AcDbEntity
  8
M0
100
AcDbLine
 10
100.398918
 20
247.513588
 11
100.398918
 21
248.265088
  0
LINE
  5
1BC
100
AcDbEntity
  8
M0
100
AcDbLine
 10
101.652346
 20
247.513588
 11
101.652346
 21
248.265088
  0
LINE
  5
1BD
100
AcDbEntity
  8
M0
100
AcDbLine
 10
99.772205
 20
247.513588
 11
99.772205
 21
248.265088
  0
LINE
  5
1BE
100
AcDbEntity
  8
M0
100
AcDbLine
 10
100.085561
 20
248.348588
 11
101.652346
 21
248.348588
  0
LINE
  5
1BF
100
AcDbEntity
  8
M0
100
AcDbLine
 10
101.652346
 20
248.348588
 11
101.965703
 21
248.348588
  0
LINE
  5
1C0
100
AcDbEntity
  8
M0
100
AcDbLine
 10
102.279059
 20
247.513588
 11
102.279059
 21
248.265088
  0
LINE
  5
1C1
100
AcDbEntity
  8
M0
  6
DASHDOT
100
AcDbLine
 10
77.144605
 20
177.095546
 11
77.144605
 21
172.297294
  0
LINE
  5
1C2
100
AcDbEntity
  8
M0
  6
DASHDOT
100
AcDbLine
 10
54.015124
 20
210.840389
 11
54.182124
 21
210.840389
  0
ARC
  5
1C3
100
AcDbEntity
  8
M0
100
AcDbCircle
 10
722.683107
 20
210.840389
 40
668.667983
100
AcDbArc
 50
177.63683
 51
179.220101
  0
ARC
  5
1C4
100
AcDbEntity
  8
M0
100
AcDbCircle
 10
722.683107
 20
210.840389
 40
668.500983
100
AcDbArc
 50
177.63683
 51
182.36317
  0
ARC
  5
1C5
100
AcDbEntity
  8
M0
100
AcDbCircle
 10
722.683107
 20
210.840389
 40
667.999983
100
AcDbArc
 50
177.63683
 51
182.36317
  0
ARC
  5
1C6
100
AcDbEntity
  8
M0
100
AcDbCircle
 10
61.925549
 20
183.571912
 40
6.68
100
AcDbArc
 50
182.36317
 51
267.877949
  0
ARC
  5
1C7
100
AcDbEntity
  8
M0
100
AcDbCircle
 10
61.925549
 20
183.571912
 40
7.181
100
AcDbArc
 50
182.36317
 51
267.877949
  0
ARC
  5
1C8
100
AcDbEntity
  8
M0
100
AcDbCircle
 10
61.925549
 20
183.571912
 40
7.348
100
AcDbArc
 50
182.36317
 51
267.877949
  0
ARC
  5
1C9
100
AcDbEntity
  8
M0
100
AcDbCircle
 10
-549.856861
 20
210.840389
 40
668.667983
100
AcDbArc
 50
0.779899
 51
2.36317
  0
ARC
  5
1CA
100
AcDbEntity
  8
M0
100
AcDbCircle
 10
-549.856861
 20
210.840389
 40
668.500983
100
AcDbArc
 50
-2.36317
 51
2.36317
  0
ARC
  5
1CB
100
AcDbEntity
  8
M0
100
AcDbCircle
 10
-549.856861
 20
210.840389
 40
667.999983
100
AcDbArc
 50
-2.36317
 51
2.36317
  0
ARC
  5
1CC
100
AcDbEntity
  8
M0
100
AcDbCircle
 10
110.900697
 20
238.108866
 40
6.68
100
AcDbArc
 50
2.36317
 51
87.877949
  0
ARC
  5
1CD
100
AcDbEntity
  8
M0
100
AcDbCircle
 10
110.900697
 20
238.108866
 40
7.348
100
AcDbArc
 50
2.36317
 51
66.751336
  0
ARC
  5
1CE
100
AcDbEntity
  8
M0
100
AcDbCircle
 10
-549.856861
 20
210.840389
 40
668.667983
100
AcDbArc
 50
357.63683
 51
358.032038
  0
ARC
  5
1CF
100
AcDbEntity
  8
M0
100
AcDbCircle
 10
722.683107
 20
210.840389
 40
668.667983
100
AcDbArc
 50
180.450758
 51
182.36317
  0
ARC
  5
1D0
100
AcDbEntity
  8
M0
100
AcDbCircle
 10
61.925549
 20
238.108866
 40
7.348
100
AcDbArc
 50
92.122051
 51
177.63683
  0
ARC
  5
1D1
100
AcDbEntity
  8
M0
100
AcDbCircle
 10
61.925549
 20
238.108866
 40
7.181
100
AcDbArc
 50
92.122051
 51
177.63683
  0
ARC
  5
1D2
100
AcDbEntity
  8
M0
100
AcDbCircle
 10
61.925549
 20
238.108866
 40
6.68
100
AcDbArc
 50
92.122051
 51
177.63683
  0
ARC
  5
1D3
100
AcDbEntity
  8
M0
100
AcDbCircle
 10
110.900697
 20
238.108866
 40
7.181
100
AcDbArc
 50
2.36317
 51
87.877949
  0
ARC
  5
1D4
100
AcDbEntity
  8
M0
100
AcDbCircle
 10
86.413123
 20
-422.757929
 40
668.501316
100
AcDbArc
 50
87.877949
 51
92.122051
  0
ARC
  5
1D5
100
AcDbEntity
  8
M0
100
AcDbCircle
 10
86.413123
 20
-422.757929
 40
668.000317
100
AcDbArc
 50
87.877949
 51
92.122051
  0
ARC
  5
1D6
100
AcDbEntity
  8
M0
100
AcDbCircle
 10
110.900697
 20
183.571912
 40
7.181
100
AcDbArc
 50
272.122051
 51
357.63683
  0
ARC
  5
1D7
100
AcDbEntity
  8
M0
100
AcDbCircle
 10
110.900697
 20
183.571912
 40
7.348
100
AcDbArc
 50
293.248878
 51
357.63683
  0
ARC
  5
1D8
100
AcDbEntity
  8
M0
100
AcDbCircle
 10
86.413123
 20
844.438706
 40
668.000317
100
AcDbArc
 50
267.877949
 51
272.122051
  0
ARC
  5
1D9
100
AcDbEntity
  8
M0
100
AcDbCircle
 10
86.413123
 20
844.438706
 40
668.501316
100
AcDbArc
 50
267.877949
 51
272.122051
  0
ARC
  5
1DA
100
AcDbEntity
  8
M0
100
AcDbCircle
 10
86.413123
 20
844.438706
 40
668.668316
100
AcDbArc
 50
269.190114
 51
271.280559
  0
ARC
  5
1DB
100
AcDbEntity
  8
M0
100
AcDbCircle
 10
86.413123
 20
844.438706
 40
668.668316
100
AcDbArc
 50
267.877949
 51
268.440058
  0
ARC
  5
1DC
100
AcDbEntity
  8
M0
100
AcDbCircle
 10
86.413123
 20
844.438706
 40
668.668316
100
AcDbArc
 50
269.112762
 51
269.127073
  0
LINE
  5
1DD
100
AcDbEntity
  8
M0
100
AcDbLine
 10
54.035817
 20
205.579889
 11
54.202822
 21
205.579889
  0
LINE
  5
1DE
100
AcDbEntity
  8
M0
100
AcDbLine
 10
54.077069
 20
219.941889
 11
54.244084
 21
219.941889
  0
LINE
  5
1DF
100
AcDbEntity
  8
M0
  6
DASHDOT
100
AcDbLine
 10
115.638122
 20
233.385388
 11
115.638122
 21
236.725388
  0
LINE
  5
1E0
100
AcDbEntity
  8
M0
  6
DASHDOT
100
AcDbLine
 10
113.968122
 20
235.055388
 11
117.308122
 21
235.055388
  0
LINE
  5
1E1
100
AcDbEntity
  8
M0
100
AcDbLine
 10
118.749177
 20
219.941889
 11
118.582162
 21
219.941889
  0
CIRCLE
  5
1E2
100
AcDbEntity
  8
M0
100
AcDbCircle
 10
97.435123
 20
181.11439
 40
1.002
  0
LINE
  5
1E3
100
AcDbEntity
  8
M0
  6
DASHDOT
100
AcDbLine
 10
95.765123
 20
181.11439
 11
99.105123
 21
181.11439
  0
LINE
  5
1E4
100
AcDbEntity
  8
M0
  6
DASHDOT
100
AcDbLine
 10
97.435123
 20
179.44439
 11
97.435123
 21
182.78439
  0
ARC
  5
1E5
100
AcDbEntity
  8
M0
  6
DASHED
100
AcDbCircle
 10
117.975908
 20
210.305989
 40
0.167
100
AcDbArc
 50
359.954152
 51
450.0
  0
ARC
  5
1E6
100
AcDbEntity
  8
M0
  6
DASHED
100
AcDbCircle
 10
117.976122
 20
211.374789
 40
0.167
100
AcDbArc
 50
270.0
 51
360.0
  0
ARC
  5
1E7
100
AcDbEntity
  8
M0
100
AcDbCircle
 10
113.968143
 20
176.894796
 40
0.167
100
AcDbArc
 50
114.673898
 51
180.0
  0
LINE
  5
1E8
100
AcDbEntity
  8
M0
  6
DASHDOT
100
AcDbLine
 10
86.413123
 20
245.910388
 11
86.413123
 21
168.890161
  0
ARC
  5
1E9
100
AcDbEntity
  8
M0
100
AcDbCircle
 10
86.413123
 20
-422.757929
 40
668.668316
100
AcDbArc
 50
88.719441
 51
92.122051
  0
LINE
  5
1EA
100
AcDbEntity
  8
M0
100
AcDbLine
 10
68.377059
 20
175.83719
 11
76.059059
 21
175.83719
  0
LINE
  5
1EB
100
AcDbEntity
  8
M0
100
AcDbLine
 10
68.210123
 20
175.93739
 11
85.578123
 21
175.93739
  0
LINE
  5
1EC
100
AcDbEntity
  8
M0
100
AcDbLine
 10
76.226059
 20
175.93739
 11
76.226059
 21
175.83719
  0
LINE
  5
1ED
100
AcDbEntity
  8
M0
100
AcDbLine
 10
76.226059
 20
175.83719
 11
85.244058
 21
175.83719
  0
LINE
  5
1EE
100
AcDbEntity
  8
M0
100
AcDbLine
 10
85.244058
 20
175.93739
 11
85.244058
 21
175.83719
  0
LINE
  5
1EF
100
AcDbEntity
  8
M0
100
AcDbLine
 10
85.578123
 20
175.941927
 11
85.578123
 21
175.93739
  0
LINE
  5
1F0
100
AcDbEntity
  8
M0
100
AcDbLine
 10
76.059059
 20
175.93739
 11
76.059059
 21
175.83719
  0
LINE
  5
1F1
100
AcDbEntity
  8
M0
100
AcDbLine
 10
68.377059
 20
175.93739
 11
68.377059
 21
175.83719
  0
LINE
  5
1F2
100
AcDbEntity
  8
M0
100
AcDbLine
 10
68.210123
 20
176.022772
 11
68.210123
 21
175.93739
  0
ARC
  5
1F3
100
AcDbEntity
  8
M0
100
AcDbCircle
 10
68.043123
 20
176.022772
 40
0.167
100
AcDbArc
 50
2.255069E-008
 51
88.425743
  0
LINE
  5
1F4
100
AcDbEntity
  8
M0
100
AcDbLine
 10
99.439143
 20
175.93739
 11
99.439143
 21
176.06431
  0
LINE
  5
1F5
100
AcDbEntity
  8
M0
100
AcDbLine
 10
113.801143
 20
175.93739
 11
99.439143
 21
175.93739
  0
LINE
  5
1F6
100
AcDbEntity
  8
M0
100
AcDbLine
 10
113.801143
 20
175.93739
 11
113.801143
 21
176.894796
  0
LINE
  5
1F7
100
AcDbEntity
  8
M0
100
AcDbLine
 10
99.439118
 20
245.743388
 11
99.439118
 21
245.589094
  0
LINE
  5
1F8
100
AcDbEntity
  8
M0
100
AcDbLine
 10
113.801117
 20
245.743388
 11
99.439118
 21
245.743388
  0
LINE
  5
1F9
100
AcDbEntity
  8
M0
100
AcDbLine
 10
113.801117
 20
245.743388
 11
113.801117
 21
244.785994
  0
LINE
  5
1FA
100
AcDbEntity
  8
M0
  6
DASHDOT
100
AcDbLine
 10
112.21465
 20
246.418367
 11
112.21465
 21
244.565162
  0
ARC
  5
1FB
100
AcDbEntity
  8
M0
100
AcDbCircle
 10
113.968117
 20
244.785994
 40
0.167
100
AcDbArc
 50
180.0
 51
245.326319
  0
LINE
  5
1FC
100
AcDbEntity
  8
M0
  6
DASHDOT
100
AcDbLine
 10
57.021124
 20
197.480389
 11
57.021124
 21
200.820389
  0
LINE
  5
1FD
100
AcDbEntity
  8
M0
  6
DASHDOT
100
AcDbLine
 10
106.620118
 20
248.898928
 11
106.620118
 21
247.427555
  0
LINE
  5
1FE
100
AcDbEntity
  8
M0
  6
DASHDOT
100
AcDbLine
 10
106.620118
 20
171.273996
 11
106.620118
 21
169.802624
  0
LINE
  5
1FF
100
AcDbEntity
  8
M0
  6
DASHDOT
100
AcDbLine
 10
55.351124
 20
199.150389
 11
58.691124
 21
199.150389
  0
LINE
  5
200
100
AcDbEntity
  8
M0
100
AcDbLine
 10
118.790429
 20
204.744889
 11
118.623424
 21
204.744889
  0
ARC
  5
201
100
AcDbEntity
  8
M0
100
AcDbCircle
 10
-549.856861
 20
210.005389
 40
668.667983
100
AcDbArc
 50
359.105611
 51
359.549242
  0
LINE
  5
202
100
AcDbEntity
  8
M0
100
AcDbLine
 10
118.591871
 20
202.239889
 11
118.644122
 21
202.239889
  0
LINE
  5
203
100
AcDbEntity
  8
M0
100
AcDbLine
 10
118.644122
 20
187.877889
 11
118.644122
 21
202.239889
  0
LINE
  5
204
100
AcDbEntity
  8
M0
  6
DASHDOT
100
AcDbLine
 10
119.597637
 20
200.653389
 11
122.401247
 21
200.653389
  0
LINE
  5
205
100
AcDbEntity
  8
M0
100
AcDbLine
 10
118.744322
 20
190.549889
 11
118.744322
 21
199.567889
  0
LINE
  5
206
100
AcDbEntity
  8
M0
100
AcDbLine
 10
118.644122
 20
199.567889
 11
118.744322
 21
199.567889
  0
LINE
  5
207
100
AcDbEntity
  8
M0
100
AcDbLine
 10
118.410973
 20
187.877889
 11
118.644122
 21
187.877889
  0
LINE
  5
208
100
AcDbEntity
  8
M0
100
AcDbLine
 10
118.644122
 20
190.549889
 11
118.744322
 21
190.549889
  0
LINE
  5
209
100
AcDbEntity
  8
M0
  6
DASHDOT
100
AcDbLine
 10
119.492502
 20
189.464389
 11
122.471337
 21
189.464389
  0
ARC
  5
20A
100
AcDbEntity
  8
M0
100
AcDbCircle
 10
118.410973
 20
187.710889
 40
0.167
100
AcDbArc
 50
90.0
 51
178.01772
  0
ARC
  5
20B
100
AcDbEntity
  8
M0
100
AcDbCircle
 10
115.638122
 20
235.055388
 40
1.002
100
AcDbArc
 50
224.903578
 51
495.096422
  0
ARC
  5
20C
100
AcDbEntity
  8
M0
  6
DASHED
100
AcDbCircle
 10
115.638122
 20
235.055388
 40
1.002
100
AcDbArc
 50
135.096422
 51
224.903578
  0
LINE
  5
20D
100
AcDbEntity
  8
M0
100
AcDbLine
 10
85.327648
 20
175.83719
 11
76.142648
 21
175.83719
  0
LINE
  5
20E
100
AcDbEntity
  8
M0
100
AcDbLine
 10
74.055148
 20
175.50319
 11
76.100834
 21
175.50319
  0
LINE
  5
20F
100
AcDbEntity
  8
M0
  6
DASHDOT
100
AcDbLine
 10
80.735148
 20
168.112855
 11
80.735148
 21
177.50719
  0
LINE
  5
210
100
AcDbEntity
  8
M0
100
AcDbLine
 10
76.142648
 20
175.50319
 11
76.142648
 21
175.83719
  0
LINE
  5
211
100
AcDbEntity
  8
M0
100
AcDbLine
 10
76.100834
 20
175.50319
 11
76.100834
 21
175.83719
  0
LINE
  5
212
100
AcDbEntity
  8
M0
100
AcDbLine
 10
85.327648
 20
175.83719
 11
85.327648
 21
175.50319
  0
LINE
  5
213
100
AcDbEntity
  8
M0
100
AcDbLine
 10
76.100834
 20
175.83719
 11
74.055148
 21
175.83719
  0
LINE
  5
214
100
AcDbEntity
  8
M0
100
AcDbLine
 10
76.142648
 20
175.50319
 11
85.327648
 21
175.50319
  0
LINE
  5
215
100
AcDbEntity
  8
M0
100
AcDbLine
 10
78.898084
 20
175.83719
 11
76.142648
 21
175.83719
  0
LINE
  5
216
100
AcDbEntity
  8
M0
100
AcDbLine
 10
68.335334
 20
175.50319
 11
76.100834
 21
175.50319
  0
LINE
  5
217
100
AcDbEntity
  8
M0
100
AcDbLine
 10
68.335334
 20
175.50319
 11
68.335334
 21
175.83719
  0
LINE
  5
218
100
AcDbEntity
  8
M0
100
AcDbLine
 10
76.142648
 20
175.50319
 11
78.898084
 21
175.50319
  0
LINE
  5
219
100
AcDbEntity
  8
M0
100
AcDbLine
 10
76.100834
 20
175.83719
 11
68.335334
 21
175.83719
  0
ARC
  5
21A
100
AcDbEntity
  8
M0
100
AcDbCircle
 10
84.325642
 20
175.62009
 40
2.505
100
AcDbArc
 50
278.62708
 51
284.488467
  0
LINE
  5
21B
100
AcDbEntity
  8
M0
100
AcDbLine
 10
84.701398
 20
173.11509
 11
85.265712
 21
173.11509
  0
ARC
  5
21C
100
AcDbEntity
  8
M0
100
AcDbCircle
 10
84.325642
 20
171.52859
 40
2.505
100
AcDbArc
 50
75.511533
 51
77.187066
  0
ARC
  5
21D
100
AcDbEntity
  8
M0
100
AcDbCircle
 10
85.265712
 20
173.377466
 40
0.656124
100
AcDbArc
 50
61.47202
 51
118.52798
  0
LINE
  5
21E
100
AcDbEntity
  8
M0
100
AcDbLine
 10
84.943548
 20
174.03359
 11
85.265712
 21
174.03359
  0
ARC
  5
21F
100
AcDbEntity
  8
M0
100
AcDbCircle
 10
85.265712
 20
173.771214
 40
0.656124
100
AcDbArc
 50
241.47202
 51
298.52798
  0
LINE
  5
220
100
AcDbEntity
  8
M0
100
AcDbLine
 10
84.952355
 20
173.194754
 11
84.952355
 21
173.953926
  0
LINE
  5
221
100
AcDbEntity
  8
M0
100
AcDbLine
 10
85.579069
 20
173.194754
 11
85.579069
 21
173.953926
  0
LINE
  5
222
100
AcDbEntity
  8
M0
100
AcDbLine
 10
85.828641
 20
174.06699
 11
85.828641
 21
174.33419
  0
LINE
  5
223
100
AcDbEntity
  8
M0
100
AcDbLine
 10
85.828641
 20
174.06699
 11
84.976948
 21
174.06699
  0
LINE
  5
224
100
AcDbEntity
  8
M0
100
AcDbLine
 10
84.876742
 20
174.03359
 11
84.876742
 21
174.06699
  0
LINE
  5
225
100
AcDbEntity
  8
M0
  6
DASHED
100
AcDbLine
 10
114.30216
 20
235.035875
 11
114.92841
 21
235.035875
  0
LINE
  5
226
100
AcDbEntity
  8
M0
100
AcDbLine
 10
54.683875
 20
211.675389
 11
54.683875
 21
210.105589
  0
LINE
  5
227
100
AcDbEntity
  8
M0
100
AcDbLine
 10
54.683875
 20
210.105589
 11
54.617075
 21
210.105589
  0
LINE
  5
228
100
AcDbEntity
  8
M0
  6
DASHDOT
100
AcDbLine
 10
123.880157
 20
210.840389
 11
47.147691
 21
210.840389
  0
LINE
  5
229
100
AcDbEntity
  8
M0
  6
DASHDOT
100
AcDbLine
 10
124.756899
 20
195.05875
 11
115.565109
 21
195.05875
  0
LINE
  5
22A
100
AcDbEntity
  8
M0
  6
DASHDOT
100
AcDbLine
 10
72.218084
 20
168.37714
 11
72.218084
 21
179.653312
  0
ARC
  5
22B
100
AcDbEntity
  8
M0
100
AcDbCircle
 10
110.900697
 20
183.571912
 40
6.68
100
AcDbArc
 50
272.122051
 51
357.63683
  0
LINE
  5
22C
100
AcDbEntity
  8
M0
  6
DASHDOT
100
AcDbLine
 10
80.735123
 20
161.509669
 11
80.735123
 21
248.063897
  0
CIRCLE
  5
22D
100
AcDbEntity
  8
M0
100
AcDbCircle
 10
57.021124
 20
199.150389
 40
1.002
  0
TEXT
  5
22E
100
AcDbEntity
  8
M0
100
AcDbText
 10
60.805583
 20
83.303884
 40
2.505
  1
ポンプの中心
 41
0.844444
  7
STANDARD
100
AcDbText
  0
LINE
  5
22F
100
AcDbEntity
  8
M0
100
AcDbLine
 10
53.14724
 20
70.347027
 11
116.874438
 21
70.347027
  0
ARC
  5
230
100
AcDbEntity
  8
M0
100
AcDbCircle
 10
54.95084
 20
120.530333
 40
1.67
100
AcDbArc
 50
100.475682
 51
180.0
  0
ARC
  5
231
100
AcDbEntity
  8
M0
100
AcDbCircle
 10
54.95084
 20
120.530333
 40
1.8036
100
AcDbArc
 50
100.475682
 51
180.0
  0
ARC
  5
232
100
AcDbEntity
  8
M0
100
AcDbCircle
 10
85.010839
 20
-42.04397
 40
166.999996
100
AcDbArc
 50
79.524318
 51
100.475682
  0
ARC
  5
233
100
AcDbEntity
  8
M0
100
AcDbCircle
 10
85.010839
 20
-42.04397
 40
167.133596
100
AcDbArc
 50
79.524318
 51
100.475682
  0
LINE
  5
234
100
AcDbEntity
  8
M0
100
AcDbLine
 10
53.28084
 20
120.530333
 11
53.28084
 21
70.347027
  0
LINE
  5
235
100
AcDbEntity
  8
M0
100
AcDbLine
 10
53.14724
 20
120.530333
 11
53.14724
 21
70.347027
  0
LINE
  5
236
100
AcDbEntity
  8
M0
100
AcDbLine
 10
116.740838
 20
120.530333
 11
116.740838
 21
70.347027
  0
ARC
  5
237
100
AcDbEntity
  8
M0
100
AcDbCircle
 10
115.070838
 20
120.530333
 40
1.67
100
AcDbArc
 50
0.0
 51
79.524318
  0
LINE
  5
238
100
AcDbEntity
  8
M0
100
AcDbLine
 10
116.874438
 20
120.530333
 11
116.874438
 21
70.347027
  0
ARC
  5
239
100
AcDbEntity
  8
M0
100
AcDbCircle
 10
115.070838
 20
120.530333
 40
1.8036
100
AcDbArc
 50
0.0
 51
79.524318
  0
LINE
  5
23A
100
AcDbEntity
  8
M0
100
AcDbLine
 10
119.262538
 20
62.623371
 11
119.012038
 21
62.623371
  0
LINE
  5
23B
100
AcDbEntity
  8
M0
100
AcDbLine
 10
117.342038
 20
61.579621
 11
117.342038
 21
62.873871
  0
LINE
  5
23C
100
AcDbEntity
  8
M0
100
AcDbLine
 10
117.342038
 20
61.579621
 11
117.425538
 21
61.579621
  0
LINE
  5
23D
100
AcDbEntity
  8
M0
100
AcDbLine
 10
119.513038
 20
68.927621
 11
119.513038
 21
67.62318
  0
ARC
  5
23E
100
AcDbEntity
  8
M0
100
AcDbCircle
 10
119.012038
 20
62.456371
 40
0.167
100
AcDbArc
 50
90.0
 51
180.0
  0
LINE
  5
23F
100
AcDbEntity
  8
M0
100
AcDbLine
 10
119.262538
 20
67.048871
 11
119.012038
 21
67.048871
  0
ARC
  5
240
100
AcDbEntity
  8
M0
100
AcDbCircle
 10
119.012038
 20
67.215871
 40
0.167
100
AcDbArc
 50
180.0
 51
270.0
  0
LINE
  5
241
100
AcDbEntity
  8
M0
100
AcDbLine
 10
118.845038
 20
62.456371
 11
118.845038
 21
68.375867
  0
LINE
  5
242
100
AcDbEntity
  8
M0
100
AcDbLine
 10
117.425538
 20
68.927621
 11
117.425538
 21
68.092621
  0
LINE
  5
243
100
AcDbEntity
  8
M0
100
AcDbLine
 10
117.342038
 20
68.092621
 11
117.342038
 21
66.798371
  0
LINE
  5
244
100
AcDbEntity
  8
M0
100
AcDbLine
 10
117.342038
 20
68.092621
 11
117.425538
 21
68.092621
  0
LINE
  5
245
100
AcDbEntity
  8
M0
100
AcDbLine
 10
119.513038
 20
68.542867
 11
119.012038
 21
68.542867
  0
LINE
  5
246
100
AcDbEntity
  8
M0
100
AcDbLine
 10
119.513038
 20
68.927621
 11
117.425538
 21
68.927621
  0
LINE
  5
247
100
AcDbEntity
  8
M0
100
AcDbLine
 10
119.346038
 20
67.45618
 11
119.012038
 21
67.45618
  0
ARC
  5
248
100
AcDbEntity
  8
M0
100
AcDbCircle
 10
119.012038
 20
68.375867
 40
0.167
100
AcDbArc
 50
90.0
 51
180.0
  0
ARC
  5
249
100
AcDbEntity
  8
M0
100
AcDbCircle
 10
119.346038
 20
67.62318
 40
0.167
100
AcDbArc
 50
-90.0
 51
0.0
  0
ARC
  5
24A
100
AcDbEntity
  8
M0
100
AcDbCircle
 10
119.012038
 20
67.28918
 40
0.167
100
AcDbArc
 50
90.0
 51
180.0
  0
LINE
  5
24B
100
AcDbEntity
  8
M0
100
AcDbLine
 10
119.513038
 20
60.744621
 11
119.513038
 21
62.049063
  0
LINE
  5
24C
100
AcDbEntity
  8
M0
100
AcDbLine
 10
119.513038
 20
61.129375
 11
119.012038
 21
61.129375
  0
ARC
  5
24D
100
AcDbEntity
  8
M0
100
AcDbCircle
 10
119.012038
 20
61.296375
 40
0.167
100
AcDbArc
 50
180.0
 51
270.0
  0
LINE
  5
24E
100
AcDbEntity
  8
M0
100
AcDbLine
 10
118.845038
 20
62.456371
 11
118.845038
 21
61.296375
  0
ARC
  5
24F
100
AcDbEntity
  8
M0
100
AcDbCircle
 10
119.346038
 20
62.049063
 40
0.167
100
AcDbArc
 50
0.0
 51
90.0
  0
LINE
  5
250
100
AcDbEntity
  8
M0
100
AcDbLine
 10
119.346038
 20
62.216063
 11
119.012038
 21
62.216063
  0
ARC
  5
251
100
AcDbEntity
  8
M0
100
AcDbCircle
 10
119.012038
 20
62.383063
 40
0.167
100
AcDbArc
 50
180.0
 51
270.0
  0
LINE
  5
252
100
AcDbEntity
  8
M0
100
AcDbLine
 10
119.513038
 20
60.744621
 11
117.425538
 21
60.744621
  0
LINE
  5
253
100
AcDbEntity
  8
M0
100
AcDbLine
 10
117.425538
 20
60.744621
 11
117.425538
 21
61.579621
  0
LINE
  5
254
100
AcDbEntity
  8
M0
  6
DASHDOT
100
AcDbLine
 10
116.382974
 20
64.836028
 11
122.222856
 21
64.836028
  0
LINE
  5
255
100
AcDbEntity
  8
M0
100
AcDbLine
 10
120.849022
 20
65.587616
 11
120.84902
 21
66.589613
  0
LINE
  5
256
100
AcDbEntity
  8
M0
100
AcDbLine
 10
119.262538
 20
67.341108
 11
119.437892
 21
67.341106
  0
LINE
  5
257
100
AcDbEntity
  8
M0
100
AcDbLine
 10
120.851919
 20
66.578807
 11
120.755038
 21
66.940431
  0
LINE
  5
258
100
AcDbEntity
  8
M0
100
AcDbLine
 10
120.633787
 20
67.027084
 11
119.963936
 21
67.027085
  0
LINE
  5
259
100
AcDbEntity
  8
M0
100
AcDbLine
 10
119.963935
 20
67.027085
 11
119.671694
 21
67.027085
  0
ARC
  5
25A
100
AcDbEntity
  8
M0
100
AcDbCircle
 10
119.980635
 20
66.910185
 40
0.1169
100
AcDbArc
 50
0.0
 51
90.0
  0
ARC
  5
25B
100
AcDbEntity
  8
M0
100
AcDbCircle
 10
120.642137
 20
66.910184
 40
0.1169
100
AcDbArc
 50
14.997824
 51
90.0
  0
ARC
  5
25C
100
AcDbEntity
  8
M0
100
AcDbCircle
 10
119.437892
 20
67.224204
 40
0.1169
100
AcDbArc
 50
0.0
 51
90.0
  0
ARC
  5
25D
100
AcDbEntity
  8
M0
100
AcDbCircle
 10
119.671694
 20
67.143985
 40
0.1169
100
AcDbArc
 50
180.0
 51
270.0
  0
LINE
  5
25E
100
AcDbEntity
  8
M0
100
AcDbLine
 10
120.849018
 20
64.084616
 11
120.849017
 21
63.08262
  0
LINE
  5
25F
100
AcDbEntity
  8
M0
100
AcDbLine
 10
119.262533
 20
62.331134
 11
119.437886
 21
62.331136
  0
LINE
  5
260
100
AcDbEntity
  8
M0
100
AcDbLine
 10
120.097517
 20
66.912228
 11
120.097522
 21
66.089455
  0
LINE
  5
261
100
AcDbEntity
  8
M0
100
AcDbLine
 10
120.851915
 20
63.093424
 11
120.755033
 21
62.731802
  0
LINE
  5
262
100
AcDbEntity
  8
M0
100
AcDbLine
 10
120.642131
 20
62.645151
 11
119.671688
 21
62.645157
  0
LINE
  5
263
100
AcDbEntity
  8
M0
100
AcDbLine
 10
119.554811
 20
62.448033
 11
119.554811
 21
63.5826
  0
ARC
  5
264
100
AcDbEntity
  8
M0
100
AcDbCircle
 10
120.642132
 20
62.76205
 40
0.1169
100
AcDbArc
 50
270.0
 51
345.002176
  0
ARC
  5
265
100
AcDbEntity
  8
M0
100
AcDbCircle
 10
119.437886
 20
62.448038
 40
0.1169
100
AcDbArc
 50
270.0
 51
360.0
  0
ARC
  5
266
100
AcDbEntity
  8
M0
100
AcDbCircle
 10
119.671688
 20
62.528257
 40
0.1169
100
AcDbArc
 50
90.0
 51
180.0
  0
LINE
  5
267
100
AcDbEntity
  8
M0
100
AcDbLine
 10
119.262538
 20
67.341108
 11
119.262538
 21
66.089455
  0
ARC
  5
268
100
AcDbEntity
  8
M0
100
AcDbCircle
 10
120.682018
 20
64.084616
 40
0.167
100
AcDbArc
 50
359.999919
 51
450.0
  0
LINE
  5
269
100
AcDbEntity
  8
M0
100
AcDbLine
 10
120.682021
 20
65.420616
 11
120.264528
 21
65.420617
  0
ARC
  5
26A
100
AcDbEntity
  8
M0
100
AcDbCircle
 10
120.682022
 20
65.587616
 40
0.167
100
AcDbArc
 50
270.0
 51
360.000081
  0
LINE
  5
26B
100
AcDbEntity
  8
M0
100
AcDbLine
 10
120.264534
 20
64.251617
 11
120.682018
 21
64.251616
  0
LINE
  5
26C
100
AcDbEntity
  8
M0
100
AcDbLine
 10
119.554811
 20
66.089455
 11
119.554811
 21
67.224204
  0
LINE
  5
26D
100
AcDbEntity
  8
M0
  6
DASHED
100
AcDbLine
 10
119.554811
 20
63.5826
 11
119.554811
 21
66.089455
  0
LINE
  5
26E
100
AcDbEntity
  8
M0
  6
DASHED
100
AcDbLine
 10
120.097522
 20
66.089455
 11
120.09754
 21
63.5826
  0
ARC
  5
26F
100
AcDbEntity
  8
M0
100
AcDbCircle
 10
120.264528
 20
65.253617
 40
0.167
100
AcDbArc
 50
90.0
 51
113.574426
  0
ARC
  5
270
100
AcDbEntity
  8
M0
  6
DASHED
100
AcDbCircle
 10
120.264534
 20
64.418617
 40
0.167
100
AcDbArc
 50
180.000393
 51
246.423428
  0
LINE
  5
271
100
AcDbEntity
  8
M0
100
AcDbLine
 10
119.262538
 20
63.5826
 11
119.262538
 21
62.331134
  0
LINE
  5
272
100
AcDbEntity
  8
M0
  6
DASHED
100
AcDbLine
 10
119.262538
 20
66.089455
 11
119.262538
 21
63.5826
  0
ARC
  5
273
100
AcDbEntity
  8
M0
100
AcDbCircle
 10
119.980645
 20
62.762055
 40
0.1169
100
AcDbArc
 50
270.0
 51
360.000393
  0
LINE
  5
274
100
AcDbEntity
  8
M0
100
AcDbLine
 10
120.09754
 20
63.5826
 11
120.097545
 21
62.762056
  0
ARC
  5
275
100
AcDbEntity
  8
M0
  6
DASHED
100
AcDbCircle
 10
120.264528
 20
65.253617
 40
0.167
100
AcDbArc
 50
113.574426
 51
180.000393
  0
ARC
  5
276
100
AcDbEntity
  8
M0
100
AcDbCircle
 10
120.264534
 20
64.418617
 40
0.167
100
AcDbArc
 50
246.423428
 51
270.0
  0
LINE
  5
277
100
AcDbEntity
  8
M0
100
AcDbLine
 10
120.197738
 20
63.5826
 11
120.197738
 21
66.089455
  0
LINE
  5
278
100
AcDbEntity
  8
M0
100
AcDbLine
 10
119.112238
 20
66.339121
 11
119.112238
 21
63.333121
  0
LINE
  5
279
100
AcDbEntity
  8
M0
100
AcDbLine
 10
119.112238
 20
66.089455
 11
120.197738
 21
66.089455
  0
LINE
  5
27A
100
AcDbEntity
  8
M0
100
AcDbLine
 10
119.112238
 20
63.5826
 11
120.197738
 21
63.5826
  0
LINE
  5
27B
100
AcDbEntity
  8
M0
100
AcDbLine
 10
119.112238
 20
65.462741
 11
120.197738
 21
65.462741
  0
LINE
  5
27C
100
AcDbEntity
  8
M0
100
AcDbLine
 10
119.112238
 20
64.209314
 11
120.197738
 21
64.209314
  0
LINE
  5
27D
100
AcDbEntity
  8
M0
100
AcDbLine
 10
119.112238
 20
66.339121
 11
118.845038
 21
66.339121
  0
LINE
  5
27E
100
AcDbEntity
  8
M0
100
AcDbLine
 10
119.112238
 20
63.333121
 11
118.845038
 21
63.333121
  0
LINE
  5
27F
100
AcDbEntity
  8
M0
100
AcDbLine
 10
117.158338
 20
70.346942
 11
52.86334
 21
70.346942
  0
ARC
  5
280
100
AcDbEntity
  8
M0
100
AcDbCircle
 10
52.86334
 20
70.263442
 40
0.0835
100
AcDbArc
 50
90.0
 51
180.0
  0
ARC
  5
281
100
AcDbEntity
  8
M0
100
AcDbCircle
 10
117.158338
 20
70.263442
 40
0.0835
100
AcDbArc
 50
0.0
 51
90.0
  0
ARC
  5
282
100
AcDbEntity
  8
M0
  6
DASHED
100
AcDbCircle
 10
100.875809
 20
66.923442
 40
0.167
100
AcDbArc
 50
270.0
 51
360.0
  0
LINE
  5
283
100
AcDbEntity
  8
M0
100
AcDbLine
 10
117.241838
 20
70.263442
 11
117.241838
 21
52.811942
  0
LINE
  5
284
100
AcDbEntity
  8
M0
100
AcDbLine
 10
52.77984
 20
52.811942
 11
52.77984
 21
70.263442
  0
ARC
  5
285
100
AcDbEntity
  8
M0
100
AcDbCircle
 10
69.312765
 20
67.674942
 40
2.505
100
AcDbArc
 50
90.0
 51
180.0
  0
LINE
  5
286
100
AcDbEntity
  8
M0
100
AcDbLine
 10
66.807765
 20
67.674942
 11
66.807765
 21
55.316942
  0
ARC
  5
287
100
AcDbEntity
  8
M0
100
AcDbCircle
 10
64.302765
 20
55.316942
 40
2.505
100
AcDbArc
 50
270.0
 51
360.0
  0
LINE
  5
288
100
AcDbEntity
  8
M0
100
AcDbLine
 10
81.670775
 20
70.179942
 11
69.312765
 21
70.179942
  0
ARC
  5
289
100
AcDbEntity
  8
M0
100
AcDbCircle
 10
81.670775
 20
67.674942
 40
2.505
100
AcDbArc
 50
0.0
 51
90.0
  0
LINE
  5
28A
100
AcDbEntity
  8
M0
100
AcDbLine
 10
84.175775
 20
67.674942
 11
84.175775
 21
59.04947
  0
CIRCLE
  5
28B
100
AcDbEntity
  8
M0
100
AcDbCircle
 10
79.332775
 20
61.495942
 40
3.173
  0
LINE
  5
28C
100
AcDbEntity
  8
M0
  6
DASHDOT
100
AcDbLine
 10
79.332824
 20
66.0884
 11
79.332824
 21
68.9274
  0
LINE
  5
28D
100
AcDbEntity
  8
M0
  6
DASHDOT
100
AcDbLine
 10
77.913324
 20
67.5079
 11
80.752324
 21
67.5079
  0
LINE
  5
28E
100
AcDbEntity
  8
M0
  6
DASHDOT
100
AcDbLine
 10
70.815775
 20
54.545229
 11
70.815775
 21
68.342068
  0
LINE
  5
28F
100
AcDbEntity
  8
M0
  6
DASHDOT
100
AcDbLine
 10
71.774971
 20
67.090396
 11
68.881231
 21
67.090396
  0
LINE
  5
290
100
AcDbEntity
  8
M0
  6
DASHDOT
100
AcDbLine
 10
79.332775
 20
56.318942
 11
79.332775
 21
67.057386
  0
LINE
  5
291
100
AcDbEntity
  8
M0
  6
DASHDOT
100
AcDbLine
 10
64.75228
 20
61.495942
 11
85.974457
 21
61.495942
  0
LINE
  5
292
100
AcDbEntity
  8
M0
  6
DASHDOT
100
AcDbLine
 10
68.672027
 20
55.901396
 11
71.885223
 21
55.901396
  0
LINE
  5
293
100
AcDbEntity
  8
M0
  6
DASHDOT
100
AcDbLine
 10
80.887072
 20
55.483901
 11
77.891634
 21
55.483901
  0
ARC
  5
294
100
AcDbEntity
  8
M0
  6
DASHED
100
AcDbCircle
 10
86.680775
 20
55.316942
 40
2.505
100
AcDbArc
 50
180.0
 51
196.989126
  0
LINE
  5
295
100
AcDbEntity
  8
M0
100
AcDbLine
 10
52.77984
 20
52.811942
 11
117.241838
 21
52.811942
  0
ARC
  5
296
100
AcDbEntity
  8
M0
100
AcDbCircle
 10
52.77984
 20
52.644942
 40
0.167
100
AcDbArc
 50
90.0
 51
180.0
  0
LINE
  5
297
100
AcDbEntity
  8
M0
100
AcDbLine
 10
52.61284
 20
52.644942
 11
52.61284
 21
52.310942
  0
LINE
  5
298
100
AcDbEntity
  8
M0
100
AcDbLine
 10
117.408838
 20
52.310942
 11
117.408838
 21
52.644942
  0
ARC
  5
299
100
AcDbEntity
  8
M0
100
AcDbCircle
 10
117.241838
 20
52.644942
 40
0.167
100
AcDbArc
 50
0.0
 51
90.0
  0
LINE
  5
29A
100
AcDbEntity
  8
M0
100
AcDbLine
 10
117.342038
 20
68.676942
 11
117.342038
 21
60.994942
  0
LINE
  5
29B
100
AcDbEntity
  8
M0
100
AcDbLine
 10
117.241838
 20
60.994942
 11
117.342038
 21
60.994942
  0
LINE
  5
29C
100
AcDbEntity
  8
M0
100
AcDbLine
 10
117.241838
 20
68.676942
 11
117.342038
 21
68.676942
  0
LINE
  5
29D
100
AcDbEntity
  8
M0
  6
DASHDOT
100
AcDbLine
 10
97.208042
 20
64.835942
 11
113.123031
 21
64.835942
  0
LINE
  5
29E
100
AcDbEntity
  8
M0
  6
DASHDOT
100
AcDbLine
 10
105.217808
 20
69.43511
 11
105.217808
 21
59.886117
  0
LINE
  5
29F
100
AcDbEntity
  8
M0
  6
DASHDOT
100
AcDbLine
 10
110.812308
 20
67.318788
 11
110.812308
 21
62.280882
  0
LINE
  5
2A0
100
AcDbEntity
  8
M0
  6
DASHDOT
100
AcDbLine
 10
99.623309
 20
67.492509
 11
99.623309
 21
63.106056
  0
ARC
  5
2A1
100
AcDbEntity
  8
M0
100
AcDbCircle
 10
79.332824
 20
67.5079
 40
0.7515
100
AcDbArc
 50
300.301916
 51
528.946721
  0
ARC
  5
2A2
100
AcDbEntity
  8
M0
100
AcDbCircle
 10
79.332824
 20
55.483901
 40
0.7515
100
AcDbArc
 50
120.301046
 51
348.947591
  0
LINE
  5
2A3
100
AcDbEntity
  8
M0
  6
DASHED
100
AcDbLine
 10
84.175775
 20
59.04947
 11
84.175775
 21
55.316942
  0
ARC
  5
2A4
100
AcDbEntity
  8
M0
100
AcDbCircle
 10
86.680775
 20
55.316942
 40
2.505
100
AcDbArc
 50
196.989126
 51
270.0
  0
LINE
  5
2A5
100
AcDbEntity
  8
M0
100
AcDbLine
 10
81.872953
 20
54.059966
 11
76.674015
 21
57.751339
  0
ARC
  5
2A6
100
AcDbEntity
  8
M0
100
AcDbCircle
 10
82.839775
 20
55.42164
 40
1.67
100
AcDbArc
 50
234.624318
 51
300.0
  0
ARC
  5
2A7
100
AcDbEntity
  8
M0
100
AcDbCircle
 10
79.332775
 20
61.495942
 40
4.5925
100
AcDbArc
 50
210.0
 51
234.624318
  0
LINE
  5
2A8
100
AcDbEntity
  8
M0
100
AcDbLine
 10
74.16312
 20
67.413789
 11
74.760474
 21
61.06569
  0
ARC
  5
2A9
100
AcDbEntity
  8
M0
100
AcDbCircle
 10
75.742275
 20
67.71487
 40
0.9185
100
AcDbArc
 50
120.0
 51
208.697711
  0
ARC
  5
2AA
100
AcDbEntity
  8
M0
100
AcDbCircle
 10
75.825775
 20
67.570244
 40
1.67
100
AcDbArc
 50
120.0
 51
185.375682
  0
ARC
  5
2AB
100
AcDbEntity
  8
M0
100
AcDbCircle
 10
79.332775
 20
61.495942
 40
4.5925
100
AcDbArc
 50
185.375682
 51
210.0
  0
LINE
  5
2AC
100
AcDbEntity
  8
M0
100
AcDbLine
 10
84.50243
 20
55.578095
 11
83.905076
 21
61.926194
  0
ARC
  5
2AD
100
AcDbEntity
  8
M0
100
AcDbCircle
 10
82.839775
 20
55.42164
 40
1.67
100
AcDbArc
 50
-60.0
 51
5.375682
  0
ARC
  5
2AE
100
AcDbEntity
  8
M0
100
AcDbCircle
 10
79.332775
 20
61.495942
 40
4.5925
100
AcDbArc
 50
5.375682
 51
30.0
  0
LINE
  5
2AF
100
AcDbEntity
  8
M0
100
AcDbLine
 10
76.792596
 20
68.931918
 11
81.991534
 21
65.240545
  0
ARC
  5
2B0
100
AcDbEntity
  8
M0
100
AcDbCircle
 10
75.742275
 20
67.71487
 40
0.9185
100
AcDbArc
 50
31.302289
 51
120.0
  0
ARC
  5
2B1
100
AcDbEntity
  8
M0
100
AcDbCircle
 10
75.825775
 20
67.570244
 40
1.67
100
AcDbArc
 50
54.624318
 51
120.0
  0
ARC
  5
2B2
100
AcDbEntity
  8
M0
100
AcDbCircle
 10
79.332775
 20
61.495942
 40
4.5925
100
AcDbArc
 50
30.0
 51
54.624318
  0
CIRCLE
  5
2B3
100
AcDbEntity
  8
M0
100
AcDbCircle
 10
79.332775
 20
61.495942
 40
3.49865
  0
CIRCLE
  5
2B4
100
AcDbEntity
  8
M0
100
AcDbCircle
 10
79.332775
 20
61.495942
 40
4.5925
  0
CIRCLE
  5
2B5
100
AcDbEntity
  8
M0
100
AcDbCircle
 10
79.332775
 20
61.495942
 40
3.96625
  0
LINE
  5
2B6
100
AcDbEntity
  8
M0
100
AcDbLine
 10
69.286302
 20
55.314412
 11
67.259749
 21
59.936959
  0
ARC
  5
2B7
100
AcDbEntity
  8
M0
100
AcDbCircle
 10
70.815775
 20
55.984942
 40
1.67
100
AcDbArc
 50
203.672932
 51
270.0
  0
ARC
  5
2B8
100
AcDbEntity
  8
M0
100
AcDbCircle
 10
70.815775
 20
61.495942
 40
3.88275
100
AcDbArc
 50
180.0
 51
203.672932
  0
LINE
  5
2B9
100
AcDbEntity
  8
M0
100
AcDbLine
 10
72.345248
 20
55.314412
 11
74.371801
 21
59.936959
  0
ARC
  5
2BA
100
AcDbEntity
  8
M0
100
AcDbCircle
 10
70.815775
 20
55.984942
 40
1.67
100
AcDbArc
 50
270.0
 51
336.327068
  0
ARC
  5
2BB
100
AcDbEntity
  8
M0
100
AcDbCircle
 10
70.815775
 20
61.495942
 40
3.88275
100
AcDbArc
 50
-23.672932
 51
0.0
  0
LINE
  5
2BC
100
AcDbEntity
  8
M0
100
AcDbLine
 10
69.286302
 20
67.677472
 11
67.259749
 21
63.054925
  0
ARC
  5
2BD
100
AcDbEntity
  8
M0
100
AcDbCircle
 10
70.815775
 20
67.006942
 40
1.67
100
AcDbArc
 50
90.0
 51
156.327068
  0
ARC
  5
2BE
100
AcDbEntity
  8
M0
100
AcDbCircle
 10
70.815775
 20
61.495942
 40
3.88275
100
AcDbArc
 50
156.327068
 51
180.0
  0
LINE
  5
2BF
100
AcDbEntity
  8
M0
100
AcDbLine
 10
72.345248
 20
67.677472
 11
74.371801
 21
63.054925
  0
ARC
  5
2C0
100
AcDbEntity
  8
M0
100
AcDbCircle
 10
70.815775
 20
67.006942
 40
1.67
100
AcDbArc
 50
23.672932
 51
90.0
  0
ARC
  5
2C1
100
AcDbEntity
  8
M0
100
AcDbCircle
 10
70.815775
 20
61.495942
 40
3.88275
100
AcDbArc
 50
0.0
 51
23.672932
  0
LINE
  5
2C2
100
AcDbEntity
  8
M0
  6
DASHDOT
100
AcDbLine
 10
70.815775
 20
53.508403
 11
70.815775
 21
69.665025
  0
CIRCLE
  5
2C3
100
AcDbEntity
  8
M0
100
AcDbCircle
 10
70.815775
 20
61.495942
 40
2.5217
  0
CIRCLE
  5
2C4
100
AcDbEntity
  8
M0
100
AcDbCircle
 10
70.815775
 20
61.495942
 40
2.7722
  0
CIRCLE
  5
2C5
100
AcDbEntity
  8
M0
100
AcDbCircle
 10
70.815775
 20
61.495942
 40
3.2565
  0
CIRCLE
  5
2C6
100
AcDbEntity
  8
M0
100
AcDbCircle
 10
70.815775
 20
55.901396
 40
1.503
  0
LINE
  5
2C7
100
AcDbEntity
  8
M0
  6
DASHDOT
100
AcDbLine
 10
68.644775
 20
55.901396
 11
72.986775
 21
55.901396
  0
LINE
  5
2C8
100
AcDbEntity
  8
M0
100
AcDbLine
 10
69.730275
 20
55.274683
 11
69.730275
 21
56.52811
  0
LINE
  5
2C9
100
AcDbEntity
  8
M0
100
AcDbLine
 10
71.901275
 20
55.274683
 11
71.901275
 21
56.52811
  0
LINE
  5
2CA
100
AcDbEntity
  8
M0
100
AcDbLine
 10
71.901275
 20
56.52811
 11
70.815775
 21
57.154824
  0
LINE
  5
2CB
100
AcDbEntity
  8
M0
100
AcDbLine
 10
69.730275
 20
56.52811
 11
70.815775
 21
57.154824
  0
LINE
  5
2CC
100
AcDbEntity
  8
M0
100
AcDbLine
 10
69.730275
 20
55.274683
 11
70.815775
 21
54.647969
  0
LINE
  5
2CD
100
AcDbEntity
  8
M0
100
AcDbLine
 10
71.901275
 20
55.274683
 11
70.815775
 21
54.647969
  0
LINE
  5
2CE
100
AcDbEntity
  8
M0
  6
DASHDOT
100
AcDbLine
 10
68.644775
 20
55.901396
 11
72.986775
 21
55.901396
  0
CIRCLE
  5
2CF
100
AcDbEntity
  8
M0
100
AcDbCircle
 10
70.815775
 20
55.901396
 40
1.0855
  0
CIRCLE
  5
2D0
100
AcDbEntity
  8
M0
100
AcDbCircle
 10
70.815775
 20
55.901396
 40
0.9185
  0
CIRCLE
  5
2D1
100
AcDbEntity
  8
M0
100
AcDbCircle
 10
82.923275
 20
55.277014
 40
1.503
  0
LINE
  5
2D2
100
AcDbEntity
  8
M0
100
AcDbLine
 10
82.296561
 20
54.191514
 11
81.669847
 21
55.277014
  0
LINE
  5
2D3
100
AcDbEntity
  8
M0
100
AcDbLine
 10
84.176702
 20
55.277014
 11
83.549988
 21
56.362514
  0
LINE
  5
2D4
100
AcDbEntity
  8
M0
100
AcDbLine
 10
83.549988
 20
56.362514
 11
82.296561
 21
56.362514
  0
LINE
  5
2D5
100
AcDbEntity
  8
M0
100
AcDbLine
 10
81.669847
 20
55.277014
 11
82.296561
 21
56.362514
  0
LINE
  5
2D6
100
AcDbEntity
  8
M0
100
AcDbLine
 10
82.296561
 20
54.191514
 11
83.549988
 21
54.191514
  0
LINE
  5
2D7
100
AcDbEntity
  8
M0
100
AcDbLine
 10
84.176702
 20
55.277014
 11
83.549988
 21
54.191514
  0
LINE
  5
2D8
100
AcDbEntity
  8
M0
  6
DASHDOT
100
AcDbLine
 10
81.043134
 20
54.191514
 11
84.803416
 21
56.362514
  0
CIRCLE
  5
2D9
100
AcDbEntity
  8
M0
100
AcDbCircle
 10
82.923275
 20
55.277014
 40
1.0855
  0
CIRCLE
  5
2DA
100
AcDbEntity
  8
M0
100
AcDbCircle
 10
82.923275
 20
55.277014
 40
0.9185
  0
CIRCLE
  5
2DB
100
AcDbEntity
  8
M0
100
AcDbCircle
 10
75.742275
 20
67.71487
 40
1.503
  0
LINE
  5
2DC
100
AcDbEntity
  8
M0
  6
DASHDOT
100
AcDbLine
 10
76.827775
 20
65.834729
 11
74.656775
 21
69.595011
  0
LINE
  5
2DD
100
AcDbEntity
  8
M0
100
AcDbLine
 10
75.115561
 20
66.62937
 11
74.488847
 21
67.71487
  0
LINE
  5
2DE
100
AcDbEntity
  8
M0
100
AcDbLine
 10
76.995702
 20
67.71487
 11
76.368989
 21
68.80037
  0
LINE
  5
2DF
100
AcDbEntity
  8
M0
100
AcDbLine
 10
76.368989
 20
68.80037
 11
75.115561
 21
68.80037
  0
LINE
  5
2E0
100
AcDbEntity
  8
M0
100
AcDbLine
 10
74.488847
 20
67.71487
 11
75.115561
 21
68.80037
  0
LINE
  5
2E1
100
AcDbEntity
  8
M0
100
AcDbLine
 10
75.115561
 20
66.62937
 11
76.368989
 21
66.62937
  0
LINE
  5
2E2
100
AcDbEntity
  8
M0
100
AcDbLine
 10
76.995702
 20
67.71487
 11
76.368989
 21
66.62937
  0
LINE
  5
2E3
100
AcDbEntity
  8
M0
  6
DASHDOT
100
AcDbLine
 10
73.862134
 20
66.62937
 11
77.622416
 21
68.80037
  0
CIRCLE
  5
2E4
100
AcDbEntity
  8
M0
100
AcDbCircle
 10
75.742275
 20
67.71487
 40
1.0855
  0
CIRCLE
  5
2E5
100
AcDbEntity
  8
M0
100
AcDbCircle
 10
75.742275
 20
67.71487
 40
0.9185
  0
CIRCLE
  5
2E6
100
AcDbEntity
  8
M0
100
AcDbCircle
 10
70.815756
 20
67.090396
 40
1.503
  0
LINE
  5
2E7
100
AcDbEntity
  8
M0
  6
DASHDOT
100
AcDbLine
 10
68.644756
 20
67.090396
 11
72.986756
 21
67.090396
  0
LINE
  5
2E8
100
AcDbEntity
  8
M0
100
AcDbLine
 10
69.730256
 20
66.463682
 11
69.730256
 21
67.71711
  0
LINE
  5
2E9
100
AcDbEntity
  8
M0
100
AcDbLine
 10
71.901256
 20
66.463682
 11
71.901256
 21
67.71711
  0
LINE
  5
2EA
100
AcDbEntity
  8
M0
100
AcDbLine
 10
71.901256
 20
67.71711
 11
70.815756
 21
68.343823
  0
LINE
  5
2EB
100
AcDbEntity
  8
M0
100
AcDbLine
 10
69.730256
 20
67.71711
 11
70.815756
 21
68.343823
  0
LINE
  5
2EC
100
AcDbEntity
  8
M0
100
AcDbLine
 10
69.730256
 20
66.463682
 11
70.815756
 21
65.836969
  0
LINE
  5
2ED
100
AcDbEntity
  8
M0
100
AcDbLine
 10
71.901256
 20
66.463682
 11
70.815756
 21
65.836969
  0
LINE
  5
2EE
100
AcDbEntity
  8
M0
  6
DASHDOT
100
AcDbLine
 10
68.644756
 20
67.090396
 11
72.986756
 21
67.090396
  0
CIRCLE
  5
2EF
100
AcDbEntity
  8
M0
100
AcDbCircle
 10
70.815756
 20
67.090396
 40
1.0855
  0
CIRCLE
  5
2F0
100
AcDbEntity
  8
M0
100
AcDbCircle
 10
70.815756
 20
67.090396
 40
0.9185
  0
LINE
  5
2F1
100
AcDbEntity
  8
M0
100
AcDbLine
 10
111.399339
 20
63.306468
 11
106.776791
 21
61.279916
  0
ARC
  5
2F2
100
AcDbEntity
  8
M0
100
AcDbCircle
 10
110.728808
 20
64.835942
 40
1.67
100
AcDbArc
 50
293.672932
 51
360.0
  0
ARC
  5
2F3
100
AcDbEntity
  8
M0
100
AcDbCircle
 10
105.217808
 20
64.835942
 40
3.88275
100
AcDbArc
 50
270.0
 51
293.672932
  0
LINE
  5
2F4
100
AcDbEntity
  8
M0
100
AcDbLine
 10
111.399339
 20
66.365415
 11
106.776791
 21
68.391967
  0
ARC
  5
2F5
100
AcDbEntity
  8
M0
100
AcDbCircle
 10
110.728808
 20
64.835942
 40
1.67
100
AcDbArc
 50
0.0
 51
66.327068
  0
ARC
  5
2F6
100
AcDbEntity
  8
M0
100
AcDbCircle
 10
105.217808
 20
64.835942
 40
3.88275
100
AcDbArc
 50
66.327068
 51
90.0
  0
LINE
  5
2F7
100
AcDbEntity
  8
M0
100
AcDbLine
 10
99.036278
 20
63.306468
 11
103.658826
 21
61.279916
  0
ARC
  5
2F8
100
AcDbEntity
  8
M0
100
AcDbCircle
 10
99.706809
 20
64.835942
 40
1.67
100
AcDbArc
 50
180.0
 51
246.327068
  0
ARC
  5
2F9
100
AcDbEntity
  8
M0
100
AcDbCircle
 10
105.217808
 20
64.835942
 40
3.88275
100
AcDbArc
 50
246.327068
 51
270.0
  0
LINE
  5
2FA
100
AcDbEntity
  8
M0
100
AcDbLine
 10
99.036278
 20
66.365415
 11
103.658826
 21
68.391967
  0
ARC
  5
2FB
100
AcDbEntity
  8
M0
100
AcDbCircle
 10
99.706809
 20
64.835942
 40
1.67
100
AcDbArc
 50
113.672932
 51
180.0
  0
ARC
  5
2FC
100
AcDbEntity
  8
M0
100
AcDbCircle
 10
105.217808
 20
64.835942
 40
3.88275
100
AcDbArc
 50
90.0
 51
113.672932
  0
CIRCLE
  5
2FD
100
AcDbEntity
  8
M0
100
AcDbCircle
 10
105.217808
 20
64.835942
 40
2.5217
  0
CIRCLE
  5
2FE
100
AcDbEntity
  8
M0
100
AcDbCircle
 10
105.217808
 20
64.835942
 40
2.7722
  0
CIRCLE
  5
2FF
100
AcDbEntity
  8
M0
100
AcDbCircle
 10
105.217808
 20
64.835942
 40
3.2565
  0
LINE
  5
300
100
AcDbEntity
  8
M0
  6
DASHDOT
100
AcDbLine
 10
100.667059
 20
64.835942
 11
109.768558
 21
64.835942
  0
LINE
  5
301
100
AcDbEntity
  8
M0
  6
DASHDOT
100
AcDbLine
 10
105.217808
 20
60.285192
 11
105.217808
 21
69.386692
  0
CIRCLE
  5
302
100
AcDbEntity
  8
M0
100
AcDbCircle
 10
110.812354
 20
64.835942
 40
1.503
  0
LINE
  5
303
100
AcDbEntity
  8
M0
  6
DASHDOT
100
AcDbLine
 10
110.812354
 20
62.664942
 11
110.812354
 21
67.006942
  0
LINE
  5
304
100
AcDbEntity
  8
M0
100
AcDbLine
 10
111.439068
 20
63.750442
 11
110.18564
 21
63.750442
  0
LINE
  5
305
100
AcDbEntity
  8
M0
100
AcDbLine
 10
111.439068
 20
65.921442
 11
110.18564
 21
65.921442
  0
LINE
  5
306
100
AcDbEntity
  8
M0
100
AcDbLine
 10
110.18564
 20
65.921442
 11
109.558926
 21
64.835942
  0
LINE
  5
307
100
AcDbEntity
  8
M0
100
AcDbLine
 10
110.18564
 20
63.750442
 11
109.558926
 21
64.835942
  0
LINE
  5
308
100
AcDbEntity
  8
M0
100
AcDbLine
 10
111.439068
 20
63.750442
 11
112.065781
 21
64.835942
  0
LINE
  5
309
100
AcDbEntity
  8
M0
100
AcDbLine
 10
111.439068
 20
65.921442
 11
112.065781
 21
64.835942
  0
LINE
  5
30A
100
AcDbEntity
  8
M0
  6
DASHDOT
100
AcDbLine
 10
110.812354
 20
62.664942
 11
110.812354
 21
67.006942
  0
CIRCLE
  5
30B
100
AcDbEntity
  8
M0
100
AcDbCircle
 10
110.812354
 20
64.835942
 40
1.0855
  0
CIRCLE
  5
30C
100
AcDbEntity
  8
M0
100
AcDbCircle
 10
110.812354
 20
64.835942
 40
0.9185
  0
CIRCLE
  5
30D
100
AcDbEntity
  8
M0
100
AcDbCircle
 10
99.623354
 20
64.835923
 40
1.503
  0
LINE
  5
30E
100
AcDbEntity
  8
M0
  6
DASHDOT
100
AcDbLine
 10
99.623354
 20
62.664923
 11
99.623354
 21
67.006923
  0
LINE
  5
30F
100
AcDbEntity
  8
M0
100
AcDbLine
 10
100.250068
 20
63.750423
 11
98.99664
 21
63.750423
  0
LINE
  5
310
100
AcDbEntity
  8
M0
100
AcDbLine
 10
100.250068
 20
65.921423
 11
98.99664
 21
65.921423
  0
LINE
  5
311
100
AcDbEntity
  8
M0
100
AcDbLine
 10
98.99664
 20
65.921423
 11
98.369927
 21
64.835923
  0
LINE
  5
312
100
AcDbEntity
  8
M0
100
AcDbLine
 10
98.99664
 20
63.750423
 11
98.369927
 21
64.835923
  0
LINE
  5
313
100
AcDbEntity
  8
M0
100
AcDbLine
 10
100.250068
 20
63.750423
 11
100.876782
 21
64.835923
  0
LINE
  5
314
100
AcDbEntity
  8
M0
100
AcDbLine
 10
100.250068
 20
65.921423
 11
100.876782
 21
64.835923
  0
LINE
  5
315
100
AcDbEntity
  8
M0
  6
DASHDOT
100
AcDbLine
 10
99.623354
 20
62.664923
 11
99.623354
 21
67.006923
  0
CIRCLE
  5
316
100
AcDbEntity
  8
M0
100
AcDbCircle
 10
99.623354
 20
64.835923
 40
1.0855
  0
CIRCLE
  5
317
100
AcDbEntity
  8
M0
100
AcDbCircle
 10
99.623354
 20
64.835923
 40
0.9185
  0
LINE
  5
318
100
AcDbEntity
  8
M0
100
AcDbLine
 10
114.867389
 20
52.310942
 11
52.61284
 21
52.310942
  0
LINE
  5
319
100
AcDbEntity
  8
M0
100
AcDbLine
 10
117.408838
 20
52.310942
 11
114.867389
 21
52.310942
  0
LINE
  5
31A
100
AcDbEntity
  8
M0
  6
DASHDOT
100
AcDbLine
 10
85.010839
 20
130.76759
 11
85.010839
 21
46.695002
  0
LINE
  5
31B
100
AcDbEntity
  8
M0
  6
DASHDOT
100
AcDbLine
 10
79.277013
 20
105.359514
 11
79.277161
 21
56.921006
  0
LINE
  5
31C
100
AcDbEntity
  8
M0
  6
DASHDOT
100
AcDbLine
 10
128.976378
 20
82.771059
 11
59.11006
 21
82.771059
  0
LINE
  5
31D
100
AcDbEntity
  8
M0
100
AcDbLine
 10
53.14724
 20
115.75343
 11
53.14724
 21
70.346942
  0
LINE
  5
31E
100
AcDbEntity
  8
M0
100
AcDbLine
 10
149.586981
 20
70.113033
 11
218.65818
 21
70.113033
  0
ARC
  5
31F
100
AcDbEntity
  8
M0
100
AcDbCircle
 10
151.390581
 20
121.978056
 40
1.67
100
AcDbArc
 50
93.758539
 51
180.0
  0
ARC
  5
320
100
AcDbEntity
  8
M0
100
AcDbCircle
 10
151.390581
 20
121.978056
 40
1.8036
100
AcDbArc
 50
93.758539
 51
180.0
  0
ARC
  5
321
100
AcDbEntity
  8
M0
100
AcDbCircle
 10
216.85458
 20
121.978056
 40
1.67
100
AcDbArc
 50
0.0
 51
86.241461
  0
ARC
  5
322
100
AcDbEntity
  8
M0
100
AcDbCircle
 10
216.85458
 20
121.978056
 40
1.8036
100
AcDbArc
 50
0.0
 51
86.241461
  0
ARC
  5
323
100
AcDbEntity
  8
M0
100
AcDbCircle
 10
184.122581
 20
-376.277955
 40
500.999987
100
AcDbArc
 50
86.241461
 51
93.758539
  0
ARC
  5
324
100
AcDbEntity
  8
M0
100
AcDbCircle
 10
184.122581
 20
-376.277955
 40
501.133587
100
AcDbArc
 50
86.241461
 51
93.758539
  0
LINE
  5
325
100
AcDbEntity
  8
M0
100
AcDbLine
 10
149.586981
 20
70.113033
 11
149.586981
 21
121.978056
  0
LINE
  5
326
100
AcDbEntity
  8
M0
100
AcDbLine
 10
149.720581
 20
70.113033
 11
149.720581
 21
121.978056
  0
LINE
  5
327
100
AcDbEntity
  8
M0
100
AcDbLine
 10
218.52458
 20
70.113033
 11
218.52458
 21
121.978056
  0
LINE
  5
328
100
AcDbEntity
  8
M0
100
AcDbLine
 10
218.65818
 20
70.113033
 11
218.65818
 21
121.978056
  0
LINE
  5
329
100
AcDbEntity
  8
M0
100
AcDbLine
 10
219.22598
 20
61.345627
 11
219.22598
 21
62.639877
  0
LINE
  5
32A
100
AcDbEntity
  8
M0
100
AcDbLine
 10
219.22598
 20
61.345627
 11
219.30948
 21
61.345627
  0
LINE
  5
32B
100
AcDbEntity
  8
M0
100
AcDbLine
 10
219.30948
 20
68.693627
 11
219.30948
 21
67.858627
  0
LINE
  5
32C
100
AcDbEntity
  8
M0
100
AcDbLine
 10
219.22598
 20
67.858627
 11
219.22598
 21
66.564377
  0
LINE
  5
32D
100
AcDbEntity
  8
M0
100
AcDbLine
 10
219.22598
 20
67.858627
 11
219.30948
 21
67.858627
  0
LINE
  5
32E
100
AcDbEntity
  8
M0
100
AcDbLine
 10
220.725203
 20
68.693627
 11
219.30948
 21
68.693627
  0
LINE
  5
32F
100
AcDbEntity
  8
M0
100
AcDbLine
 10
220.728337
 20
60.510627
 11
219.30948
 21
60.510627
  0
LINE
  5
330
100
AcDbEntity
  8
M0
100
AcDbLine
 10
219.30948
 20
60.510627
 11
219.30948
 21
61.345627
  0
ARC
  5
331
100
AcDbEntity
  8
M0
100
AcDbCircle
 10
149.236281
 20
67.274034
 40
2.505
100
AcDbArc
 50
165.511533
 51
194.488467
  0
LINE
  5
332
100
AcDbEntity
  8
M0
100
AcDbLine
 10
146.731282
 20
66.333963
 11
146.731282
 21
68.214104
  0
ARC
  5
333
100
AcDbEntity
  8
M0
100
AcDbCircle
 10
146.993658
 20
66.333963
 40
0.656124
100
AcDbArc
 50
-28.52798
 51
28.52798
  0
ARC
  5
334
100
AcDbEntity
  8
M0
100
AcDbCircle
 10
145.144782
 20
67.274034
 40
2.505
100
AcDbArc
 50
-14.488467
 51
14.488467
  0
ARC
  5
335
100
AcDbEntity
  8
M0
100
AcDbCircle
 10
146.993658
 20
68.214104
 40
0.656124
100
AcDbArc
 50
331.47202
 51
388.52798
  0
LINE
  5
336
100
AcDbEntity
  8
M0
100
AcDbLine
 10
147.649781
 20
66.333963
 11
147.649781
 21
68.214104
  0
ARC
  5
337
100
AcDbEntity
  8
M0
100
AcDbCircle
 10
147.387405
 20
68.214104
 40
0.656124
100
AcDbArc
 50
151.47202
 51
208.52798
  0
ARC
  5
338
100
AcDbEntity
  8
M0
100
AcDbCircle
 10
147.387405
 20
66.333963
 40
0.656124
100
AcDbArc
 50
151.47202
 51
208.52798
  0
LINE
  5
339
100
AcDbEntity
  8
M0
100
AcDbLine
 10
146.810945
 20
66.64732
 11
147.570118
 21
66.64732
  0
LINE
  5
33A
100
AcDbEntity
  8
M0
100
AcDbLine
 10
146.810945
 20
67.900747
 11
147.570118
 21
67.900747
  0
LINE
  5
33B
100
AcDbEntity
  8
M0
100
AcDbLine
 10
146.810945
 20
68.527461
 11
147.570118
 21
68.527461
  0
LINE
  5
33C
100
AcDbEntity
  8
M0
100
AcDbLine
 10
146.810945
 20
66.020606
 11
147.570118
 21
66.020606
  0
LINE
  5
33D
100
AcDbEntity
  8
M0
100
AcDbLine
 10
147.683181
 20
68.777033
 11
147.950381
 21
68.777033
  0
LINE
  5
33E
100
AcDbEntity
  8
M0
100
AcDbLine
 10
147.683181
 20
68.777033
 11
147.683181
 21
65.771034
  0
LINE
  5
33F
100
AcDbEntity
  8
M0
100
AcDbLine
 10
147.683181
 20
65.771034
 11
147.950381
 21
65.771034
  0
LINE
  5
340
100
AcDbEntity
  8
M0
100
AcDbLine
 10
147.950381
 20
56.541198
 11
147.950381
 21
68.777033
  0
LINE
  5
341
100
AcDbEntity
  8
M0
100
AcDbLine
 10
147.649781
 20
67.825134
 11
147.683181
 21
67.825134
  0
LINE
  5
342
100
AcDbEntity
  8
M0
100
AcDbLine
 10
147.649781
 20
66.722934
 11
147.683181
 21
66.722934
  0
LINE
  5
343
100
AcDbEntity
  8
M0
  6
DASHDOT
100
AcDbLine
 10
150.715061
 20
55.249943
 11
152.142471
 21
55.249943
  0
LINE
  5
344
100
AcDbEntity
  8
M0
  6
DASHDOT
100
AcDbLine
 10
143.85601
 20
61.262034
 11
153.388707
 21
61.262034
  0
ARC
  5
345
100
AcDbEntity
  8
M0
100
AcDbCircle
 10
149.236281
 20
55.250034
 40
2.505
100
AcDbArc
 50
165.511533
 51
194.488467
  0
LINE
  5
346
100
AcDbEntity
  8
M0
100
AcDbLine
 10
146.731282
 20
56.190104
 11
146.731282
 21
54.309963
  0
ARC
  5
347
100
AcDbEntity
  8
M0
100
AcDbCircle
 10
146.993658
 20
56.190104
 40
0.656124
100
AcDbArc
 50
331.47202
 51
388.52798
  0
ARC
  5
348
100
AcDbEntity
  8
M0
100
AcDbCircle
 10
145.144782
 20
55.250034
 40
2.505
100
AcDbArc
 50
345.511533
 51
374.488467
  0
ARC
  5
349
100
AcDbEntity
  8
M0
100
AcDbCircle
 10
146.993658
 20
54.309963
 40
0.656124
100
AcDbArc
 50
-28.52798
 51
28.52798
  0
LINE
  5
34A
100
AcDbEntity
  8
M0
100
AcDbLine
 10
147.649781
 20
56.190104
 11
147.649781
 21
54.309963
  0
ARC
  5
34B
100
AcDbEntity
  8
M0
100
AcDbCircle
 10
147.387405
 20
54.309963
 40
0.656124
100
AcDbArc
 50
151.47202
 51
208.52798
  0
ARC
  5
34C
100
AcDbEntity
  8
M0
100
AcDbCircle
 10
147.387405
 20
56.190104
 40
0.656124
100
AcDbArc
 50
151.47202
 51
208.52798
  0
LINE
  5
34D
100
AcDbEntity
  8
M0
100
AcDbLine
 10
146.810945
 20
55.876748
 11
147.570118
 21
55.876748
  0
LINE
  5
34E
100
AcDbEntity
  8
M0
100
AcDbLine
 10
146.810945
 20
54.62332
 11
147.570118
 21
54.62332
  0
LINE
  5
34F
100
AcDbEntity
  8
M0
100
AcDbLine
 10
146.810945
 20
53.996606
 11
147.570118
 21
53.996606
  0
LINE
  5
350
100
AcDbEntity
  8
M0
100
AcDbLine
 10
146.810945
 20
56.503461
 11
147.570118
 21
56.503461
  0
LINE
  5
351
100
AcDbEntity
  8
M0
100
AcDbLine
 10
147.683181
 20
53.747034
 11
147.950381
 21
53.747034
  0
LINE
  5
352
100
AcDbEntity
  8
M0
100
AcDbLine
 10
147.683181
 20
53.747034
 11
147.683181
 21
56.753034
  0
LINE
  5
353
100
AcDbEntity
  8
M0
100
AcDbLine
 10
147.683181
 20
56.753034
 11
147.950381
 21
56.753034
  0
LINE
  5
354
100
AcDbEntity
  8
M0
100
AcDbLine
 10
147.950381
 20
56.753034
 11
147.950381
 21
53.747034
  0
LINE
  5
355
100
AcDbEntity
  8
M0
100
AcDbLine
 10
147.649781
 20
54.698934
 11
147.683181
 21
54.698934
  0
LINE
  5
356
100
AcDbEntity
  8
M0
100
AcDbLine
 10
147.649781
 20
55.801134
 11
147.683181
 21
55.801134
  0
LINE
  5
357
100
AcDbEntity
  8
M0
  6
DASHDOT
100
AcDbLine
 10
145.710195
 20
55.250034
 11
153.092736
 21
55.250034
  0
LINE
  5
358
100
AcDbEntity
  8
M0
100
AcDbLine
 10
149.219581
 20
69.946033
 11
149.219581
 21
67.942033
  0
LINE
  5
359
100
AcDbEntity
  8
M0
100
AcDbLine
 10
218.500466
 20
70.113033
 11
218.917966
 21
70.113033
  0
ARC
  5
35A
100
AcDbEntity
  8
M0
100
AcDbCircle
 10
218.917966
 20
70.029533
 40
0.0835
100
AcDbArc
 50
0.0
 51
90.0
  0
LINE
  5
35B
100
AcDbEntity
  8
M0
100
AcDbLine
 10
149.243695
 20
69.946033
 11
149.219581
 21
69.946033
  0
LINE
  5
35C
100
AcDbEntity
  8
M0
100
AcDbLine
 10
149.219581
 20
67.942033
 11
149.219581
 21
69.946033
  0
LINE
  5
35D
100
AcDbEntity
  8
M0
100
AcDbLine
 10
149.448277
 20
70.113033
 11
149.865795
 21
70.113033
  0
LINE
  5
35E
100
AcDbEntity
  8
M0
100
AcDbLine
 10
149.219581
 20
56.753034
 11
149.119381
 21
56.753034
  0
LINE
  5
35F
100
AcDbEntity
  8
M0
100
AcDbLine
 10
149.119381
 20
65.771034
 11
149.119381
 21
56.753034
  0
LINE
  5
360
100
AcDbEntity
  8
M0
100
AcDbLine
 10
149.219581
 20
52.465515
 11
149.219581
 21
54.582034
  0
LINE
  5
361
100
AcDbEntity
  8
M0
100
AcDbLine
 10
149.152781
 20
58.089034
 11
149.119381
 21
58.089034
  0
LINE
  5
362
100
AcDbEntity
  8
M0
100
AcDbLine
 10
149.152781
 20
58.089034
 11
149.152781
 21
64.435034
  0
LINE
  5
363
100
AcDbEntity
  8
M0
100
AcDbLine
 10
149.219581
 20
65.771034
 11
149.119381
 21
65.771034
  0
LINE
  5
364
100
AcDbEntity
  8
M0
100
AcDbLine
 10
149.152781
 20
64.435034
 11
149.119381
 21
64.435034
  0
LINE
  5
365
100
AcDbEntity
  8
M0
100
AcDbLine
 10
149.210445
 20
52.411034
 11
149.210445
 21
52.077034
  0
ARC
  5
366
100
AcDbEntity
  8
M0
100
AcDbCircle
 10
149.377445
 20
52.411034
 40
0.167
100
AcDbArc
 50
157.470151
 51
180.0
  0
LINE
  5
367
100
AcDbEntity
  8
M0
100
AcDbLine
 10
149.219581
 20
66.606034
 11
149.219581
 21
65.771034
  0
LINE
  5
368
100
AcDbEntity
  8
M0
  6
DASHED
100
AcDbLine
 10
149.219581
 20
67.942033
 11
149.219581
 21
66.606034
  0
LINE
  5
369
100
AcDbEntity
  8
M0
100
AcDbLine
 10
149.219581
 20
55.918034
 11
149.219581
 21
56.753034
  0
LINE
  5
36A
100
AcDbEntity
  8
M0
  6
DASHED
100
AcDbLine
 10
149.219581
 20
54.582034
 11
149.219581
 21
55.918034
  0
LINE
  5
36B
100
AcDbEntity
  8
M0
100
AcDbLine
 10
148.534881
 20
69.946033
 11
147.950381
 21
69.946033
  0
LINE
  5
36C
100
AcDbEntity
  8
M0
100
AcDbLine
 10
149.119381
 20
69.445033
 11
148.534881
 21
69.445033
  0
LINE
  5
36D
100
AcDbEntity
  8
M0
100
AcDbLine
 10
149.119381
 20
69.361533
 11
147.950381
 21
69.361533
  0
LINE
  5
36E
100
AcDbEntity
  8
M0
100
AcDbLine
 10
149.119381
 20
66.355534
 11
147.950381
 21
66.355534
  0
LINE
  5
36F
100
AcDbEntity
  8
M0
100
AcDbLine
 10
149.119381
 20
69.445033
 11
149.119381
 21
67.942033
  0
LINE
  5
370
100
AcDbEntity
  8
M0
100
AcDbLine
 10
147.950381
 20
69.946033
 11
147.950381
 21
65.771034
  0
LINE
  5
371
100
AcDbEntity
  8
M0
100
AcDbLine
 10
148.534881
 20
69.946033
 11
148.534881
 21
69.445033
  0
LINE
  5
372
100
AcDbEntity
  8
M0
100
AcDbLine
 10
144.777382
 20
57.295784
 11
144.777382
 21
65.228284
  0
LINE
  5
373
100
AcDbEntity
  8
M0
100
AcDbLine
 10
144.777382
 20
65.228284
 11
147.407631
 21
65.228284
  0
LINE
  5
374
100
AcDbEntity
  8
M0
100
AcDbLine
 10
147.950381
 20
65.771034
 11
147.407631
 21
65.228284
  0
LINE
  5
375
100
AcDbEntity
  8
M0
100
AcDbLine
 10
148.534881
 20
52.578034
 11
147.950381
 21
52.578034
  0
LINE
  5
376
100
AcDbEntity
  8
M0
100
AcDbLine
 10
149.119381
 20
53.079034
 11
148.534881
 21
53.079034
  0
LINE
  5
377
100
AcDbEntity
  8
M0
100
AcDbLine
 10
149.119381
 20
53.162534
 11
147.950381
 21
53.162534
  0
LINE
  5
378
100
AcDbEntity
  8
M0
100
AcDbLine
 10
149.119381
 20
56.168534
 11
147.950381
 21
56.168534
  0
LINE
  5
379
100
AcDbEntity
  8
M0
100
AcDbLine
 10
147.950381
 20
52.578034
 11
147.950381
 21
56.753034
  0
LINE
  5
37A
100
AcDbEntity
  8
M0
100
AcDbLine
 10
148.534881
 20
52.578034
 11
148.534881
 21
53.079034
  0
LINE
  5
37B
100
AcDbEntity
  8
M0
100
AcDbLine
 10
144.777382
 20
57.295784
 11
147.407631
 21
57.295784
  0
LINE
  5
37C
100
AcDbEntity
  8
M0
100
AcDbLine
 10
147.950381
 20
56.753034
 11
147.407631
 21
57.295784
  0
LINE
  5
37D
100
AcDbEntity
  8
M0
100
AcDbLine
 10
149.119381
 20
66.606034
 11
149.119381
 21
55.918034
  0
LINE
  5
37E
100
AcDbEntity
  8
M0
100
AcDbLine
 10
149.119381
 20
54.582034
 11
149.119381
 21
53.079034
  0
LINE
  5
37F
100
AcDbEntity
  8
M0
100
AcDbLine
 10
149.119381
 20
68.192533
 11
147.950381
 21
68.192533
  0
LINE
  5
380
100
AcDbEntity
  8
M0
100
AcDbLine
 10
149.119381
 20
54.331534
 11
147.950381
 21
54.331534
  0
LINE
  5
381
100
AcDbEntity
  8
M0
  6
DASHDOT
100
AcDbLine
 10
184.122581
 20
131.573052
 11
184.122581
 21
46.604548
  0
LINE
  5
382
100
AcDbEntity
  8
M0
100
AcDbLine
 10
149.219581
 20
66.773034
 11
149.119381
 21
66.773034
  0
LINE
  5
383
100
AcDbEntity
  8
M0
100
AcDbLine
 10
149.119381
 20
59.091034
 11
149.119381
 21
66.773034
  0
LINE
  5
384
100
AcDbEntity
  8
M0
100
AcDbLine
 10
149.219581
 20
59.091034
 11
149.119381
 21
59.091034
  0
ARC
  5
385
100
AcDbEntity
  8
M0
100
AcDbCircle
 10
149.303081
 20
70.029533
 40
0.0835
100
AcDbArc
 50
90.0
 51
180.0
  0
ARC
  5
386
100
AcDbEntity
  8
M0
100
AcDbCircle
 10
218.94208
 20
70.029533
 40
0.0835
100
AcDbArc
 50
0.0
 51
90.0
  0
LINE
  5
387
100
AcDbEntity
  8
M0
100
AcDbLine
 10
219.02558
 20
70.029533
 11
219.02558
 21
52.578034
  0
LINE
  5
388
100
AcDbEntity
  8
M0
100
AcDbLine
 10
149.303081
 20
70.113033
 11
218.94208
 21
70.113033
  0
LINE
  5
389
100
AcDbEntity
  8
M0
100
AcDbLine
 10
149.219581
 20
70.029533
 11
149.219581
 21
52.578034
  0
LINE
  5
38A
100
AcDbEntity
  8
M0
100
AcDbLine
 10
196.39708
 20
65.538617
 11
194.05908
 21
65.538617
  0
ARC
  5
38B
100
AcDbEntity
  8
M0
100
AcDbCircle
 10
196.39708
 20
65.872617
 40
0.334
100
AcDbArc
 50
270.0
 51
360.0
  0
ARC
  5
38C
100
AcDbEntity
  8
M0
100
AcDbCircle
 10
194.05908
 20
65.872617
 40
0.334
100
AcDbArc
 50
180.0
 51
270.0
  0
LINE
  5
38D
100
AcDbEntity
  8
M0
100
AcDbLine
 10
193.72508
 20
68.210617
 11
193.72508
 21
65.872617
  0
ARC
  5
38E
100
AcDbEntity
  8
M0
100
AcDbCircle
 10
194.05908
 20
68.210617
 40
0.334
100
AcDbArc
 50
90.0
 51
180.0
  0
LINE
  5
38F
100
AcDbEntity
  8
M0
100
AcDbLine
 10
196.73108
 20
68.210617
 11
196.73108
 21
65.872617
  0
ARC
  5
390
100
AcDbEntity
  8
M0
100
AcDbCircle
 10
196.39708
 20
68.210617
 40
0.334
100
AcDbArc
 50
0.0
 51
90.0
  0
LINE
  5
391
100
AcDbEntity
  8
M0
100
AcDbLine
 10
196.39708
 20
68.544617
 11
194.05908
 21
68.544617
  0
LINE
  5
392
100
AcDbEntity
  8
M0
100
AcDbLine
 10
149.219581
 20
52.578034
 11
178.862081
 21
52.578034
  0
ARC
  5
393
100
AcDbEntity
  8
M0
100
AcDbCircle
 10
149.219581
 20
52.411034
 40
0.167
100
AcDbArc
 50
90.0
 51
180.0
  0
LINE
  5
394
100
AcDbEntity
  8
M0
100
AcDbLine
 10
149.052581
 20
52.411034
 11
149.052581
 21
52.077034
  0
LINE
  5
395
100
AcDbEntity
  8
M0
100
AcDbLine
 10
149.052581
 20
52.077034
 11
178.695081
 21
52.077034
  0
ARC
  5
396
100
AcDbEntity
  8
M0
100
AcDbCircle
 10
178.695081
 20
52.244034
 40
0.167
100
AcDbArc
 50
270.0
 51
360.0
  0
LINE
  5
397
100
AcDbEntity
  8
M0
100
AcDbLine
 10
178.862081
 20
56.252034
 11
178.862081
 21
52.244034
  0
ARC
  5
398
100
AcDbEntity
  8
M0
100
AcDbCircle
 10
179.697081
 20
56.252034
 40
0.835
100
AcDbArc
 50
90.0
 51
180.0
  0
LINE
  5
399
100
AcDbEntity
  8
M0
100
AcDbLine
 10
192.38908
 20
57.087034
 11
179.697081
 21
57.087034
  0
LINE
  5
39A
100
AcDbEntity
  8
M0
100
AcDbLine
 10
178.862081
 20
52.912034
 11
193.22408
 21
52.912034
  0
ARC
  5
39B
100
AcDbEntity
  8
M0
100
AcDbCircle
 10
192.38908
 20
56.252034
 40
0.835
100
AcDbArc
 50
0.0
 51
90.0
  0
LINE
  5
39C
100
AcDbEntity
  8
M0
100
AcDbLine
 10
193.22408
 20
56.252034
 11
193.22408
 21
52.244034
  0
ARC
  5
39D
100
AcDbEntity
  8
M0
100
AcDbCircle
 10
193.39108
 20
52.244034
 40
0.167
100
AcDbArc
 50
180.0
 51
270.0
  0
LINE
  5
39E
100
AcDbEntity
  8
M0
100
AcDbLine
 10
193.39108
 20
52.077034
 11
219.19258
 21
52.077034
  0
LINE
  5
39F
100
AcDbEntity
  8
M0
100
AcDbLine
 10
219.02558
 20
52.578034
 11
193.22408
 21
52.578034
  0
LINE
  5
3A0
100
AcDbEntity
  8
M0
100
AcDbLine
 10
219.19258
 20
52.411034
 11
219.19258
 21
52.077034
  0
ARC
  5
3A1
100
AcDbEntity
  8
M0
100
AcDbCircle
 10
219.02558
 20
52.411034
 40
0.167
100
AcDbArc
 50
0.0
 51
90.0
  0
LINE
  5
3A2
100
AcDbEntity
  8
M0
  6
DASHDOT
100
AcDbLine
 10
176.459287
 20
64.602034
 11
174.705816
 21
64.602034
  0
ARC
  5
3A3
100
AcDbEntity
  8
M0
100
AcDbCircle
 10
173.852081
 20
64.602034
 40
1.67
100
AcDbArc
 50
0.0
 51
66.800157
  0
LINE
  5
3A4
100
AcDbEntity
  8
M0
  6
DASHDOT
100
AcDbLine
 10
173.935581
 20
65.877541
 11
173.935581
 21
63.215398
  0
CIRCLE
  5
3A5
100
AcDbEntity
  8
M0
100
AcDbCircle
 10
173.935581
 20
64.602034
 40
0.7515
  0
LINE
  5
3A6
100
AcDbEntity
  8
M0
  6
DASHDOT
100
AcDbLine
 10
159.952776
 20
64.602034
 11
176.356607
 21
64.602034
  0
ARC
  5
3A7
100
AcDbEntity
  8
M0
100
AcDbCircle
 10
173.852081
 20
64.602034
 40
1.67
100
AcDbArc
 50
-66.800157
 51
0.0
  0
LINE
  5
3A8
100
AcDbEntity
  8
M0
100
AcDbLine
 10
174.50996
 20
63.067076
 11
169.854202
 21
61.071631
  0
LINE
  5
3A9
100
AcDbEntity
  8
M0
100
AcDbLine
 10
162.172202
 20
63.067076
 11
166.82796
 21
61.071631
  0
ARC
  5
3AA
100
AcDbEntity
  8
M0
100
AcDbCircle
 10
162.830081
 20
64.602034
 40
1.67
100
AcDbArc
 50
113.199843
 51
180.0
  0
ARC
  5
3AB
100
AcDbEntity
  8
M0
100
AcDbCircle
 10
162.830081
 20
64.602034
 40
1.67
100
AcDbArc
 50
180.0
 51
246.800157
  0
CIRCLE
  5
3AC
100
AcDbEntity
  8
M0
100
AcDbCircle
 10
162.746581
 20
64.602034
 40
0.7515
  0
LINE
  5
3AD
100
AcDbEntity
  8
M0
  6
DASHDOT
100
AcDbLine
 10
162.746581
 20
65.766619
 11
162.746581
 21
63.437243
  0
LINE
  5
3AE
100
AcDbEntity
  8
M0
100
AcDbLine
 10
174.50996
 20
66.136991
 11
169.854202
 21
68.132436
  0
LINE
  5
3AF
100
AcDbEntity
  8
M0
100
AcDbLine
 10
162.172202
 20
66.136991
 11
166.82796
 21
68.132436
  0
LINE
  5
3B0
100
AcDbEntity
  8
M0
  6
DASHDOT
100
AcDbLine
 10
167.506081
 20
64.602034
 11
169.176081
 21
64.602034
  0
LINE
  5
3B1
100
AcDbEntity
  8
M0
  6
DASHDOT
100
AcDbLine
 10
168.341081
 20
60.143545
 11
168.341081
 21
69.291931
  0
ARC
  5
3B2
100
AcDbEntity
  8
M0
100
AcDbCircle
 10
168.341081
 20
64.602034
 40
3.841
100
AcDbArc
 50
66.800157
 51
113.199843
  0
ARC
  5
3B3
100
AcDbEntity
  8
M0
100
AcDbCircle
 10
168.341081
 20
64.602034
 40
3.841
100
AcDbArc
 50
246.800157
 51
293.199843
  0
LINE
  5
3B4
100
AcDbEntity
  8
M0
  6
DASHDOT
100
AcDbLine
 10
160.087951
 20
64.601948
 11
175.522081
 21
64.601948
  0
LINE
  5
3B5
100
AcDbEntity
  8
M0
  6
DASHDOT
100
AcDbLine
 10
168.341081
 20
69.279405
 11
168.341081
 21
59.342664
  0
LINE
  5
3B6
100
AcDbEntity
  8
M0
  6
DASHDOT
100
AcDbLine
 10
168.341081
 20
69.463954
 11
168.341081
 21
67.607948
  0
CIRCLE
  5
3B7
100
AcDbEntity
  8
M0
100
AcDbCircle
 10
168.341081
 20
64.601948
 40
2.505
  0
ARC
  5
3B8
100
AcDbEntity
  8
M0
100
AcDbCircle
 10
165.625084
 20
61.885951
 40
1.67
100
AcDbArc
 50
16.43328
 51
73.56672
  0
ARC
  5
3B9
100
AcDbEntity
  8
M0
100
AcDbCircle
 10
165.625084
 20
67.317945
 40
1.67
100
AcDbArc
 50
286.43328
 51
343.56672
  0
ARC
  5
3BA
100
AcDbEntity
  8
M0
100
AcDbCircle
 10
171.057078
 20
67.317945
 40
1.67
100
AcDbArc
 50
196.43328
 51
253.56672
  0
ARC
  5
3BB
100
AcDbEntity
  8
M0
100
AcDbCircle
 10
171.057078
 20
61.885951
 40
1.67
100
AcDbArc
 50
106.43328
 51
163.56672
  0
ARC
  5
3BC
100
AcDbEntity
  8
M0
100
AcDbCircle
 10
164.500081
 20
64.601948
 40
1.67
100
AcDbArc
 50
331.43328
 51
388.56672
  0
LINE
  5
3BD
100
AcDbEntity
  8
M0
100
AcDbLine
 10
167.422581
 20
65.186448
 11
166.064453
 21
65.186448
  0
LINE
  5
3BE
100
AcDbEntity
  8
M0
100
AcDbLine
 10
167.422581
 20
64.017448
 11
166.064453
 21
64.017448
  0
ARC
  5
3BF
100
AcDbEntity
  8
M0
100
AcDbCircle
 10
168.341081
 20
68.442948
 40
1.67
100
AcDbArc
 50
241.43328
 51
298.56672
  0
ARC
  5
3C0
100
AcDbEntity
  8
M0
100
AcDbCircle
 10
172.182081
 20
64.601948
 40
1.67
100
AcDbArc
 50
151.43328
 51
208.56672
  0
ARC
  5
3C1
100
AcDbEntity
  8
M0
100
AcDbCircle
 10
168.341081
 20
60.760948
 40
1.67
100
AcDbArc
 50
61.43328
 51
118.56672
  0
LINE
  5
3C2
100
AcDbEntity
  8
M0
100
AcDbLine
 10
167.756581
 20
66.878576
 11
167.756581
 21
65.520448
  0
LINE
  5
3C3
100
AcDbEntity
  8
M0
100
AcDbLine
 10
168.925581
 20
66.878576
 11
168.925581
 21
65.520448
  0
LINE
  5
3C4
100
AcDbEntity
  8
M0
100
AcDbLine
 10
170.617709
 20
65.186448
 11
169.259581
 21
65.186448
  0
LINE
  5
3C5
100
AcDbEntity
  8
M0
100
AcDbLine
 10
170.617709
 20
64.017448
 11
169.259581
 21
64.017448
  0
LINE
  5
3C6
100
AcDbEntity
  8
M0
100
AcDbLine
 10
168.925581
 20
63.683448
 11
168.925581
 21
62.32532
  0
LINE
  5
3C7
100
AcDbEntity
  8
M0
100
AcDbLine
 10
167.756581
 20
63.683448
 11
167.756581
 21
62.32532
  0
ARC
  5
3C8
100
AcDbEntity
  8
M0
100
AcDbCircle
 10
167.422581
 20
65.520448
 40
0.334
100
AcDbArc
 50
270.0
 51
360.0
  0
ARC
  5
3C9
100
AcDbEntity
  8
M0
100
AcDbCircle
 10
167.422581
 20
63.683448
 40
0.334
100
AcDbArc
 50
0.0
 51
90.0
  0
ARC
  5
3CA
100
AcDbEntity
  8
M0
100
AcDbCircle
 10
169.259581
 20
63.683448
 40
0.334
100
AcDbArc
 50
90.0
 51
180.0
  0
ARC
  5
3CB
100
AcDbEntity
  8
M0
100
AcDbCircle
 10
169.259581
 20
65.520448
 40
0.334
100
AcDbArc
 50
180.0
 51
270.0
  0
LINE
  5
3CC
100
AcDbEntity
  8
M0
100
AcDbLine
 10
219.235768
 20
66.564377
 11
219.030535
 21
66.564377
  0
LINE
  5
3CD
100
AcDbEntity
  8
M0
100
AcDbLine
 10
219.24035
 20
62.639877
 11
219.030535
 21
62.639877
  0
LINE
  5
3CE
100
AcDbEntity
  8
M0
100
AcDbLine
 10
220.734991
 20
68.693627
 11
220.734991
 21
60.47399
  0
LINE
  5
3CF
100
AcDbEntity
  8
M0
  6
DASHDOT
100
AcDbLine
 10
217.209649
 20
64.61847
 11
210.832677
 21
64.61847
  0
TEXT
  5
3D0
100
AcDbEntity
  8
M0
 62
     2
100
AcDbText
 10
344.92189
 20
49.702656
 40
2.505
  1
＊Ｊ４０－２４ＳＳの圧力管は井戸径を示す
 41
0.844444
  7
STANDARD
100
AcDbText
  0
LINE
  5
3D1
100
AcDbEntity
  8
M0
 62
     2
100
AcDbLine
 10
240.54757
 20
128.8883
 11
240.54757
 21
53.738302
  0
LINE
  5
3D2
100
AcDbEntity
  8
M0
 62
     2
100
AcDbLine
 10
240.54757
 20
128.8883
 11
398.528251
 21
128.8883
  0
LINE
  5
3D3
100
AcDbEntity
  8
M0
 62
     2
100
AcDbLine
 10
240.546593
 20
123.8783
 11
398.562377
 21
123.8783
  0
LINE
  5
3D4
100
AcDbEntity
  8
M0
 62
     2
100
AcDbLine
 10
240.543766
 20
103.8383
 11
398.519643
 21
103.8383
  0
LINE
  5
3D5
100
AcDbEntity
  8
M0
 62
     2
100
AcDbLine
 10
240.549419
 20
78.788301
 11
398.497409
 21
78.788301
  0
LINE
  5
3D6
100
AcDbEntity
  8
M0
 62
     2
100
AcDbLine
 10
268.253654
 20
58.748301
 11
398.514731
 21
58.748301
  0
LINE
  5
3D7
100
AcDbEntity
  8
M0
 62
     2
100
AcDbLine
 10
308.333653
 20
128.8883
 11
308.333653
 21
53.738302
  0
TEXT
  5
3D8
100
AcDbEntity
  8
M0
 62
     2
100
AcDbText
 10
245.814418
 20
124.794169
 40
3.34
  1
ポンプ形式
 41
0.841667
  7
STANDARD
100
AcDbText
  0
TEXT
  5
3D9
100
AcDbEntity
  8
M0
 62
     2
100
AcDbText
 10
268.930218
 20
124.9348
 40
2.338
  1
ジェット部品形式
 41
0.845238
  7
STANDARD
100
AcDbText
  0
TEXT
  5
3DA
100
AcDbEntity
  8
M0
 62
     2
100
AcDbText
 10
290.738818
 20
124.87983
 40
3.34
  1
吸上げ高さ
 41
0.841667
  7
STANDARD
100
AcDbText
  0
TEXT
  5
3DB
100
AcDbEntity
  8
M0
 62
     2
100
AcDbText
 10
348.671956
 20
124.921297
 40
3.34
  1
圧力管
 41
0.841667
  7
STANDARD
100
AcDbText
  0
TEXT
  5
3DC
100
AcDbEntity
  8
M0
 62
     2
100
AcDbText
 10
318.362813
 20
124.997423
 40
3.34
  1
吸込管
 41
0.841667
  7
STANDARD
100
AcDbText
  0
TEXT
  5
3DD
100
AcDbEntity
  8
M0
 62
     2
100
AcDbText
 10
375.767634
 20
124.830232
 40
3.34
  1
標準揚水量
 41
0.841667
  7
STANDARD
100
AcDbText
  0
LINE
  5
3DE
100
AcDbEntity
  8
M0
 62
     2
100
AcDbLine
 10
288.385407
 20
113.8583
 11
398.519643
 21
113.8583
  0
LINE
  5
3DF
100
AcDbEntity
  8
M0
 62
     2
100
AcDbLine
 10
268.267056
 20
108.8483
 11
398.551694
 21
108.8483
  0
LINE
  5
3E0
100
AcDbEntity
  8
M0
 62
     2
100
AcDbLine
 10
268.254277
 20
118.8683
 11
398.530326
 21
118.8683
  0
LINE
  5
3E1
100
AcDbEntity
  8
M0
 62
     2
100
AcDbLine
 10
268.280748
 20
93.818301
 11
398.497409
 21
93.818301
  0
LINE
  5
3E2
100
AcDbEntity
  8
M0
 62
     2
100
AcDbLine
 10
268.280748
 20
68.768301
 11
398.510328
 21
68.768301
  0
LINE
  5
3E3
100
AcDbEntity
  8
M0
 62
     2
100
AcDbLine
 10
268.253654
 20
128.8883
 11
268.253654
 21
53.738302
  0
TEXT
  5
3E4
100
AcDbEntity
  8
M0
 62
     2
100
AcDbText
 10
243.753555
 20
112.48996
 40
2.505
  1
ＤＭ－Ｐ４００Ｓ形
 41
0.844444
  7
STANDARD
100
AcDbText
  0
TEXT
  5
3E5
100
AcDbEntity
  8
M0
 62
     2
100
AcDbText
 10
244.060422
 20
90.121868
 40
2.505
  1
ＤＭ－Ｐ６００Ｓ形
 41
0.844444
  7
STANDARD
100
AcDbText
  0
TEXT
  5
3E6
100
AcDbEntity
  8
M0
 62
     2
100
AcDbText
 10
244.060422
 20
64.960782
 40
2.505
  1
ＤＭ－Ｋ７５０Ｓ形
 41
0.844444
  7
STANDARD
100
AcDbText
  0
TEXT
  5
3E7
100
AcDbEntity
  8
M0
 62
     2
100
AcDbText
 10
269.928249
 20
120.436309
 40
2.171
  1
Ｊ７５－２４Ｓ形
 41
0.846154
  7
STANDARD
100
AcDbText
  0
LINE
  5
3E8
100
AcDbEntity
  8
M0
 62
     2
100
AcDbLine
 10
288.255367
 20
98.8283
 11
398.549086
 21
98.8283
  0
LINE
  5
3E9
100
AcDbEntity
  8
M0
 62
     2
100
AcDbLine
 10
288.293653
 20
128.8883
 11
288.293653
 21
53.738302
  0
LINE
  5
3EA
100
AcDbEntity
  8
M0
 62
     2
100
AcDbLine
 10
288.29334
 20
88.808301
 11
398.497409
 21
88.808301
  0
LINE
  5
3EB
100
AcDbEntity
  8
M0
 62
     2
100
AcDbLine
 10
288.375821
 20
73.778301
 11
398.536167
 21
73.778301
  0
LINE
  5
3EC
100
AcDbEntity
  8
M0
 62
     2
100
AcDbLine
 10
288.293544
 20
63.758301
 11
398.497409
 21
63.758301
  0
TEXT
  5
3ED
100
AcDbEntity
  8
M0
 62
     2
100
AcDbText
 10
270.008997
 20
97.574335
 40
2.171
  1
Ｊ７５－２４Ｓ形
 41
0.846154
  7
STANDARD
100
AcDbText
  0
TEXT
  5
3EE
100
AcDbEntity
  8
M0
 62
     2
100
AcDbText
 10
270.008997
 20
72.52433
 40
2.171
  1
Ｊ７５－２４Ｓ形
 41
0.846154
  7
STANDARD
100
AcDbText
  0
LINE
  5
3EF
100
AcDbEntity
  8
M0
 62
     2
100
AcDbLine
 10
338.393652
 20
128.8883
 11
338.393652
 21
53.738302
  0
LINE
  5
3F0
100
AcDbEntity
  8
M0
 62
     2
100
AcDbLine
 10
368.453651
 20
128.8883
 11
368.453651
 21
53.738302
  0
TEXT
  5
3F1
100
AcDbEntity
  8
M0
 62
     2
100
AcDbText
 10
270.008997
 20
112.604334
 40
2.171
  1
Ｊ７５－３５Ｓ形
 41
0.846154
  7
STANDARD
100
AcDbText
  0
TEXT
  5
3F2
100
AcDbEntity
  8
M0
 62
     2
100
AcDbText
 10
270.008997
 20
87.554335
 40
2.171
  1
Ｊ７５－３５Ｓ形
 41
0.846154
  7
STANDARD
100
AcDbText
  0
TEXT
  5
3F3
100
AcDbEntity
  8
M0
 62
     2
100
AcDbText
 10
270.008997
 20
62.504341
 40
2.171
  1
Ｊ７５－３５Ｓ形
 41
0.846154
  7
STANDARD
100
AcDbText
  0
TEXT
  5
3F4
100
AcDbEntity
  8
M0
 62
     2
100
AcDbText
 10
294.40219
 20
120.380381
 40
2.505
  1
１８ｍ
 41
0.844444
  7
STANDARD
100
AcDbText
  0
TEXT
  5
3F5
100
AcDbEntity
  8
M0
 62
     2
100
AcDbText
 10
294.40219
 20
75.290385
 40
2.505
  1
１８ｍ
 41
0.844444
  7
STANDARD
100
AcDbText
  0
TEXT
  5
3F6
100
AcDbEntity
  8
M0
 62
     2
100
AcDbText
 10
294.40219
 20
115.370384
 40
2.505
  1
２４ｍ
 41
0.844444
  7
STANDARD
100
AcDbText
  0
TEXT
  5
3F7
100
AcDbEntity
  8
M0
 62
     2
100
AcDbText
 10
294.40219
 20
110.360384
 40
2.505
  1
３０ｍ
 41
0.844444
  7
STANDARD
100
AcDbText
  0
TEXT
  5
3F8
100
AcDbEntity
  8
M0
 62
     2
100
AcDbText
 10
294.40219
 20
105.350384
 40
2.505
  1
２４ｍ
 41
0.844444
  7
STANDARD
100
AcDbText
  0
TEXT
  5
3F9
100
AcDbEntity
  8
M0
 62
     2
100
AcDbText
 10
294.40219
 20
100.340384
 40
2.505
  1
１８ｍ
 41
0.844444
  7
STANDARD
100
AcDbText
  0
TEXT
  5
3FA
100
AcDbEntity
  8
M0
 62
     2
100
AcDbText
 10
294.40219
 20
95.330384
 40
2.505
  1
２４ｍ
 41
0.844444
  7
STANDARD
100
AcDbText
  0
TEXT
  5
3FB
100
AcDbEntity
  8
M0
 62
     2
100
AcDbText
 10
294.40219
 20
90.320384
 40
2.505
  1
３０ｍ
 41
0.844444
  7
STANDARD
100
AcDbText
  0
TEXT
  5
3FC
100
AcDbEntity
  8
M0
 62
     2
100
AcDbText
 10
294.40219
 20
85.310385
 40
2.505
  1
３５ｍ
 41
0.844444
  7
STANDARD
100
AcDbText
  0
TEXT
  5
3FD
100
AcDbEntity
  8
M0
 62
     2
100
AcDbText
 10
294.40219
 20
70.28038
 40
2.505
  1
２４ｍ
 41
0.844444
  7
STANDARD
100
AcDbText
  0
TEXT
  5
3FE
100
AcDbEntity
  8
M0
 62
     2
100
AcDbText
 10
294.40219
 20
65.27038
 40
2.505
  1
３０ｍ
 41
0.844444
  7
STANDARD
100
AcDbText
  0
TEXT
  5
3FF
100
AcDbEntity
  8
M0
 62
     2
100
AcDbText
 10
294.40219
 20
60.26038
 40
2.505
  1
３５ｍ
 41
0.844444
  7
STANDARD
100
AcDbText
  0
TEXT
  5
400
100
AcDbEntity
  8
M0
 62
     2
100
AcDbText
 10
310.374942
 20
120.251054
 40
2.171
  1
３０ｍｍ（１　１／４Ｂ）
 41
0.846154
  7
STANDARD
100
AcDbText
  0
TEXT
  5
401
100
AcDbEntity
  8
M0
 62
     2
100
AcDbText
 10
310.374942
 20
115.241057
 40
2.171
  1
３０ｍｍ（１　１／４Ｂ）
 41
0.846154
  7
STANDARD
100
AcDbText
  0
TEXT
  5
402
100
AcDbEntity
  8
M0
 62
     2
100
AcDbText
 10
310.374942
 20
110.231057
 40
2.171
  1
３０ｍｍ（１　１／４Ｂ）
 41
0.846154
  7
STANDARD
100
AcDbText
  0
TEXT
  5
403
100
AcDbEntity
  8
M0
 62
     2
100
AcDbText
 10
310.374942
 20
100.211057
 40
2.171
  1
３０ｍｍ（１　１／４Ｂ）
 41
0.846154
  7
STANDARD
100
AcDbText
  0
TEXT
  5
404
100
AcDbEntity
  8
M0
 62
     2
100
AcDbText
 10
310.374942
 20
95.201057
 40
2.171
  1
３０ｍｍ（１　１／４Ｂ）
 41
0.846154
  7
STANDARD
100
AcDbText
  0
TEXT
  5
405
100
AcDbEntity
  8
M0
 62
     2
100
AcDbText
 10
310.374942
 20
90.191057
 40
2.171
  1
３０ｍｍ（１　１／４Ｂ）
 41
0.846154
  7
STANDARD
100
AcDbText
  0
TEXT
  5
406
100
AcDbEntity
  8
M0
 62
     2
100
AcDbText
 10
310.374942
 20
85.181057
 40
2.171
  1
３０ｍｍ（１　１／４Ｂ）
 41
0.846154
  7
STANDARD
100
AcDbText
  0
TEXT
  5
407
100
AcDbEntity
  8
M0
 62
     2
100
AcDbText
 10
310.374942
 20
75.161058
 40
2.171
  1
３０ｍｍ（１　１／４Ｂ）
 41
0.846154
  7
STANDARD
100
AcDbText
  0
TEXT
  5
408
100
AcDbEntity
  8
M0
 62
     2
100
AcDbText
 10
310.374942
 20
70.151053
 40
2.171
  1
３０ｍｍ（１　１／４Ｂ）
 41
0.846154
  7
STANDARD
100
AcDbText
  0
TEXT
  5
409
100
AcDbEntity
  8
M0
 62
     2
100
AcDbText
 10
310.374942
 20
65.141053
 40
2.171
  1
３０ｍｍ（１　１／４Ｂ）
 41
0.846154
  7
STANDARD
100
AcDbText
  0
TEXT
  5
40A
100
AcDbEntity
  8
M0
 62
     2
100
AcDbText
 10
310.374942
 20
60.131053
 40
2.171
  1
３０ｍｍ（１　１／４Ｂ）
 41
0.846154
  7
STANDARD
100
AcDbText
  0
TEXT
  5
40B
100
AcDbEntity
  8
M0
 62
     2
100
AcDbText
 10
340.434951
 20
120.251054
 40
2.171
  1
３０ｍｍ（１　１／４Ｂ）
 41
0.846154
  7
STANDARD
100
AcDbText
  0
TEXT
  5
40C
100
AcDbEntity
  8
M0
 62
     2
100
AcDbText
 10
340.434951
 20
115.241057
 40
2.171
  1
３０ｍｍ（１　１／４Ｂ）
 41
0.846154
  7
STANDARD
100
AcDbText
  0
TEXT
  5
40D
100
AcDbEntity
  8
M0
 62
     2
100
AcDbText
 10
340.434951
 20
110.231057
 40
2.171
  1
３０ｍｍ（１　１／４Ｂ）
 41
0.846154
  7
STANDARD
100
AcDbText
  0
TEXT
  5
40E
100
AcDbEntity
  8
M0
 62
     2
100
AcDbText
 10
340.434951
 20
100.211057
 40
2.171
  1
３０ｍｍ（１　１／４Ｂ）
 41
0.846154
  7
STANDARD
100
AcDbText
  0
TEXT
  5
40F
100
AcDbEntity
  8
M0
 62
     2
100
AcDbText
 10
340.434951
 20
95.201057
 40
2.171
  1
３０ｍｍ（１　１／４Ｂ）
 41
0.846154
  7
STANDARD
100
AcDbText
  0
TEXT
  5
410
100
AcDbEntity
  8
M0
 62
     2
100
AcDbText
 10
340.434951
 20
90.191057
 40
2.171
  1
３０ｍｍ（１　１／４Ｂ）
 41
0.846154
  7
STANDARD
100
AcDbText
  0
TEXT
  5
411
100
AcDbEntity
  8
M0
 62
     2
100
AcDbText
 10
340.434951
 20
85.181057
 40
2.171
  1
３０ｍｍ（１　１／４Ｂ）
 41
0.846154
  7
STANDARD
100
AcDbText
  0
TEXT
  5
412
100
AcDbEntity
  8
M0
 62
     2
100
AcDbText
 10
340.434951
 20
75.161058
 40
2.171
  1
３０ｍｍ（１　１／４Ｂ）
 41
0.846154
  7
STANDARD
100
AcDbText
  0
TEXT
  5
413
100
AcDbEntity
  8
M0
 62
     2
100
AcDbText
 10
340.434951
 20
70.151053
 40
2.171
  1
３０ｍｍ（１　１／４Ｂ）
 41
0.846154
  7
STANDARD
100
AcDbText
  0
TEXT
  5
414
100
AcDbEntity
  8
M0
 62
     2
100
AcDbText
 10
340.434951
 20
65.141053
 40
2.171
  1
３０ｍｍ（１　１／４Ｂ）
 41
0.846154
  7
STANDARD
100
AcDbText
  0
TEXT
  5
415
100
AcDbEntity
  8
M0
 62
     2
100
AcDbText
 10
340.434951
 20
60.131053
 40
2.171
  1
３０ｍｍ（１　１／４Ｂ）
 41
0.846154
  7
STANDARD
100
AcDbText
  0
TEXT
  5
416
100
AcDbEntity
  8
M0
 62
     2
100
AcDbText
 10
368.984388
 20
120.470517
 40
2.171
  1
２０Ｌ／分（全揚程：３４ｍ）
 41
0.846154
  7
STANDARD
100
AcDbText
  0
TEXT
  5
417
100
AcDbEntity
  8
M0
 62
     2
100
AcDbText
 10
368.984388
 20
115.460519
 40
2.171
  1
１４Ｌ／分（全揚程：４０ｍ）
 41
0.846154
  7
STANDARD
100
AcDbText
  0
TEXT
  5
418
100
AcDbEntity
  8
M0
 62
     2
100
AcDbText
 10
368.984388
 20
105.44052
 40
2.171
  1
　８Ｌ／分（全揚程：４０ｍ）
 41
0.846154
  7
STANDARD
100
AcDbText
  0
TEXT
  5
419
100
AcDbEntity
  8
M0
 62
     2
100
AcDbText
 10
368.984388
 20
100.43052
 40
2.171
  1
２６Ｌ／分（全揚程：３４ｍ）
 41
0.846154
  7
STANDARD
100
AcDbText
  0
TEXT
  5
41A
100
AcDbEntity
  8
M0
 62
     2
100
AcDbText
 10
368.984388
 20
95.42052
 40
2.171
  1
１６Ｌ／分（全揚程：４０ｍ）
 41
0.846154
  7
STANDARD
100
AcDbText
  0
TEXT
  5
41B
100
AcDbEntity
  8
M0
 62
     2
100
AcDbText
 10
368.984388
 20
90.41052
 40
2.171
  1
１０Ｌ／分（全揚程：４６ｍ）
 41
0.846154
  7
STANDARD
100
AcDbText
  0
TEXT
  5
41C
100
AcDbEntity
  8
M0
 62
     2
100
AcDbText
 10
368.984388
 20
85.40052
 40
2.171
  1
　７Ｌ／分（全揚程：５１ｍ）
 41
0.846154
  7
STANDARD
100
AcDbText
  0
TEXT
  5
41D
100
AcDbEntity
  8
M0
 62
     2
100
AcDbText
 10
368.984388
 20
75.38052
 40
2.171
  1
３１Ｌ／分（全揚程：３４ｍ）
 41
0.846154
  7
STANDARD
100
AcDbText
  0
TEXT
  5
41E
100
AcDbEntity
  8
M0
 62
     2
100
AcDbText
 10
368.984388
 20
70.370515
 40
2.171
  1
１８Ｌ／分（全揚程：４０ｍ）
 41
0.846154
  7
STANDARD
100
AcDbText
  0
TEXT
  5
41F
100
AcDbEntity
  8
M0
 62
     2
100
AcDbText
 10
368.984388
 20
65.360526
 40
2.171
  1
１１Ｌ／分（全揚程：４６ｍ）
 41
0.846154
  7
STANDARD
100
AcDbText
  0
TEXT
  5
420
100
AcDbEntity
  8
M0
 62
     2
100
AcDbText
 10
368.984388
 20
60.350516
 40
2.171
  1
　８Ｌ／分（全揚程：５１ｍ）
 41
0.846154
  7
STANDARD
100
AcDbText
  0
TEXT
  5
421
100
AcDbEntity
  8
M0
 62
     2
100
AcDbText
 10
368.984388
 20
110.45052
 40
2.171
  1
　７Ｌ／分（全揚程：４６ｍ）
 41
0.846154
  7
STANDARD
100
AcDbText
  0
TEXT
  5
422
100
AcDbEntity
  8
M0
 62
     2
100
AcDbText
 10
269.886499
 20
105.406312
 40
1.67
  1
Ｊ４０－２４ＳＳ形
 41
0.85
  7
STANDARD
100
AcDbText
  0
LINE
  5
423
100
AcDbEntity
  8
M0
 62
     2
100
AcDbLine
 10
398.51365
 20
128.8883
 11
398.51365
 21
53.738302
  0
TEXT
  5
424
100
AcDbEntity
  8
M0
 62
     2
100
AcDbText
 10
340.434941
 20
105.142618
 40
2.171
  1
５０ｍｍ（２Ｂ）
 41
0.846154
  7
STANDARD
100
AcDbText
  0
TEXT
  5
425
100
AcDbEntity
  8
M0
 62
     2
100
AcDbText
 10
310.374952
 20
105.299501
 40
2.171
  1
３０ｍｍ（１　１／４Ｂ）
 41
0.846154
  7
STANDARD
100
AcDbText
  0
LINE
  5
426
100
AcDbEntity
  8
M0
 62
     2
100
AcDbLine
 10
240.354125
 20
132.779465
 11
402.840192
 21
132.779465
  0
TEXT
  5
427
100
AcDbEntity
  8
M0
 62
     2
100
AcDbText
 10
242.053517
 20
133.13472
 40
5.01
  1
深井戸専用ジェット、深井戸用シングルジェット組合せ時の標準揚水量
 41
0.838889
  7
STANDARD
100
AcDbText
  0
TEXT
  5
428
100
AcDbEntity
  8
M0
 62
     2
100
AcDbText
 10
269.886499
 20
80.356313
 40
1.67
  1
Ｊ４０－２４ＳＳ形
 41
0.85
  7
STANDARD
100
AcDbText
  0
TEXT
  5
429
100
AcDbEntity
  8
M0
 62
     2
100
AcDbText
 10
294.40219
 20
80.300385
 40
2.505
  1
２４ｍ
 41
0.844444
  7
STANDARD
100
AcDbText
  0
TEXT
  5
42A
100
AcDbEntity
  8
M0
 62
     2
100
AcDbText
 10
310.374952
 20
80.249502
 40
2.171
  1
３０ｍｍ（１　１／４Ｂ）
 41
0.846154
  7
STANDARD
100
AcDbText
  0
TEXT
  5
42B
100
AcDbEntity
  8
M0
 62
     2
100
AcDbText
 10
340.434941
 20
80.092618
 40
2.171
  1
５０ｍｍ（２Ｂ）
 41
0.846154
  7
STANDARD
100
AcDbText
  0
TEXT
  5
42C
100
AcDbEntity
  8
M0
 62
     2
100
AcDbText
 10
368.984388
 20
80.39052
 40
2.171
  1
　８Ｌ／分（全揚程：４０ｍ）
 41
0.846154
  7
STANDARD
100
AcDbText
  0
LINE
  5
42D
100
AcDbEntity
  8
M0
 62
     2
100
AcDbLine
 10
268.267056
 20
83.798301
 11
398.551694
 21
83.798301
  0
TEXT
  5
42E
100
AcDbEntity
  8
M0
 62
     2
100
AcDbText
 10
269.886499
 20
55.306319
 40
1.67
  1
Ｊ４０－２４ＳＳ形
 41
0.85
  7
STANDARD
100
AcDbText
  0
TEXT
  5
42F
100
AcDbEntity
  8
M0
 62
     2
100
AcDbText
 10
294.40219
 20
55.25038
 40
2.505
  1
２４ｍ
 41
0.844444
  7
STANDARD
100
AcDbText
  0
TEXT
  5
430
100
AcDbEntity
  8
M0
 62
     2
100
AcDbText
 10
310.374952
 20
55.199497
 40
2.171
  1
３０ｍｍ（１　１／４Ｂ）
 41
0.846154
  7
STANDARD
100
AcDbText
  0
TEXT
  5
431
100
AcDbEntity
  8
M0
 62
     2
100
AcDbText
 10
340.434941
 20
55.042619
 40
2.171
  1
５０ｍｍ（２Ｂ）
 41
0.846154
  7
STANDARD
100
AcDbText
  0
TEXT
  5
432
100
AcDbEntity
  8
M0
 62
     2
100
AcDbText
 10
368.984388
 20
55.340526
 40
2.171
  1
　８Ｌ／分（全揚程：４０ｍ）
 41
0.846154
  7
STANDARD
100
AcDbText
  0
LINE
  5
433
100
AcDbEntity
  8
M0
 62
     2
100
AcDbLine
 10
398.514731
 20
53.738302
 11
240.538113
 21
53.738302
  0
LINE
  5
434
100
AcDbEntity
  8
M46
100
AcDbLine
 10
239.553674
 20
261.688908
 11
239.553674
 21
149.188908
  0
LINE
  5
435
100
AcDbEntity
  8
M46
100
AcDbLine
 10
239.553674
 20
254.938908
 11
355.94974
 21
254.938908
  0
LINE
  5
436
100
AcDbEntity
  8
M46
100
AcDbLine
 10
239.553674
 20
248.188908
 11
355.94974
 21
248.188908
  0
LINE
  5
437
100
AcDbEntity
  8
M46
100
AcDbLine
 10
239.553674
 20
234.688908
 11
355.94974
 21
234.688908
  0
LINE
  5
438
100
AcDbEntity
  8
M46
100
AcDbLine
 10
239.553674
 20
227.938908
 11
355.94974
 21
227.938908
  0
LINE
  5
439
100
AcDbEntity
  8
M46
100
AcDbLine
 10
239.553674
 20
221.188908
 11
355.94974
 21
221.188908
  0
LINE
  5
43A
100
AcDbEntity
  8
M46
100
AcDbLine
 10
239.553674
 20
212.188908
 11
355.94974
 21
212.188908
  0
LINE
  5
43B
100
AcDbEntity
  8
M46
100
AcDbLine
 10
239.553674
 20
203.188908
 11
355.94974
 21
203.188908
  0
LINE
  5
43C
100
AcDbEntity
  8
M46
100
AcDbLine
 10
239.553674
 20
196.438908
 11
355.94974
 21
196.438908
  0
LINE
  5
43D
100
AcDbEntity
  8
M46
100
AcDbLine
 10
239.553674
 20
189.688908
 11
355.94974
 21
189.688908
  0
LINE
  5
43E
100
AcDbEntity
  8
M46
100
AcDbLine
 10
261.859832
 20
162.688908
 11
355.94974
 21
162.688908
  0
LINE
  5
43F
100
AcDbEntity
  8
M46
100
AcDbLine
 10
239.553674
 20
149.188908
 11
355.94974
 21
149.188908
  0
LINE
  5
440
100
AcDbEntity
  8
M46
100
AcDbLine
 10
355.94974
 20
169.438908
 11
261.859832
 21
169.438908
  0
LINE
  5
441
100
AcDbEntity
  8
M46
100
AcDbLine
 10
274.94974
 20
261.688908
 11
274.94974
 21
149.188908
  0
LINE
  5
442
100
AcDbEntity
  8
M46
100
AcDbLine
 10
261.859832
 20
176.188908
 11
261.859832
 21
155.938908
  0
LINE
  5
443
100
AcDbEntity
  8
M46
100
AcDbLine
 10
239.553674
 20
176.188908
 11
355.94974
 21
176.188908
  0
LINE
  5
444
100
AcDbEntity
  8
M46
100
AcDbLine
 10
301.94974
 20
261.688908
 11
301.94974
 21
248.188908
  0
LINE
  5
445
100
AcDbEntity
  8
M46
100
AcDbLine
 10
328.94974
 20
176.188908
 11
328.94974
 21
203.188908
  0
LINE
  5
446
100
AcDbEntity
  8
M46
100
AcDbLine
 10
301.94974
 20
203.188908
 11
301.94974
 21
189.688908
  0
LINE
  5
447
100
AcDbEntity
  8
M46
100
AcDbLine
 10
328.94974
 20
221.188908
 11
328.94974
 21
234.688908
  0
LINE
  5
448
100
AcDbEntity
  8
M46
100
AcDbLine
 10
301.94974
 20
227.938908
 11
301.94974
 21
221.188908
  0
LINE
  5
449
100
AcDbEntity
  8
M46
100
AcDbLine
 10
328.94974
 20
248.188908
 11
328.94974
 21
261.688908
  0
LINE
  5
44A
100
AcDbEntity
  8
M46
100
AcDbLine
 10
239.553674
 20
261.688908
 11
355.94974
 21
261.688908
  0
TEXT
  5
44B
100
AcDbEntity
  8
M46
100
AcDbText
 10
254.688676
 20
249.338702
 40
3.645
  1
電源
 41
0.658436
  7
STANDARD
100
AcDbText
  0
TEXT
  5
44C
100
AcDbEntity
  8
M46
100
AcDbText
 10
252.888673
 20
235.838702
 40
3.645
  1
モータ
 41
0.658436
  7
STANDARD
100
AcDbText
  0
TEXT
  5
44D
100
AcDbEntity
  8
M46
100
AcDbText
 10
251.988672
 20
229.088702
 40
3.645
  1
定格出力
 41
0.658436
  7
STANDARD
100
AcDbText
  0
TEXT
  5
44E
100
AcDbEntity
  8
M46
100
AcDbText
 10
251.988672
 20
214.688701
 40
3.645
  1
制御方式
 41
0.658436
  7
STANDARD
100
AcDbText
  0
TEXT
  5
44F
100
AcDbEntity
  8
M46
100
AcDbText
 10
247.533672
 20
205.688701
 40
3.645
  1
一定制御圧力
 41
0.781893
  7
STANDARD
100
AcDbText
  0
TEXT
  5
450
100
AcDbEntity
  8
M46
100
AcDbText
 10
242.088678
 20
164.288704
 40
3.645
  1
フランジ口径
 41
0.658436
  7
STANDARD
100
AcDbText
  0
TEXT
  5
451
100
AcDbEntity
  8
M46
100
AcDbText
 10
251.988672
 20
150.338705
 40
3.645
  1
製品質量
 41
0.658436
  7
STANDARD
100
AcDbText
  0
TEXT
  5
452
100
AcDbEntity
  8
M46
100
AcDbText
 10
308.08473
 20
150.338705
 40
3.645
  1
２７ｋｇ
 41
0.658436
  7
STANDARD
100
AcDbText
  0
TEXT
  5
453
100
AcDbEntity
  8
M46
100
AcDbText
 10
307.184728
 20
249.338702
 40
3.645
  1
単相１００Ｖ
 41
0.658436
  7
STANDARD
100
AcDbText
  0
TEXT
  5
454
100
AcDbEntity
  8
M46
100
AcDbText
 10
284.684732
 20
190.838706
 40
3.645
  1
１６ｍ
 41
0.658436
  7
STANDARD
100
AcDbText
  0
TEXT
  5
455
100
AcDbEntity
  8
M46
100
AcDbText
 10
264.394822
 20
170.588706
 40
3.645
  1
吸込管
 41
0.658436
  7
STANDARD
100
AcDbText
  0
TEXT
  5
456
100
AcDbEntity
  8
M46
100
AcDbText
 10
264.394822
 20
163.838705
 40
3.645
  1
圧力管
 41
0.658436
  7
STANDARD
100
AcDbText
  0
TEXT
  5
457
100
AcDbEntity
  8
M46
100
AcDbText
 10
294.584726
 20
235.838702
 40
3.645
  1
ＤＣブラシレスモータ（８極）
 41
0.658436
  7
STANDARD
100
AcDbText
  0
TEXT
  5
458
100
AcDbEntity
  8
M46
100
AcDbText
 10
252.888673
 20
197.588706
 40
3.645
  1
吸上高さ
 41
0.658436
  7
STANDARD
100
AcDbText
  0
TEXT
  5
459
100
AcDbEntity
  8
M46
100
AcDbText
 10
252.888673
 20
190.838706
 40
3.645
  1
押上高さ
 41
0.658436
  7
STANDARD
100
AcDbText
  0
TEXT
  5
45A
100
AcDbEntity
  8
M46
100
AcDbText
 10
311.684728
 20
190.838706
 40
3.645
  1
１６ｍ
 41
0.658436
  7
STANDARD
100
AcDbText
  0
TEXT
  5
45B
100
AcDbEntity
  8
M46
100
AcDbText
 10
283.78473
 20
222.338702
 40
3.645
  1
８３０Ｗ
 41
0.658436
  7
STANDARD
100
AcDbText
  0
TEXT
  5
45C
100
AcDbEntity
  8
M46
100
AcDbText
 10
280.184732
 20
249.338702
 40
3.645
  1
単相１００Ｖ
 41
0.658436
  7
STANDARD
100
AcDbText
  0
TEXT
  5
45D
100
AcDbEntity
  8
M46
100
AcDbText
 10
254.688676
 20
256.088702
 40
3.645
  1
形名
 41
0.658436
  7
STANDARD
100
AcDbText
  0
TEXT
  5
45E
100
AcDbEntity
  8
M46
100
AcDbText
 10
277.484727
 20
256.088702
 40
3.645
  1
ＤＭ－Ｐ４００Ｓ
 41
0.658436
  7
STANDARD
100
AcDbText
  0
LINE
  5
45F
100
AcDbEntity
  8
M46
  6
DASHED
100
AcDbLine
 10
355.94974
 20
203.188908
 11
355.94974
 21
189.688908
  0
LINE
  5
460
100
AcDbEntity
  8
M46
100
AcDbLine
 10
355.94974
 20
241.438908
 11
239.553674
 21
241.438908
  0
LINE
  5
461
100
AcDbEntity
  8
M46
100
AcDbLine
 10
355.94974
 20
149.188908
 11
355.94974
 21
261.688908
  0
LINE
  5
462
100
AcDbEntity
  8
M46
100
AcDbLine
 10
301.94974
 20
234.688908
 11
301.94974
 21
221.188908
  0
LINE
  5
463
100
AcDbEntity
  8
M46
100
AcDbLine
 10
301.94974
 20
203.188908
 11
301.94974
 21
176.188908
  0
LINE
  5
464
100
AcDbEntity
  8
M46
100
AcDbLine
 10
355.94974
 20
155.938908
 11
239.553674
 21
155.938908
  0
TEXT
  5
465
100
AcDbEntity
  8
M46
100
AcDbText
 10
304.484727
 20
256.088702
 40
3.645
  1
ＤＭ－Ｐ６００Ｓ
 41
0.658436
  7
STANDARD
100
AcDbText
  0
TEXT
  5
466
100
AcDbEntity
  8
M46
100
AcDbText
 10
338.684728
 20
190.838706
 40
3.645
  1
１６ｍ
 41
0.658436
  7
STANDARD
100
AcDbText
  0
TEXT
  5
467
100
AcDbEntity
  8
M46
100
AcDbText
 10
285.142229
 20
214.688701
 40
3.645
  1
ＰＡＭインバータ制御　＋　吐出圧力一定制御
 41
0.654321
  7
STANDARD
100
AcDbText
  0
TEXT
  5
468
100
AcDbEntity
  8
M46
100
AcDbText
 10
251.988672
 20
222.338702
 40
3.645
  1
消費電力
 41
0.658436
  7
STANDARD
100
AcDbText
  0
TEXT
  5
469
100
AcDbEntity
  8
M46
100
AcDbText
 10
251.866892
 20
242.881267
 40
3.645
  1
定格周波数
 41
0.654321
  7
STANDARD
100
AcDbText
  0
TEXT
  5
46A
100
AcDbEntity
  8
M46
100
AcDbText
 10
304.484727
 20
242.588702
 40
3.645
  1
５０－６０Ｈｚ
 41
0.658436
  7
STANDARD
100
AcDbText
  0
TEXT
  5
46B
100
AcDbEntity
  8
M46
100
AcDbText
 10
249.166895
 20
184.38127
 40
3.645
  1
銘板表示揚水量
 41
0.654321
  7
STANDARD
100
AcDbText
  0
TEXT
  5
46C
100
AcDbEntity
  8
M46
100
AcDbText
 10
244.666895
 20
178.306272
 40
3.645
  1
（全揚程１２ｍ時）
 41
0.654321
  7
STANDARD
100
AcDbText
  0
TEXT
  5
46D
100
AcDbEntity
  8
M46
100
AcDbText
 10
331.484727
 20
256.088702
 40
3.645
  1
ＤＭ－Ｋ７５０Ｓ
 41
0.658436
  7
STANDARD
100
AcDbText
  0
TEXT
  5
46E
100
AcDbEntity
  8
M46
100
AcDbText
 10
334.184728
 20
249.338702
 40
3.645
  1
３相２００Ｖ
 41
0.658436
  7
STANDARD
100
AcDbText
  0
TEXT
  5
46F
100
AcDbEntity
  8
M46
100
AcDbText
 10
283.78473
 20
229.088702
 40
3.645
  1
４００Ｗ
 41
0.658436
  7
STANDARD
100
AcDbText
  0
TEXT
  5
470
100
AcDbEntity
  8
M46
100
AcDbText
 10
310.784726
 20
229.088702
 40
3.645
  1
６００Ｗ
 41
0.658436
  7
STANDARD
100
AcDbText
  0
TEXT
  5
471
100
AcDbEntity
  8
M46
100
AcDbText
 10
337.784728
 20
229.088702
 40
3.645
  1
７５０Ｗ
 41
0.658436
  7
STANDARD
100
AcDbText
  0
TEXT
  5
472
100
AcDbEntity
  8
M46
100
AcDbText
 10
284.684732
 20
197.588706
 40
3.645
  1
１２ｍ
 41
0.658436
  7
STANDARD
100
AcDbText
  0
TEXT
  5
473
100
AcDbEntity
  8
M46
100
AcDbText
 10
311.684728
 20
197.588706
 40
3.645
  1
１２ｍ
 41
0.658436
  7
STANDARD
100
AcDbText
  0
TEXT
  5
474
100
AcDbEntity
  8
M46
100
AcDbText
 10
338.684728
 20
197.588706
 40
3.645
  1
１２ｍ
 41
0.658436
  7
STANDARD
100
AcDbText
  0
TEXT
  5
475
100
AcDbEntity
  8
M46
100
AcDbText
 10
276.462946
 20
178.306272
 40
3.645
  1
（全揚程２８ｍ時）
 41
0.654321
  7
STANDARD
100
AcDbText
  0
TEXT
  5
476
100
AcDbEntity
  8
M46
100
AcDbText
 10
282.762949
 20
184.38127
 40
3.645
  1
３２Ｌ／分
 41
0.654321
  7
STANDARD
100
AcDbText
  0
TEXT
  5
477
100
AcDbEntity
  8
M46
100
AcDbText
 10
309.762945
 20
184.38127
 40
3.645
  1
３６Ｌ／分
 41
0.654321
  7
STANDARD
100
AcDbText
  0
TEXT
  5
478
100
AcDbEntity
  8
M46
100
AcDbText
 10
303.462946
 20
178.306272
 40
3.645
  1
（全揚程２８ｍ時）
 41
0.654321
  7
STANDARD
100
AcDbText
  0
TEXT
  5
479
100
AcDbEntity
  8
M46
100
AcDbText
 10
336.762945
 20
184.38127
 40
3.645
  1
３６Ｌ／分
 41
0.654321
  7
STANDARD
100
AcDbText
  0
TEXT
  5
47A
100
AcDbEntity
  8
M46
100
AcDbText
 10
330.462946
 20
178.306272
 40
3.645
  1
（全揚程２８ｍ時）
 41
0.654321
  7
STANDARD
100
AcDbText
  0
TEXT
  5
47B
100
AcDbEntity
  8
M46
100
AcDbText
 10
264.394822
 20
157.088706
 40
3.645
  1
吐出管
 41
0.658436
  7
STANDARD
100
AcDbText
  0
TEXT
  5
47C
100
AcDbEntity
  8
M46
100
AcDbText
 10
303.462946
 20
170.88127
 40
3.645
  1
３０ｍｍ（１
 41
0.654321
  7
STANDARD
100
AcDbText
  0
TEXT
  5
47D
100
AcDbEntity
  8
M46
100
AcDbText
 10
320.507146
 20
173.068271
 40
2.187
  1
１
 41
0.654321
  7
STANDARD
100
AcDbText
  0
TEXT
  5
47E
100
AcDbEntity
  8
M46
100
AcDbText
 10
322.352148
 20
170.88127
 40
3.645
  1
／
 41
0.654321
  7
STANDARD
100
AcDbText
  0
TEXT
  5
47F
100
AcDbEntity
  8
M46
100
AcDbText
 10
325.086347
 20
170.15227
 40
2.187
  1
４
 41
0.654321
  7
STANDARD
100
AcDbText
  0
TEXT
  5
480
100
AcDbEntity
  8
M46
100
AcDbText
 10
326.931349
 20
170.88127
 40
3.645
  1
Ｂ）
 41
0.654321
  7
STANDARD
100
AcDbText
  0
TEXT
  5
481
100
AcDbEntity
  8
M46
100
AcDbText
 10
303.462946
 20
157.606271
 40
3.645
  1
２５ｍｍ（１Ｂ）
 41
0.654321
  7
STANDARD
100
AcDbText
  0
TEXT
  5
482
100
AcDbEntity
  8
M46
100
AcDbText
 10
303.462946
 20
164.13127
 40
3.645
  1
３０ｍｍ（１
 41
0.654321
  7
STANDARD
100
AcDbText
  0
TEXT
  5
483
100
AcDbEntity
  8
M46
100
AcDbText
 10
320.507146
 20
166.318269
 40
2.187
  1
１
 41
0.654321
  7
STANDARD
100
AcDbText
  0
TEXT
  5
484
100
AcDbEntity
  8
M46
100
AcDbText
 10
322.352148
 20
164.13127
 40
3.645
  1
／
 41
0.654321
  7
STANDARD
100
AcDbText
  0
TEXT
  5
485
100
AcDbEntity
  8
M46
100
AcDbText
 10
325.086347
 20
163.402269
 40
2.187
  1
４
 41
0.654321
  7
STANDARD
100
AcDbText
  0
TEXT
  5
486
100
AcDbEntity
  8
M46
100
AcDbText
 10
326.931349
 20
164.13127
 40
3.645
  1
Ｂ）
 41
0.654321
  7
STANDARD
100
AcDbText
  0
TEXT
  5
487
100
AcDbEntity
  8
M46
100
AcDbText
 10
308.984727
 20
222.338702
 40
3.645
  1
１０５０Ｗ
 41
0.658436
  7
STANDARD
100
AcDbText
  0
TEXT
  5
488
100
AcDbEntity
  8
M46
100
AcDbText
 10
335.984727
 20
222.338702
 40
3.645
  1
１２５０Ｗ
 41
0.658436
  7
STANDARD
100
AcDbText
  0
TEXT
  5
489
100
AcDbEntity
  8
M46
100
AcDbText
 10
239.231167
 20
143.354506
 40
2.505
  1
＊上記仕様は深井戸専用ジェット組合せ時。
 41
0.844444
  7
STANDARD
100
AcDbText
  0
TEXT
  5
48A
100
AcDbEntity
  8
M46
100
AcDbText
 10
308.06973
 20
205.688701
 40
3.24
  1
２２０ｋＰａ
 41
0.638889
  7
STANDARD
100
AcDbText
  0
TEXT
  5
48B
100
AcDbEntity
  8
M46
100
AcDbText
 10
208.203062
 20
41.500867
 40
3.0
  1
（単位：ｍｍ）
 41
0.888889
  7
STANDARD
100
AcDbText
  0
TEXT
  5
48C
100
AcDbEntity
  8
M46
100
AcDbText
 10
208.203062
 20
41.500867
 40
3.0
  1
（単位：ｍｍ）
 41
0.888889
  7
STANDARD
100
AcDbText
  0
LINE
  5
48D
100
AcDbEntity
  8
M46
100
AcDbLine
 10
239.204449
 20
280.060542
 11
215.204449
 21
280.060542
  0
LINE
  5
48E
100
AcDbEntity
  8
M46
100
AcDbLine
 10
239.204449
 20
272.060542
 11
239.204449
 21
280.060542
  0
LINE
  5
48F
100
AcDbEntity
  8
M46
100
AcDbLine
 10
215.204449
 20
280.060542
 11
215.204449
 21
272.060542
  0
LINE
  5
490
100
AcDbEntity
  8
M46
100
AcDbLine
 10
215.204449
 20
272.060542
 11
239.204449
 21
272.060542
  0
TEXT
  5
491
100
AcDbEntity
  8
M46
100
AcDbText
 10
217.71013
 20
273.023825
 40
6.4
  1
仕様
 41
1.354167
  7
STANDARD
100
AcDbText
  0
LINE
  5
492
100
AcDbEntity
  8
M46
100
AcDbLine
 10
53.030825
 20
281.232846
 11
29.030825
 21
281.232846
  0
LINE
  5
493
100
AcDbEntity
  8
M46
100
AcDbLine
 10
53.030825
 20
273.232846
 11
53.030825
 21
281.232846
  0
LINE
  5
494
100
AcDbEntity
  8
M46
100
AcDbLine
 10
29.030825
 20
281.232846
 11
29.030825
 21
273.232846
  0
LINE
  5
495
100
AcDbEntity
  8
M46
100
AcDbLine
 10
29.030825
 20
273.232846
 11
53.030825
 21
273.232846
  0
TEXT
  5
496
100
AcDbEntity
  8
M46
100
AcDbText
 10
31.536502
 20
274.196129
 40
6.4
  1
寸法
 41
1.354167
  7
STANDARD
100
AcDbText
  0
ENDSEC
  0
SECTION
  2
OBJECTS
  0
DICTIONARY
  5
C
100
AcDbDictionary
  3
ACAD_GROUP
350
D
  3
ACAD_MLINESTYLE
350
E
  0
DICTIONARY
  5
D
102
{ACAD_REACTORS
330
C
102
}
100
AcDbDictionary
  0
DICTIONARY
  5
E
102
{ACAD_REACTORS
330
C
102
}
100
AcDbDictionary
  3
STANDARD
350
13
  0
MLINESTYLE
  5
13
102
{ACAD_REACTORS
330
E
102
}
100
AcDbMlineStyle
  2
STANDARD
 70
     0
  3

 62
     0
 51
90.0
 52
90.0
 71
     2
 49
0.5
 62
   256
  6
BYLAYER
 49
-0.5
 62
   256
  6
BYLAYER
  0
ENDSEC
  0
EOF
