  0
SECTION
  2
HEADER
  9
$ACADVER
  1
AC1012
  9
$INSBASE
 10
0.0
 20
0.0
  9
$VIEWCTR
 10
7.531722
 20
4.5
  9
$VIEWSIZE
 40
9.0
  9
$SNAPMODE
 70
     0
  9
$SNAPUNIT
 10
1.0
 20
1.0
  9
$SNAPBASE
 10
0.0
 20
0.0
  9
$SNAPANG
 50
0.0
  9
$SNAPSTYLE
 70
     0
  9
$SNAPISOPAIR
 70
     0
  9
$GRIDMODE
 70
     0
  9
$GRIDUNIT
 10
0.0
 20
0.0
  9
$ORTHOMODE
 70
     0
  9
$REGENMODE
 70
     1
  9
$FILLMODE
 70
     1
  9
$QTEXTMODE
 70
     0
  9
$DRAGMODE
 70
     2
  9
$LTSCALE
 40
1.0
  9
$OSMODE
 70
     0
  9
$ATTMODE
 70
     1
  9
$TEXTSIZE
 40
0.2
  9
$TRACEWID
 40
0.05
  9
$TEXTSTYLE
  7
STANDARD
  9
$CELTYPE
  6
BYLAYER
  9
$CECOLOR
 62
   256
  9
$DIMSCALE
 40
1.0
  9
$DIMASZ
 40
0.18
  9
$DIMEXO
 40
0.0625
  9
$DIMDLI
 40
0.38
  9
$DIMRND
 40
0.0
  9
$DIMDLE
 40
0.0
  9
$DIMEXE
 40
0.18
  9
$DIMTP
 40
0.0
  9
$DIMTM
 40
0.0
  9
$DIMTXT
 40
0.18
  9
$DIMCEN
 40
0.09
  9
$DIMTSZ
 40
0.0
  9
$DIMTOL
 70
     0
  9
$DIMLIM
 70
     0
  9
$DIMTIH
 70
     1
  9
$DIMTOH
 70
     1
  9
$DIMSE1
 70
     0
  9
$DIMSE2
 70
     0
  9
$DIMTAD
 70
     0
  9
$DIMZIN
 70
     0
  9
$DIMBLK
  1

  9
$LUNITS
 70
     2
  9
$LUPREC
 70
     4
  9
$AXISMODE
 70
     0
  9
$AXISUNIT
 10
0.0
 20
0.0
  9
$SKETCHINC
 40
0.1
  9
$FILLETRAD
 40
0.0
  9
$AUNITS
 70
     0
  9
$AUPREC
 70
     0
  9
$MENU
  1
ACAD
  9
$ELEVATION
 40
0.0
  9
$THICKNESS
 40
0.0
  9
$VIEWDIR
 10
0.0
 20
0.0
 30
1.0
  9
$LIMCHECK
 70
     0
  9
$BLIPMODE
 70
     1
  9
$CHAMFERA
 40
0.0
  9
$CHAMFERB
 40
0.0
  9
$FASTZOOM
 70
     1
  9
$SKPOLY
 70
     0
  9
$TDCREATE
 40
0000000.0000000000
  9
$TDUPDATE
 40
0000000.0000000000
  9
$TDINDWG
 40
0.0000000000
  9
$TDUSRTIMER
 40
0.0000000000
  9
$USRTIMER
 70
     1
  9
$ANGBASE
 50
0.0
  9
$ANGDIR
 70
     0
  9
$PDMODE
 70
     0
  9
$PDSIZE
 40
0.0
  9
$PLINEWID
 40
0.0
  9
$COORDS
 70
     0
  9
$USERI1
 70
     0
  9
$USERI2
 70
     0
  9
$USERI3
 70
     0
  9
$USERI4
 70
     0
  9
$USERI5
 70
     0
  9
$USERR1
 40
0.0
  9
$USERR2
 40
0.0
  9
$USERR3
 40
0.0
  9
$USERR4
 40
0.0
  9
$USERR5
 40
0.0
  9
$CLAYER
  8
M0
  9
$EXTMIN
 10
0.0
 20
0.0
  9
$EXTMAX
 10
420.0
 20
297.0
  9
$LIMMIN
 10
0.0
 20
0.0
  9
$LIMMAX
 10
420.0
 20
297.0
  9
$HANDSEED
  5
289
  0
ENDSEC
  0
SECTION
  2
CLASSES
  0
ENDSEC
  0
SECTION
  2
TABLES
  0
TABLE
  2
VPORT
  5
8
100
AcDbSymbolTable
 70
     2
  0
VPORT
  5
14
100
AcDbSymbolTableRecord
100
AcDbViewportTableRecord
  2
*ACTIVE
 70
     0
 10
0.0
 20
0.0
 11
1.0
 21
1.0
 12
484.0
 22
297.0
 13
0.0
 23
0.0
 14
1.0
 24
1.0
 15
0.0
 25
0.0
 16
0.0
 26
0.0
 36
1.0
 17
0.0
 27
0.0
 37
0.0
 40
594.0
 41
2.0
 42
50.0
 43
0.0
 44
0.0
 50
0.0
 51
0.0
 71
     0
 72
   100
 73
     1
 74
     1
 75
     0
 76
     0
 77
     0
 78
     0
  0
ENDTAB
  0
TABLE
  2
LTYPE
  5
5
100
AcDbSymbolTable
 70
     5
  0
LTYPE
  5
15
100
AcDbSymbolTableRecord
100
AcDbLinetypeTableRecord
  2
BYBLOCK
 70
     0
  3

 72
    65
 73
     0
 40
0.0
  0
LTYPE
  5
16
100
AcDbSymbolTableRecord
100
AcDbLinetypeTableRecord
  2
BYLAYER
 70
     0
  3

 72
    65
 73
     0
 40
0.0
  0
LTYPE
  5
17
100
AcDbSymbolTableRecord
100
AcDbLinetypeTableRecord
  2
CONTINUOUS
 70
    64
  3
Solid line
 72
    65
 73
     0
 40
0.0
  0
LTYPE
  5
18
100
AcDbSymbolTableRecord
100
AcDbLinetypeTableRecord
  2
DASHED
 70
    64
  3
__ __ __ __ __ __ __ __ __ __ __ __ __ __ __ __
 72
    65
 73
     2
 40
0.75
 49
0.5
 74
     0
 49
-0.25
 74
     0
  0
LTYPE
  5
19
100
AcDbSymbolTableRecord
100
AcDbLinetypeTableRecord
  2
DASHDOT
 70
    64
  3
__ . __ . __ . __ . __ . __ . __ . __ . __ . __
 72
    65
 73
     4
 40
1.0
 49
0.5
 74
     0
 49
-0.25
 74
     0
 49
0.0
 74
     0
 49
-0.25
 74
     0
  0
LTYPE
  5
1A
100
AcDbSymbolTableRecord
100
AcDbLinetypeTableRecord
  2
DIVIDE
 70
    64
  3
____ . . ____ . . ____ . . ____ . . ____ . . __
 72
    65
 73
     6
 40
1.25
 49
0.5
 74
     0
 49
-0.25
 74
     0
 49
0.0
 74
     0
 49
-0.25
 74
     0
 49
0.0
 74
     0
 49
-0.25
 74
     0
  0
LTYPE
  5
1B
100
AcDbSymbolTableRecord
100
AcDbLinetypeTableRecord
  2
DOT
 70
    64
  3
. . . . . . . . . . . . . . . . . . . . . . . .
 72
    65
 73
     2
 40
0.25
 49
0.0
 74
     0
 49
-0.25
 74
     0
  0
ENDTAB
  0
TABLE
  2
LAYER
  5
2
100
AcDbSymbolTable
 70
   102
  0
LAYER
  5
F
100
AcDbSymbolTableRecord
100
AcDbLayerTableRecord
  2
0
 70
     0
 62
     7
  6
CONTINUOUS
  0
LAYER
  5
1C
100
AcDbSymbolTableRecord
100
AcDbLayerTableRecord
  2
DEFPOINTS
 70
     0
 62
     7
  6
CONTINUOUS
  0
LAYER
  5
1D
100
AcDbSymbolTableRecord
100
AcDbLayerTableRecord
  2
M0
 70
     0
 62
     3
  6
CONTINUOUS
  0
LAYER
  5
1E
100
AcDbSymbolTableRecord
100
AcDbLayerTableRecord
  2
M46
 70
     0
 62
     3
  6
CONTINUOUS
  0
LAYER
  5
1F
100
AcDbSymbolTableRecord
100
AcDbLayerTableRecord
  2
DD0
 70
     0
 62
     4
  6
CONTINUOUS
  0
ENDTAB
  0
TABLE
  2
STYLE
  5
3
100
AcDbSymbolTable
 70
     2
  0
STYLE
  5
10
100
AcDbSymbolTableRecord
100
AcDbTextStyleTableRecord
  2
STANDARD
 70
     0
 40
0.0
 41
1.0
 50
0.0
 71
     0
 42
0.2
  3
txt
  4
BIGFONT
  0
ENDTAB
  0
TABLE
  2
VIEW
  5
6
100
AcDbSymbolTable
 70
     0
  0
ENDTAB
  0
TABLE
  2
UCS
  5
7
100
AcDbSymbolTable
 70
     0
  0
ENDTAB
  0
TABLE
  2
APPID
  5
9
100
AcDbSymbolTable
 70
     1
  0
APPID
  5
11
100
AcDbSymbolTableRecord
100
AcDbRegAppTableRecord
  2
ACAD
 70
     0
  0
ENDTAB
  0
TABLE
  2
DIMSTYLE
  5
A
100
AcDbSymbolTable
 70
     2
  0
DIMSTYLE
105
26
100
AcDbSymbolTableRecord
100
AcDbDimStyleTableRecord
  2
STANDARD
 70
     0
  3

  4

  5

  6
_OPEN
  7
_OPEN
 40
1.0
 41
3.0
 42
0.0
 43
8.0
 44
1.5
 45
0.0
 46
0.0
 47
0.0
 48
0.0
140
3.5
141
0.09
142
0.0
143
0.03937
144
1.0
145
0.0
146
1.0
147
1.0
 71
     0
 72
     0
 73
     0
 74
     0
 75
     0
 76
     0
 77
     3
 78
     8
170
     0
171
     2
172
     0
173
     1
174
     0
175
     0
176
     0
177
     0
178
     0
270
     2
271
     2
272
     4
273
     2
274
     2
340
10
275
     0
280
     0
281
     0
282
     0
283
     1
284
     0
285
     0
286
     0
287
     3
288
     0
  0
DIMSTYLE
105
27
100
AcDbSymbolTableRecord
100
AcDbDimStyleTableRecord
  2
LEADSTYL
 70
     0
  3

  4

  5

  6
_OPEN
  7
_OPEN
 40
1.0
 41
3.0
 42
0.0625
 43
0.38
 44
0.18
 45
0.0
 46
0.0
 47
0.0
 48
0.0
140
3.2
141
0.09
142
0.0
143
25.4
144
1.0
145
0.0
146
1.0
147
1.0
 71
     0
 72
     0
 73
     1
 74
     1
 75
     0
 76
     0
 77
     0
 78
     0
170
     0
171
     2
172
     0
173
     1
174
     0
175
     0
176
     0
177
     0
178
     0
270
     2
271
     4
272
     4
273
     2
274
     2
340
10
275
     0
280
     0
281
     0
282
     0
283
     1
284
     0
285
     0
286
     0
287
     3
288
     0
  0
ENDTAB
  0
TABLE
  2
BLOCK_RECORD
  5
1
100
AcDbSymbolTable
 70
    11
  0
BLOCK_RECORD
  5
20
100
AcDbSymbolTableRecord
100
AcDbBlockTableRecord
  2
*MODEL_SPACE
  0
BLOCK_RECORD
  5
23
100
AcDbSymbolTableRecord
100
AcDbBlockTableRecord
  2
*PAPER_SPACE
  0
BLOCK_RECORD
  5
28
100
AcDbSymbolTableRecord
100
AcDbBlockTableRecord
  2
_NONE
  0
BLOCK_RECORD
  5
2C
100
AcDbSymbolTableRecord
100
AcDbBlockTableRecord
  2
_OPEN
  0
BLOCK_RECORD
  5
32
100
AcDbSymbolTableRecord
100
AcDbBlockTableRecord
  2
_CLOSED
  0
BLOCK_RECORD
  5
39
100
AcDbSymbolTableRecord
100
AcDbBlockTableRecord
  2
_ORIGIN
  0
BLOCK_RECORD
  5
3E
100
AcDbSymbolTableRecord
100
AcDbBlockTableRecord
  2
_DOT
  0
BLOCK_RECORD
  5
46
100
AcDbSymbolTableRecord
100
AcDbBlockTableRecord
  2
_OBLIQUE
  0
BLOCK_RECORD
  5
4A
100
AcDbSymbolTableRecord
100
AcDbBlockTableRecord
  2
DIMS0
  0
BLOCK_RECORD
  5
54
100
AcDbSymbolTableRecord
100
AcDbBlockTableRecord
  2
DIMS1
  0
BLOCK_RECORD
  5
5E
100
AcDbSymbolTableRecord
100
AcDbBlockTableRecord
  2
DIMS2
  0
BLOCK_RECORD
  5
68
100
AcDbSymbolTableRecord
100
AcDbBlockTableRecord
  2
DIMS3
  0
BLOCK_RECORD
  5
78
100
AcDbSymbolTableRecord
100
AcDbBlockTableRecord
  2
DIMS4
  0
ENDTAB
  0
ENDSEC
  0
SECTION
  2
BLOCKS
  0
BLOCK
  5
21
100
AcDbEntity
  8
0
100
AcDbBlockBegin
  2
*MODEL_SPACE
 70
     0
 10
0.0
 20
0.0
 30
0.0
  3
*MODEL_SPACE
  1

  0
ENDBLK
  5
22
100
AcDbEntity
  8
0
100
AcDbBlockEnd
  0
BLOCK
  5
24
100
AcDbEntity
 67
     1
  8
0
100
AcDbBlockBegin
  2
*PAPER_SPACE
 70
     0
 10
0.0
 20
0.0
 30
0.0
  3
*PAPER_SPACE
  1

  0
ENDBLK
  5
25
100
AcDbEntity
 67
     1
  8
0
100
AcDbBlockEnd
  0
BLOCK
  5
29
100
AcDbEntity
  8
0
100
AcDbBlockBegin
  2
_NONE
 70
     0
 10
0.0
 20
0.0
  0
CIRCLE
  5
2A
100
AcDbEntity
  8
0
 62
     0
100
AcDbCircle
 10
0.0
 20
0.0
 40
0.25
  0
ENDBLK
  5
2B
100
AcDbEntity
  8
0
100
AcDbBlockEnd
  0
BLOCK
  5
2D
100
AcDbEntity
  8
0
100
AcDbBlockBegin
  2
_OPEN
 70
     0
 10
0.0
 20
0.0
  0
LINE
  5
2E
100
AcDbEntity
  8
0
 62
     0
100
AcDbLine
 10
-0.965926
 20
0.258819
 11
0.0
 21
0.0
  0
LINE
  5
2F
100
AcDbEntity
  8
0
 62
     0
100
AcDbLine
 10
0.0
 20
0.0
 11
-0.965926
 21
-0.258819
  0
LINE
  5
30
100
AcDbEntity
  8
0
 62
     0
100
AcDbLine
 10
0.0
 20
0.0
 11
-1.0
 21
0.0
  0
ENDBLK
  5
31
100
AcDbEntity
  8
0
100
AcDbBlockEnd
  0
BLOCK
  5
33
100
AcDbEntity
  8
0
100
AcDbBlockBegin
  2
_CLOSED
 70
     0
 10
0.0
 20
0.0
  0
LINE
  5
34
100
AcDbEntity
  8
0
 62
     0
100
AcDbLine
 10
-0.965926
 20
0.258819
 11
0.0
 21
0.0
  0
LINE
  5
35
100
AcDbEntity
  8
0
 62
     0
100
AcDbLine
 10
0.0
 20
0.0
 11
-0.965926
 21
-0.258819
  0
LINE
  5
36
100
AcDbEntity
  8
0
 62
     0
100
AcDbLine
 10
-0.965926
 20
0.258819
 11
-0.965926
 21
-0.258819
  0
LINE
  5
37
100
AcDbEntity
  8
0
 62
     0
100
AcDbLine
 10
0.0
 20
0.0
 11
-1.0
 21
0.0
  0
ENDBLK
  5
38
100
AcDbEntity
  8
0
100
AcDbBlockEnd
  0
BLOCK
  5
3A
100
AcDbEntity
  8
0
100
AcDbBlockBegin
  2
_ORIGIN
 70
     0
 10
0.0
 20
0.0
  0
CIRCLE
  5
3B
100
AcDbEntity
  8
0
 62
     0
100
AcDbCircle
 10
0.0
 20
0.0
 40
0.5
  0
LINE
  5
3C
100
AcDbEntity
  8
0
 62
     0
100
AcDbLine
 10
0.0
 20
0.0
 11
-1.0
 21
0.0
  0
ENDBLK
  5
3D
100
AcDbEntity
  8
0
100
AcDbBlockEnd
  0
BLOCK
  5
3F
100
AcDbEntity
  8
0
100
AcDbBlockBegin
  2
_DOT
 70
     0
 10
0.0
 20
0.0
  0
POLYLINE
  5
40
100
AcDbEntity
  8
0
 62
     0
100
AcDb2dPolyline
 66
     1
 70
     1
 40
0.5
 41
0.5
  0
VERTEX
  5
41
100
AcDbEntity
  8
0
 62
     0
100
AcDbVertex
100
AcDb2dVertex
 10
-0.25
 20
0.0
 42
1.0
  0
VERTEX
  5
42
100
AcDbEntity
  8
0
 62
     0
100
AcDbVertex
100
AcDb2dVertex
 10
0.25
 20
0.0
 42
1.0
  0
SEQEND
  5
43
100
AcDbEntity
  8
0
 62
     0
  0
LINE
  5
44
100
AcDbEntity
  8
0
 62
     0
100
AcDbLine
 10
-0.5
 20
0.0
 11
-1.0
 21
0.0
  0
ENDBLK
  5
45
100
AcDbEntity
  8
0
100
AcDbBlockEnd
  0
BLOCK
  5
47
100
AcDbEntity
  8
0
100
AcDbBlockBegin
  2
_OBLIQUE
 70
     0
 10
0.0
 20
0.0
  0
LINE
  5
48
100
AcDbEntity
  8
0
 62
     0
100
AcDbLine
 10
-0.353553
 20
-0.353553
 11
0.353553
 21
0.353553
  0
ENDBLK
  5
49
100
AcDbEntity
  8
0
100
AcDbBlockEnd
  0
BLOCK
  5
4B
100
AcDbEntity
  8
DD0
100
AcDbBlockBegin
  2
DIMS0
 70
     0
 10
0.0
 20
0.0
  0
LINE
  5
4C
100
AcDbEntity
  8
DD0
100
AcDbLine
 10
87.691742
 20
193.930389
 11
87.691742
 21
154.680389
  0
LINE
  5
4D
100
AcDbEntity
  8
DD0
100
AcDbLine
 10
186.691742
 20
193.930389
 11
186.691742
 21
154.680389
  0
INSERT
  5
4E
100
AcDbEntity
  8
DD0
100
AcDbBlockReference
  2
_OPEN
 10
186.691742
 20
156.180389
 41
3.0
 42
3.0
  0
INSERT
  5
4F
100
AcDbEntity
  8
DD0
100
AcDbBlockReference
  2
_OPEN
 10
87.691742
 20
156.180389
 41
3.0
 42
3.0
 50
180.0
  0
LINE
  5
50
100
AcDbEntity
  8
DD0
100
AcDbLine
 10
90.691742
 20
156.180389
 11
183.691742
 21
156.180389
  0
TEXT
  5
51
100
AcDbEntity
  8
DD0
100
AcDbText
 10
123.483409
 20
157.180389
 40
3.5
  1
１９８（２０４）
 41
0.833333
  7
STANDARD
100
AcDbText
  0
ENDBLK
  5
52
100
AcDbEntity
  8
DD0
100
AcDbBlockEnd
  0
BLOCK
  5
55
100
AcDbEntity
  8
DD0
100
AcDbBlockBegin
  2
DIMS1
 70
     0
 10
0.0
 20
0.0
  0
LINE
  5
56
100
AcDbEntity
  8
DD0
100
AcDbLine
 10
143.441742
 20
174.180389
 11
76.191742
 21
174.180389
  0
LINE
  5
57
100
AcDbEntity
  8
DD0
100
AcDbLine
 10
139.688965
 20
232.680389
 11
76.191742
 21
232.680389
  0
INSERT
  5
58
100
AcDbEntity
  8
DD0
100
AcDbBlockReference
  2
_OPEN
 10
77.691742
 20
232.680389
 41
3.0
 42
3.0
 50
90.0
  0
INSERT
  5
59
100
AcDbEntity
  8
DD0
100
AcDbBlockReference
  2
_OPEN
 10
77.691742
 20
174.180389
 41
3.0
 42
3.0
 50
270.0
  0
LINE
  5
5A
100
AcDbEntity
  8
DD0
100
AcDbLine
 10
77.691742
 20
177.180389
 11
77.691742
 21
229.680389
  0
TEXT
  5
5B
100
AcDbEntity
  8
DD0
100
AcDbText
 10
76.691742
 20
198.472056
 40
3.5
  1
１１７
 50
90.000003
 41
0.833333
  7
STANDARD
100
AcDbText
  0
ENDBLK
  5
5C
100
AcDbEntity
  8
DD0
100
AcDbBlockEnd
  0
BLOCK
  5
5F
100
AcDbEntity
  8
DD0
100
AcDbBlockBegin
  2
DIMS2
 70
     0
 10
0.0
 20
0.0
  0
LINE
  5
60
100
AcDbEntity
  8
DD0
100
AcDbLine
 10
128.941742
 20
62.401173
 11
68.441742
 21
62.401173
  0
LINE
  5
61
100
AcDbEntity
  8
DD0
100
AcDbLine
 10
115.635872
 20
131.551178
 11
68.441742
 21
131.551178
  0
INSERT
  5
62
100
AcDbEntity
  8
DD0
100
AcDbBlockReference
  2
_OPEN
 10
69.941742
 20
131.551178
 41
3.0
 42
3.0
 50
90.0
  0
INSERT
  5
63
100
AcDbEntity
  8
DD0
100
AcDbBlockReference
  2
_OPEN
 10
69.941742
 20
62.401173
 41
3.0
 42
3.0
 50
270.0
  0
LINE
  5
64
100
AcDbEntity
  8
DD0
100
AcDbLine
 10
69.941742
 20
65.401173
 11
69.941742
 21
128.551178
  0
TEXT
  5
65
100
AcDbEntity
  8
DD0
100
AcDbText
 10
68.941742
 20
95.851824
 40
3.5
  1
１３８
 50
90.000003
 41
0.833333
  7
STANDARD
100
AcDbText
  0
ENDBLK
  5
66
100
AcDbEntity
  8
DD0
100
AcDbBlockEnd
  0
BLOCK
  5
69
100
AcDbEntity
  8
DD0
100
AcDbBlockBegin
  2
DIMS3
 70
     0
 10
0.0
 20
0.0
  0
LINE
  5
6A
100
AcDbEntity
  8
DD0
100
AcDbLine
 10
128.941742
 20
62.401173
 11
76.441742
 21
62.401173
  0
LINE
  5
6B
100
AcDbEntity
  8
DD0
100
AcDbLine
 10
84.542229
 20
99.901176
 11
76.441742
 21
99.901176
  0
INSERT
  5
6C
100
AcDbEntity
  8
DD0
100
AcDbBlockReference
  2
_OPEN
 10
77.941742
 20
99.901176
 41
3.0
 42
3.0
 50
90.0
  0
INSERT
  5
6D
100
AcDbEntity
  8
DD0
100
AcDbBlockReference
  2
_OPEN
 10
77.941742
 20
62.401173
 41
3.0
 42
3.0
 50
270.0
  0
LINE
  5
6E
100
AcDbEntity
  8
DD0
100
AcDbLine
 10
77.941742
 20
65.401173
 11
77.941742
 21
96.901176
  0
TEXT
  5
6F
100
AcDbEntity
  8
DD0
100
AcDbText
 10
76.941742
 20
77.942843
 40
3.5
  1
７５
 50
90.000003
 41
0.833333
  7
STANDARD
100
AcDbText
  0
ENDBLK
  5
70
100
AcDbEntity
  8
DD0
100
AcDbBlockEnd
  0
BLOCK
  5
79
100
AcDbEntity
  8
DD0
100
AcDbBlockBegin
  2
DIMS4
 70
     0
 10
0.0
 20
0.0
  0
LINE
  5
7A
100
AcDbEntity
  8
DD0
100
AcDbLine
 10
143.441742
 20
170.87442
 11
143.441742
 21
162.680389
  0
LINE
  5
7B
100
AcDbEntity
  8
DD0
100
AcDbLine
 10
186.691742
 20
193.930389
 11
186.691742
 21
162.680389
  0
INSERT
  5
7C
100
AcDbEntity
  8
DD0
100
AcDbBlockReference
  2
_OPEN
 10
186.691742
 20
164.180389
 41
3.0
 42
3.0
  0
INSERT
  5
7D
100
AcDbEntity
  8
DD0
100
AcDbBlockReference
  2
_OPEN
 10
143.441742
 20
164.180389
 41
3.0
 42
3.0
 50
180.0
  0
LINE
  5
7E
100
AcDbEntity
  8
DD0
100
AcDbLine
 10
146.441742
 20
164.180389
 11
183.691742
 21
164.180389
  0
TEXT
  5
7F
100
AcDbEntity
  8
DD0
100
AcDbText
 10
154.858409
 20
165.180389
 40
3.5
  1
８７（９０）
 41
0.833333
  7
STANDARD
100
AcDbText
  0
ENDBLK
  5
80
100
AcDbEntity
  8
DD0
100
AcDbBlockEnd
  0
ENDSEC
  0
SECTION
  2
ENTITIES
  0
INSERT
  5
53
100
AcDbEntity
  8
DD0
100
AcDbBlockReference
  2
DIMS0
 10
0.0
 20
0.0
  0
INSERT
  5
5D
100
AcDbEntity
  8
DD0
100
AcDbBlockReference
  2
DIMS1
 10
0.0
 20
0.0
  0
INSERT
  5
67
100
AcDbEntity
  8
DD0
100
AcDbBlockReference
  2
DIMS2
 10
0.0
 20
0.0
  0
INSERT
  5
71
100
AcDbEntity
  8
DD0
100
AcDbBlockReference
  2
DIMS3
 10
0.0
 20
0.0
  0
LEADER
  5
72
100
AcDbEntity
  8
DD0
100
AcDbLeader
  3
LEADSTYL
 76
     3
 10
145.965469
 20
232.680389
 10
158.601654
 20
246.879761
 10
178.101654
 20
246.879761
340
73
 77
     4
  0
TEXT
  5
73
100
AcDbEntity
  8
DD0
100
AcDbText
 10
159.893321
 20
247.879761
 40
3.5
  1
水抜プラグ
 41
0.833333
  7
STANDARD
100
AcDbText
  0
LEADER
  5
74
100
AcDbEntity
  8
DD0
100
AcDbLeader
  3
LEADSTYL
 76
     3
 10
186.691742
 20
202.934845
 10
203.865082
 20
221.478271
 10
230.365082
 20
221.478271
340
75
 77
     4
  0
TEXT
  5
75
100
AcDbEntity
  8
DD0
100
AcDbText
 10
205.156748
 20
222.478271
 40
3.5
  1
ポンプ側配管部
 41
0.833333
  7
STANDARD
100
AcDbText
  0
LEADER
  5
76
100
AcDbEntity
  8
DD0
100
AcDbLeader
  3
LEADSTYL
 76
     3
 10
86.765594
 20
202.930389
 10
63.865425
 20
221.478256
 10
40.865425
 20
221.478256
340
77
 77
     4
  0
TEXT
  5
77
100
AcDbEntity
  8
DD0
100
AcDbText
 10
42.157092
 20
222.478256
 40
3.5
  1
井戸側配管部
 41
0.833333
  7
STANDARD
100
AcDbText
  0
INSERT
  5
81
100
AcDbEntity
  8
DD0
100
AcDbBlockReference
  2
DIMS4
 10
0.0
 20
0.0
  0
LINE
  5
82
100
AcDbEntity
  8
M0
 62
   253
100
AcDbLine
 10
374.27384
 20
189.857899
 11
374.27384
 21
238.857899
  0
LINE
  5
83
100
AcDbEntity
  8
M0
 62
   253
100
AcDbLine
 10
374.27384
 20
238.857899
 11
242.27384
 21
238.857899
  0
LINE
  5
84
100
AcDbEntity
  8
M0
 62
   253
100
AcDbLine
 10
242.27384
 20
238.857899
 11
242.27384
 21
189.857899
  0
LINE
  5
85
100
AcDbEntity
  8
M0
 62
   253
100
AcDbLine
 10
242.27384
 20
231.857899
 11
374.27384
 21
231.857899
  0
LINE
  5
86
100
AcDbEntity
  8
M0
 62
   253
100
AcDbLine
 10
242.27384
 20
224.857899
 11
374.27384
 21
224.857899
  0
LINE
  5
87
100
AcDbEntity
  8
M0
 62
   253
100
AcDbLine
 10
242.27384
 20
217.857899
 11
374.27384
 21
217.857899
  0
LINE
  5
88
100
AcDbEntity
  8
M0
 62
   253
100
AcDbLine
 10
242.27384
 20
210.857899
 11
374.27384
 21
210.857899
  0
LINE
  5
89
100
AcDbEntity
  8
M0
 62
   253
100
AcDbLine
 10
242.27384
 20
203.857899
 11
374.27384
 21
203.857899
  0
LINE
  5
8A
100
AcDbEntity
  8
M0
 62
   253
100
AcDbLine
 10
284.27384
 20
196.857899
 11
374.27384
 21
196.857899
  0
LINE
  5
8B
100
AcDbEntity
  8
M0
 62
   253
100
AcDbLine
 10
284.27384
 20
238.857899
 11
284.27384
 21
189.857899
  0
TEXT
  5
8C
100
AcDbEntity
  8
M0
 62
   253
100
AcDbText
 10
294.523838
 20
233.099471
 40
4.5
  1
ＧＦ－２５Ｓ
 41
0.777778
  7
STANDARD
100
AcDbText
  0
TEXT
  5
8D
100
AcDbEntity
  8
M0
 62
   253
100
AcDbText
 10
259.42384
 20
205.099475
 40
4.5
  1
質量
 41
0.777778
  7
STANDARD
100
AcDbText
  0
TEXT
  5
8E
100
AcDbEntity
  8
M0
 62
   253
100
AcDbText
 10
314.92384
 20
219.099471
 40
4.5
  1
１００メッシュ
 41
0.777778
  7
STANDARD
100
AcDbText
  0
LINE
  5
8F
100
AcDbEntity
  8
M0
 62
   253
100
AcDbLine
 10
232.930074
 20
249.556508
 11
232.930078
 21
260.356508
  0
LINE
  5
90
100
AcDbEntity
  8
M0
 62
   253
100
AcDbLine
 10
232.930078
 20
260.356508
 11
259.530075
 21
260.356508
  0
LINE
  5
91
100
AcDbEntity
  8
M0
 62
   253
100
AcDbLine
 10
259.530075
 20
260.356508
 11
259.530071
 21
249.556508
  0
LINE
  5
92
100
AcDbEntity
  8
M0
 62
   253
100
AcDbLine
 10
259.530071
 20
249.556508
 11
232.930074
 21
249.556508
  0
TEXT
  5
93
100
AcDbEntity
  8
M0
 62
   253
100
AcDbText
 10
234.330074
 20
250.456508
 40
9.0
  1
仕　様
 41
0.777778
  7
STANDARD
100
AcDbText
  0
LINE
  5
94
100
AcDbEntity
  8
M0
 62
   253
100
AcDbLine
 10
329.27384
 20
238.857899
 11
329.27384
 21
224.857899
  0
TEXT
  5
95
100
AcDbEntity
  8
M0
 62
   253
100
AcDbText
 10
259.42384
 20
233.099471
 40
4.5
  1
型式
 41
0.777778
  7
STANDARD
100
AcDbText
  0
TEXT
  5
96
100
AcDbEntity
  8
M0
 62
   253
100
AcDbText
 10
251.023838
 20
226.099471
 40
4.5
  1
フランジ口径
 41
0.777778
  7
STANDARD
100
AcDbText
  0
TEXT
  5
97
100
AcDbEntity
  8
M0
 62
   253
100
AcDbText
 10
248.92384
 20
219.099471
 40
4.5
  1
フィルター網目
 41
0.777778
  7
STANDARD
100
AcDbText
  0
TEXT
  5
98
100
AcDbEntity
  8
M0
 62
   253
100
AcDbText
 10
257.323841
 20
212.099471
 40
4.5
  1
大きさ
 41
0.777778
  7
STANDARD
100
AcDbText
  0
TEXT
  5
99
100
AcDbEntity
  8
M0
 62
   253
100
AcDbText
 10
246.823841
 20
194.6079
 40
4.5
  1
組み合わせポンプ
 41
0.777778
  7
STANDARD
100
AcDbText
  0
TEXT
  5
9A
100
AcDbEntity
  8
M0
 62
   253
100
AcDbText
 10
339.52384
 20
233.099471
 40
4.5
  1
ＧＦ－３０Ｓ
 41
0.777778
  7
STANDARD
100
AcDbText
  0
TEXT
  5
9B
100
AcDbEntity
  8
M0
 62
   253
100
AcDbText
 10
290.323841
 20
226.099471
 40
4.5
  1
２５ｍｍ（１Ｂ）
 41
0.777778
  7
STANDARD
100
AcDbText
  0
TEXT
  5
9C
100
AcDbEntity
  8
M0
 62
   253
100
AcDbText
 10
329.882169
 20
226.099471
 40
4.5
  1
３０ｍｍ（１　１／４Ｂ）
 41
0.685185
  7
STANDARD
100
AcDbText
  0
TEXT
  5
9D
100
AcDbEntity
  8
M0
 62
   253
100
AcDbText
 10
287.523838
 20
212.099471
 40
4.5
  1
１９８×１１７×１３８ｍｍ
 41
0.555556
  7
STANDARD
100
AcDbText
  0
TEXT
  5
9E
100
AcDbEntity
  8
M0
 62
   253
100
AcDbText
 10
332.523838
 20
212.099471
 40
4.5
  1
２０４×１１７×１３８ｍｍ
 41
0.555556
  7
STANDARD
100
AcDbText
  0
TEXT
  5
9F
100
AcDbEntity
  8
M0
 62
   253
100
AcDbText
 10
296.623837
 20
205.099475
 40
4.5
  1
３．３Ｋｇ
 41
0.777778
  7
STANDARD
100
AcDbText
  0
TEXT
  5
A0
100
AcDbEntity
  8
M0
 62
   253
100
AcDbText
 10
341.62384
 20
205.099475
 40
4.5
  1
３．５Ｋｇ
 41
0.777778
  7
STANDARD
100
AcDbText
  0
TEXT
  5
A1
100
AcDbEntity
  8
M0
 62
   253
100
AcDbText
 10
296.023838
 20
198.099473
 40
4.5
  1
浅井戸ポンプおよび浅深両用ポンプ
 41
0.777778
  7
STANDARD
100
AcDbText
  0
LINE
  5
A2
100
AcDbEntity
  8
M0
 62
   253
100
AcDbLine
 10
329.27384
 20
217.857899
 11
329.27384
 21
203.857899
  0
LINE
  5
A3
100
AcDbEntity
  8
M0
 62
   253
100
AcDbLine
 10
242.27384
 20
189.857899
 11
374.27384
 21
189.857899
  0
LINE
  5
A4
100
AcDbEntity
  8
M0
 62
   253
100
AcDbLine
 10
329.27384
 20
196.857899
 11
329.27384
 21
189.857899
  0
TEXT
  5
A5
100
AcDbEntity
  8
M0
 62
   253
100
AcDbText
 10
294.523838
 20
191.099475
 40
4.5
  1
３００Ｗ以下
 41
0.777778
  7
STANDARD
100
AcDbText
  0
TEXT
  5
A6
100
AcDbEntity
  8
M0
 62
   253
100
AcDbText
 10
339.52384
 20
191.099475
 40
4.5
  1
４００Ｗ以上
 41
0.777778
  7
STANDARD
100
AcDbText
  0
LINE
  5
A7
100
AcDbEntity
  8
M0
 62
     2
100
AcDbLine
 10
253.475094
 20
154.657971
 11
253.475094
 21
100.225832
  0
LINE
  5
A8
100
AcDbEntity
  8
M0
 62
     2
100
AcDbLine
 10
253.475094
 20
100.225832
 11
337.188252
 21
100.225832
  0
TEXT
  5
A9
100
AcDbEntity
  8
M0
 62
     2
100
AcDbText
 10
247.225094
 20
97.975832
 40
4.5
  1
０
 41
0.555556
  7
STANDARD
100
AcDbText
  0
TEXT
  5
AA
100
AcDbEntity
  8
M0
 62
     2
100
AcDbText
 10
252.225094
 20
92.975832
 40
4.5
  1
０
 41
0.555556
  7
STANDARD
100
AcDbText
  0
TEXT
  5
AB
100
AcDbEntity
  8
M0
 62
     2
100
AcDbText
 10
260.725094
 20
92.975832
 40
4.5
  1
１０
 41
0.555556
  7
STANDARD
100
AcDbText
  0
TEXT
  5
AC
100
AcDbEntity
  8
M0
 62
     2
100
AcDbText
 10
270.725094
 20
92.975832
 40
4.5
  1
２０
 41
0.555556
  7
STANDARD
100
AcDbText
  0
TEXT
  5
AD
100
AcDbEntity
  8
M0
 62
     2
100
AcDbText
 10
280.725094
 20
92.975832
 40
4.5
  1
３０
 41
0.555556
  7
STANDARD
100
AcDbText
  0
TEXT
  5
AE
100
AcDbEntity
  8
M0
 62
     2
100
AcDbText
 10
290.725094
 20
92.975832
 40
4.5
  1
４０
 41
0.555556
  7
STANDARD
100
AcDbText
  0
TEXT
  5
AF
100
AcDbEntity
  8
M0
 62
     2
100
AcDbText
 10
300.725094
 20
92.975832
 40
4.5
  1
５０
 41
0.555556
  7
STANDARD
100
AcDbText
  0
TEXT
  5
B0
100
AcDbEntity
  8
M0
 62
     2
100
AcDbText
 10
310.725094
 20
92.975832
 40
4.5
  1
６０
 41
0.555556
  7
STANDARD
100
AcDbText
  0
TEXT
  5
B1
100
AcDbEntity
  8
M0
 62
     2
100
AcDbText
 10
235.144009
 20
141.566479
 40
4.5
  1
損
 41
0.777778
  7
STANDARD
100
AcDbText
  0
TEXT
  5
B2
100
AcDbEntity
  8
M0
 62
     2
100
AcDbText
 10
235.144009
 20
137.056351
 40
4.5
  1
失
 41
0.777778
  7
STANDARD
100
AcDbText
  0
TEXT
  5
B3
100
AcDbEntity
  8
M0
 62
     2
100
AcDbText
 10
235.144009
 20
132.546221
 40
4.5
  1
圧
 41
0.777778
  7
STANDARD
100
AcDbText
  0
TEXT
  5
B4
100
AcDbEntity
  8
M0
 62
     2
100
AcDbText
 10
235.144009
 20
128.036093
 40
4.5
  1
力
 41
0.777778
  7
STANDARD
100
AcDbText
  0
TEXT
  5
B5
100
AcDbEntity
  8
M0
 62
     2
100
AcDbText
 10
229.644009
 20
122.560221
 40
4.5
  1
（ｋＰａ）
 41
0.555556
  7
STANDARD
100
AcDbText
  0
LINE
  5
B6
100
AcDbEntity
  8
M0
 62
     2
100
AcDbLine
 10
232.930074
 20
164.36865
 11
232.930078
 21
175.16865
  0
LINE
  5
B7
100
AcDbEntity
  8
M0
 62
     2
100
AcDbLine
 10
232.930078
 20
175.16865
 11
259.530075
 21
175.16865
  0
LINE
  5
B8
100
AcDbEntity
  8
M0
 62
     2
100
AcDbLine
 10
259.530075
 20
175.16865
 11
259.530071
 21
164.36865
  0
LINE
  5
B9
100
AcDbEntity
  8
M0
 62
     2
100
AcDbLine
 10
259.530071
 20
164.36865
 11
232.930074
 21
164.36865
  0
TEXT
  5
BA
100
AcDbEntity
  8
M0
 62
     2
100
AcDbText
 10
234.330074
 20
165.26865
 40
9.0
  1
性　能
 41
0.777778
  7
STANDARD
100
AcDbText
  0
TEXT
  5
BB
100
AcDbEntity
  8
M0
 62
     2
100
AcDbText
 10
283.549378
 20
85.635416
 40
4.5
  1
流水量（Ｌ／分）
 41
0.777778
  7
STANDARD
100
AcDbText
  0
LINE
  5
BC
100
AcDbEntity
  8
M0
 62
     2
100
AcDbLine
 10
263.475094
 20
100.225832
 11
263.475094
 21
154.657971
  0
LINE
  5
BD
100
AcDbEntity
  8
M0
 62
     2
100
AcDbLine
 10
273.475094
 20
100.225832
 11
273.475094
 21
154.657971
  0
LINE
  5
BE
100
AcDbEntity
  8
M0
 62
     2
100
AcDbLine
 10
283.475094
 20
100.225832
 11
283.475094
 21
154.657971
  0
LINE
  5
BF
100
AcDbEntity
  8
M0
 62
     2
100
AcDbLine
 10
293.475094
 20
100.225832
 11
293.475094
 21
154.657971
  0
LINE
  5
C0
100
AcDbEntity
  8
M0
 62
     2
100
AcDbLine
 10
303.475094
 20
100.225832
 11
303.475094
 21
154.657971
  0
LINE
  5
C1
100
AcDbEntity
  8
M0
 62
     2
100
AcDbLine
 10
313.475094
 20
100.225832
 11
313.475094
 21
154.657971
  0
LINE
  5
C2
100
AcDbEntity
  8
M0
 62
     2
100
AcDbLine
 10
323.475094
 20
100.225832
 11
323.475094
 21
154.657971
  0
LINE
  5
C3
100
AcDbEntity
  8
M0
 62
     2
100
AcDbLine
 10
333.475094
 20
100.225832
 11
333.475094
 21
154.657971
  0
LINE
  5
C4
100
AcDbEntity
  8
M0
 62
     2
100
AcDbLine
 10
337.188252
 20
110.225832
 11
253.475094
 21
110.225832
  0
LINE
  5
C5
100
AcDbEntity
  8
M0
 62
     2
100
AcDbLine
 10
337.188252
 20
120.225832
 11
253.475094
 21
120.225832
  0
LINE
  5
C6
100
AcDbEntity
  8
M0
 62
     2
100
AcDbLine
 10
337.188252
 20
130.225832
 11
253.475094
 21
130.225832
  0
LINE
  5
C7
100
AcDbEntity
  8
M0
 62
     2
100
AcDbLine
 10
337.188252
 20
140.225832
 11
253.475094
 21
140.225832
  0
LINE
  5
C8
100
AcDbEntity
  8
M0
 62
     2
100
AcDbLine
 10
337.188252
 20
150.225832
 11
253.475094
 21
150.225832
  0
TEXT
  5
C9
100
AcDbEntity
  8
M0
 62
     2
100
AcDbText
 10
330.725094
 20
92.975832
 40
4.5
  1
８０
 41
0.555556
  7
STANDARD
100
AcDbText
  0
TEXT
  5
CA
100
AcDbEntity
  8
M0
 62
     2
100
AcDbText
 10
320.725094
 20
92.975832
 40
4.5
  1
７０
 41
0.555556
  7
STANDARD
100
AcDbText
  0
TEXT
  5
CB
100
AcDbEntity
  8
M0
 62
     2
100
AcDbText
 10
245.950085
 20
77.674723
 40
4.5
  1
（注）流水抵抗曲線の説明
 41
0.777778
  7
STANDARD
100
AcDbText
  0
TEXT
  5
CC
100
AcDbEntity
  8
M0
 62
     2
100
AcDbText
 10
245.950085
 20
67.572704
 40
4.5
  1
　　　　損失圧力：砂こし器の入口と出口の圧力差を現したもの（ｋＰａ）
 41
0.777778
  7
STANDARD
100
AcDbText
  0
TEXT
  5
CD
100
AcDbEntity
  8
M0
 62
     2
100
AcDbText
 10
245.950085
 20
72.623715
 40
4.5
  1
　　　　流水量　：砂こし器の入口から出口に流れる水量（Ｌ／分）
 41
0.777778
  7
STANDARD
100
AcDbText
  0
TEXT
  5
CE
100
AcDbEntity
  8
M0
 62
     2
100
AcDbText
 10
244.225094
 20
107.975833
 40
4.5
  1
０．２
 41
0.555556
  7
STANDARD
100
AcDbText
  0
TEXT
  5
CF
100
AcDbEntity
  8
M0
 62
     2
100
AcDbText
 10
244.225094
 20
117.975831
 40
4.5
  1
０．４
 41
0.555556
  7
STANDARD
100
AcDbText
  0
TEXT
  5
D0
100
AcDbEntity
  8
M0
 62
     2
100
AcDbText
 10
244.225094
 20
127.975832
 40
4.5
  1
０．６
 41
0.555556
  7
STANDARD
100
AcDbText
  0
TEXT
  5
D1
100
AcDbEntity
  8
M0
 62
     2
100
AcDbText
 10
244.225094
 20
137.975832
 40
4.5
  1
０．８
 41
0.555556
  7
STANDARD
100
AcDbText
  0
TEXT
  5
D2
100
AcDbEntity
  8
M0
 62
     2
100
AcDbText
 10
244.225094
 20
147.975834
 40
4.5
  1
１．０
 41
0.555556
  7
STANDARD
100
AcDbText
  0
SPLINE
  5
D3
100
AcDbEntity
  8
M0
 62
     2
100
AcDbSpline
210
0.0
220
0.0
230
-1.0
 70
     8
 71
     3
 72
    29
 73
    25
 43
0.0000001
 40
0.0
 40
0.0
 40
0.0
 40
0.0
 40
1.0
 40
1.0
 40
1.0
 40
2.0
 40
2.0
 40
2.0
 40
3.0
 40
3.0
 40
3.0
 40
4.0
 40
4.0
 40
4.0
 40
5.0
 40
5.0
 40
5.0
 40
6.0
 40
6.0
 40
6.0
 40
7.0
 40
7.0
 40
7.0
 40
8.0
 40
8.0
 40
8.0
 40
8.0
 10
253.475094
 20
100.225832
 10
256.808427
 20
100.554481
 10
260.141761
 20
100.883122
 10
263.475094
 20
101.475832
 10
266.808427
 20
102.068542
 10
270.141761
 20
102.925303
 10
273.475094
 20
103.975832
 10
276.808427
 20
105.026361
 10
280.141761
 20
106.270641
 10
283.475094
 20
107.725832
 10
286.808427
 20
109.181023
 10
290.141761
 20
110.847109
 10
293.475094
 20
112.725832
 10
296.808427
 20
114.604555
 10
300.141761
 20
116.695899
 10
303.475094
 20
118.975832
 10
306.808427
 20
121.255765
 10
310.141761
 20
123.724273
 10
313.475094
 20
126.475832
 10
316.808427
 20
129.227392
 10
320.141761
 20
132.261989
 10
323.475094
 20
135.225832
 10
326.808427
 20
138.189675
 10
330.141761
 20
141.08275
 10
333.475094
 20
143.975832
  0
TEXT
  5
D4
100
AcDbEntity
  8
M0
 62
     2
100
AcDbText
 10
259.384945
 20
157.116993
 40
4.5
  1
流水抵抗曲線
 41
0.777778
  7
STANDARD
100
AcDbText
  0
TEXT
  5
D5
100
AcDbEntity
  8
M0
100
AcDbText
 10
133.572794
 20
42.39767
 40
4.5
  1
（　）内の寸法はＧＦ－３０Ｓの寸法です。
 41
0.777778
  7
STANDARD
100
AcDbText
  0
TEXT
  5
D6
100
AcDbEntity
  8
M0
100
AcDbText
 10
133.572794
 20
37.67267
 40
4.5
  1
　　　　　　　　　　　　　（単位：ｍｍ）
 41
0.777778
  7
STANDARD
100
AcDbText
  0
LINE
  5
D7
100
AcDbEntity
  8
M0
100
AcDbLine
 10
51.95111
 20
249.556508
 11
51.951113
 21
260.356508
  0
LINE
  5
D8
100
AcDbEntity
  8
M0
100
AcDbLine
 10
51.951113
 20
260.356508
 11
78.551115
 21
260.356508
  0
LINE
  5
D9
100
AcDbEntity
  8
M0
100
AcDbLine
 10
78.551115
 20
260.356508
 11
78.551111
 21
249.556508
  0
LINE
  5
DA
100
AcDbEntity
  8
M0
100
AcDbLine
 10
78.551111
 20
249.556508
 11
51.95111
 21
249.556508
  0
TEXT
  5
DB
100
AcDbEntity
  8
M0
100
AcDbText
 10
53.35111
 20
250.456508
 40
9.0
  1
寸　法
 41
0.777778
  7
STANDARD
100
AcDbText
  0
LINE
  5
DC
100
AcDbEntity
  8
M46
  6
DASHDOT
 62
   194
100
AcDbLine
 10
191.475182
 20
202.930393
 11
81.555934
 21
202.930393
  0
LINE
  5
DD
100
AcDbEntity
  8
M46
 62
   194
100
AcDbLine
 10
173.441742
 20
226.180393
 11
173.441742
 21
179.680393
  0
LINE
  5
DE
100
AcDbEntity
  8
M46
 62
   194
100
AcDbLine
 10
100.941742
 20
226.180393
 11
100.941742
 21
179.680393
  0
LINE
  5
DF
100
AcDbEntity
  8
M46
 62
   194
100
AcDbLine
 10
101.441742
 20
226.680393
 11
104.441742
 21
226.680393
  0
LINE
  5
E0
100
AcDbEntity
  8
M46
 62
   194
100
AcDbLine
 10
169.941742
 20
226.680393
 11
172.941742
 21
226.680393
  0
LINE
  5
E1
100
AcDbEntity
  8
M46
 62
   194
100
AcDbLine
 10
169.941742
 20
179.180393
 11
172.941742
 21
179.180393
  0
LINE
  5
E2
100
AcDbEntity
  8
M46
 62
   194
100
AcDbLine
 10
101.441742
 20
179.180393
 11
104.441742
 21
179.180393
  0
LINE
  5
E3
100
AcDbEntity
  8
M46
 62
   194
100
AcDbLine
 10
103.941742
 20
225.180393
 11
103.941742
 21
218.430393
  0
LINE
  5
E4
100
AcDbEntity
  8
M46
 62
   194
100
AcDbLine
 10
105.941742
 20
225.180393
 11
105.941742
 21
216.930393
  0
LINE
  5
E5
100
AcDbEntity
  8
M46
 62
   194
100
AcDbLine
 10
105.441742
 20
216.930393
 11
113.191742
 21
216.930393
  0
ARC
  5
E6
100
AcDbEntity
  8
M46
 62
   194
100
AcDbCircle
 10
104.441742
 20
225.180393
 40
1.5
100
AcDbArc
 50
0.0
 51
90.0
  0
ARC
  5
E7
100
AcDbEntity
  8
M46
 62
   194
100
AcDbCircle
 10
102.441742
 20
225.180393
 40
1.5
100
AcDbArc
 50
0.0
 51
90.0
  0
ARC
  5
E8
100
AcDbEntity
  8
M46
 62
   194
100
AcDbCircle
 10
113.191742
 20
219.430393
 40
2.5
100
AcDbArc
 50
270.0
 51
323.130102
  0
LINE
  5
E9
100
AcDbEntity
  8
M46
 62
   194
100
AcDbLine
 10
105.441742
 20
188.930393
 11
113.191742
 21
188.930393
  0
ARC
  5
EA
100
AcDbEntity
  8
M46
 62
   194
100
AcDbCircle
 10
113.191742
 20
186.430393
 40
2.5
100
AcDbArc
 50
36.869898
 51
90.0
  0
ARC
  5
EB
100
AcDbEntity
  8
M46
 62
   194
100
AcDbCircle
 10
102.441742
 20
180.680393
 40
1.5
100
AcDbArc
 50
-90.0
 51
0.0
  0
ARC
  5
EC
100
AcDbEntity
  8
M46
 62
   194
100
AcDbCircle
 10
104.441742
 20
180.680393
 40
1.5
100
AcDbArc
 50
-90.0
 51
0.0
  0
LINE
  5
ED
100
AcDbEntity
  8
M46
 62
   194
100
AcDbLine
 10
105.941742
 20
188.930393
 11
105.941742
 21
180.680393
  0
ARC
  5
EE
100
AcDbEntity
  8
M46
 62
   194
100
AcDbCircle
 10
106.941742
 20
191.930393
 40
3.0
100
AcDbArc
 50
180.0
 51
270.0
  0
ARC
  5
EF
100
AcDbEntity
  8
M46
 62
   194
100
AcDbCircle
 10
106.941742
 20
213.930393
 40
3.0
100
AcDbArc
 50
90.0
 51
180.0
  0
ARC
  5
F0
100
AcDbEntity
  8
M46
 62
   194
100
AcDbCircle
 10
105.441742
 20
187.430393
 40
1.5
100
AcDbArc
 50
90.0
 51
180.0
  0
ARC
  5
F1
100
AcDbEntity
  8
M46
 62
   194
100
AcDbCircle
 10
105.441742
 20
218.430393
 40
1.5
100
AcDbArc
 50
180.0
 51
270.0
  0
LINE
  5
F2
100
AcDbEntity
  8
M46
 62
   194
100
AcDbLine
 10
103.941742
 20
187.430393
 11
103.941742
 21
180.680393
  0
LINE
  5
F3
100
AcDbEntity
  8
M46
 62
   194
100
AcDbLine
 10
103.941742
 20
213.930393
 11
103.941742
 21
191.930393
  0
ARC
  5
F4
100
AcDbEntity
  8
M46
 62
   194
100
AcDbCircle
 10
171.941742
 20
225.180393
 40
1.5
100
AcDbArc
 50
90.0
 51
152.966012
  0
ARC
  5
F5
100
AcDbEntity
  8
M46
 62
   194
100
AcDbCircle
 10
169.941742
 20
225.180393
 40
1.5
100
AcDbArc
 50
90.0
 51
99.008166
  0
ARC
  5
F6
100
AcDbEntity
  8
M46
 62
   194
100
AcDbCircle
 10
171.941742
 20
180.680393
 40
1.5
100
AcDbArc
 50
207.033988
 51
270.0
  0
ARC
  5
F7
100
AcDbEntity
  8
M46
 62
   194
100
AcDbCircle
 10
169.941742
 20
180.680393
 40
1.5
100
AcDbArc
 50
260.991834
 51
270.0
  0
LINE
  5
F8
100
AcDbEntity
  8
M46
 62
   194
100
AcDbLine
 10
173.441742
 20
226.180393
 11
172.941742
 21
226.680393
  0
LINE
  5
F9
100
AcDbEntity
  8
M46
 62
   194
100
AcDbLine
 10
172.941742
 20
179.180393
 11
173.441742
 21
179.680393
  0
LINE
  5
FA
100
AcDbEntity
  8
M46
 62
   194
100
AcDbLine
 10
101.441742
 20
226.680393
 11
100.941742
 21
226.180393
  0
LINE
  5
FB
100
AcDbEntity
  8
M46
 62
   194
100
AcDbLine
 10
100.941742
 20
179.680393
 11
101.441742
 21
179.180393
  0
LINE
  5
FC
100
AcDbEntity
  8
M46
 62
   194
100
AcDbLine
 10
172.941742
 20
226.680393
 11
172.941742
 21
179.180393
  0
LINE
  5
FD
100
AcDbEntity
  8
M46
 62
   194
100
AcDbLine
 10
101.441742
 20
226.680393
 11
101.441742
 21
179.180393
  0
LINE
  5
FE
100
AcDbEntity
  8
M46
  6
DASHED
 62
   194
100
AcDbLine
 10
148.441742
 20
226.033423
 11
148.441742
 21
226.930393
  0
ARC
  5
FF
100
AcDbEntity
  8
M46
  6
DASHED
 62
   194
100
AcDbCircle
 10
147.441742
 20
226.930393
 40
1.0
100
AcDbArc
 50
0.0
 51
90.0
  0
LINE
  5
100
100
AcDbEntity
  8
M46
  6
DASHED
 62
   194
100
AcDbLine
 10
147.441742
 20
227.930393
 11
139.441742
 21
227.930393
  0
ARC
  5
101
100
AcDbEntity
  8
M46
  6
DASHED
 62
   194
100
AcDbCircle
 10
143.441742
 20
202.930393
 40
22.5
100
AcDbArc
 50
60.406297
 51
120.921148
  0
ARC
  5
102
100
AcDbEntity
  8
M46
  6
DASHED
 62
   194
100
AcDbCircle
 10
149.941742
 20
226.033423
 40
1.5
100
AcDbArc
 50
180.0
 51
254.286139
  0
ARC
  5
103
100
AcDbEntity
  8
M46
  6
DASHED
 62
   194
100
AcDbCircle
 10
136.941742
 20
226.033423
 40
1.5
100
AcDbArc
 50
-74.286139
 51
0.0
  0
LINE
  5
104
100
AcDbEntity
  8
M46
  6
DASHED
 62
   194
100
AcDbLine
 10
138.441742
 20
226.033423
 11
138.441742
 21
226.930393
  0
ARC
  5
105
100
AcDbEntity
  8
M46
  6
DASHED
 62
   194
100
AcDbCircle
 10
139.441742
 20
226.930393
 40
1.0
100
AcDbArc
 50
90.0
 51
180.0
  0
LINE
  5
106
100
AcDbEntity
  8
M46
 62
   154
100
AcDbLine
 10
87.691742
 20
211.930393
 11
87.691742
 21
193.930393
  0
LINE
  5
107
100
AcDbEntity
  8
M46
 62
   154
100
AcDbLine
 10
95.691742
 20
181.430393
 11
96.941742
 21
181.430393
  0
LINE
  5
108
100
AcDbEntity
  8
M46
 62
   154
100
AcDbLine
 10
99.691742
 20
183.430393
 11
99.691742
 21
189.180393
  0
LINE
  5
109
100
AcDbEntity
  8
M46
 62
   154
100
AcDbLine
 10
96.941742
 20
181.430393
 11
96.941742
 21
182.430393
  0
LINE
  5
10A
100
AcDbEntity
  8
M46
 62
   154
100
AcDbLine
 10
99.691742
 20
183.430393
 11
97.941742
 21
183.430393
  0
ARC
  5
10B
100
AcDbEntity
  8
M46
 62
   154
100
AcDbCircle
 10
97.941742
 20
182.430393
 40
1.0
100
AcDbArc
 50
90.0
 51
180.0
  0
LINE
  5
10C
100
AcDbEntity
  8
M46
 62
   154
100
AcDbLine
 10
88.691742
 20
192.930393
 11
93.691742
 21
192.930393
  0
ARC
  5
10D
100
AcDbEntity
  8
M46
 62
   154
100
AcDbCircle
 10
88.691742
 20
193.930393
 40
1.0
100
AcDbArc
 50
180.0
 51
270.0
  0
ARC
  5
10E
100
AcDbEntity
  8
M46
 62
   154
100
AcDbCircle
 10
93.691742
 20
191.930393
 40
1.0
100
AcDbArc
 50
0.0
 51
90.0
  0
LINE
  5
10F
100
AcDbEntity
  8
M46
 62
   154
100
AcDbLine
 10
95.691742
 20
224.430393
 11
96.941742
 21
224.430393
  0
LINE
  5
110
100
AcDbEntity
  8
M46
 62
   154
100
AcDbLine
 10
99.691742
 20
222.430393
 11
99.691742
 21
216.680393
  0
LINE
  5
111
100
AcDbEntity
  8
M46
 62
   154
100
AcDbLine
 10
96.941742
 20
224.430393
 11
96.941742
 21
223.430393
  0
LINE
  5
112
100
AcDbEntity
  8
M46
 62
   154
100
AcDbLine
 10
94.691742
 20
223.430393
 11
94.691742
 21
213.930393
  0
LINE
  5
113
100
AcDbEntity
  8
M46
 62
   154
100
AcDbLine
 10
99.691742
 20
222.430393
 11
97.941742
 21
222.430393
  0
ARC
  5
114
100
AcDbEntity
  8
M46
 62
   154
100
AcDbCircle
 10
97.941742
 20
223.430393
 40
1.0
100
AcDbArc
 50
180.0
 51
270.0
  0
LINE
  5
115
100
AcDbEntity
  8
M46
 62
   154
100
AcDbLine
 10
88.691742
 20
212.930393
 11
93.691742
 21
212.930393
  0
ARC
  5
116
100
AcDbEntity
  8
M46
 62
   154
100
AcDbCircle
 10
88.691742
 20
211.930393
 40
1.0
100
AcDbArc
 50
90.0
 51
180.0
  0
ARC
  5
117
100
AcDbEntity
  8
M46
 62
   154
100
AcDbCircle
 10
93.691742
 20
213.930393
 40
1.0
100
AcDbArc
 50
-90.0
 51
0.0
  0
ARC
  5
118
100
AcDbEntity
  8
M46
 62
   154
100
AcDbCircle
 10
95.691742
 20
223.430393
 40
1.0
100
AcDbArc
 50
90.0
 51
180.0
  0
ARC
  5
119
100
AcDbEntity
  8
M46
 62
   154
100
AcDbCircle
 10
95.691742
 20
182.430393
 40
1.0
100
AcDbArc
 50
180.0
 51
270.0
  0
LINE
  5
11A
100
AcDbEntity
  8
M46
 62
   154
100
AcDbLine
 10
96.941742
 20
219.478269
 11
96.941742
 21
207.930393
  0
LINE
  5
11B
100
AcDbEntity
  8
M46
 62
   154
100
AcDbLine
 10
96.941742
 20
186.382517
 11
96.941742
 21
197.930393
  0
LINE
  5
11C
100
AcDbEntity
  8
M46
 62
   154
100
AcDbLine
 10
95.691742
 20
185.382517
 11
95.941742
 21
185.382517
  0
LINE
  5
11D
100
AcDbEntity
  8
M46
 62
   154
100
AcDbLine
 10
96.941742
 20
197.930393
 11
95.191742
 21
197.930393
  0
LINE
  5
11E
100
AcDbEntity
  8
M46
 62
   154
100
AcDbLine
 10
96.941742
 20
207.930393
 11
95.191742
 21
207.930393
  0
ARC
  5
11F
100
AcDbEntity
  8
M46
 62
   154
100
AcDbCircle
 10
95.941742
 20
186.382517
 40
1.0
100
AcDbArc
 50
270.0
 51
360.0
  0
ARC
  5
120
100
AcDbEntity
  8
M46
 62
   154
100
AcDbCircle
 10
95.691742
 20
184.382517
 40
1.0
100
AcDbArc
 50
90.0
 51
180.0
  0
ARC
  5
121
100
AcDbEntity
  8
M46
 62
   154
100
AcDbCircle
 10
95.691742
 20
221.478269
 40
1.0
100
AcDbArc
 50
180.0
 51
270.0
  0
ARC
  5
122
100
AcDbEntity
  8
M46
 62
   154
100
AcDbCircle
 10
95.941742
 20
219.478269
 40
1.0
100
AcDbArc
 50
0.0
 51
90.0
  0
ARC
  5
123
100
AcDbEntity
  8
M46
 62
   154
100
AcDbCircle
 10
95.191742
 20
198.430393
 40
0.5
100
AcDbArc
 50
180.0
 51
270.0
  0
ARC
  5
124
100
AcDbEntity
  8
M46
 62
   154
100
AcDbCircle
 10
95.191742
 20
207.430393
 40
0.5
100
AcDbArc
 50
90.0
 51
180.0
  0
LINE
  5
125
100
AcDbEntity
  8
M46
 62
   154
100
AcDbLine
 10
99.941742
 20
216.680393
 11
99.941742
 21
189.180393
  0
LINE
  5
126
100
AcDbEntity
  8
M46
 62
   154
100
AcDbLine
 10
99.941742
 20
216.680393
 11
99.691742
 21
216.680393
  0
LINE
  5
127
100
AcDbEntity
  8
M46
 62
   154
100
AcDbLine
 10
99.941742
 20
189.180393
 11
99.691742
 21
189.180393
  0
LINE
  5
128
100
AcDbEntity
  8
M46
 62
   154
100
AcDbLine
 10
94.691742
 20
207.430393
 11
94.691742
 21
198.430393
  0
LINE
  5
129
100
AcDbEntity
  8
M46
 62
   154
100
AcDbLine
 10
94.691742
 20
191.930393
 11
94.691742
 21
182.430393
  0
LINE
  5
12A
100
AcDbEntity
  8
M46
 62
   154
100
AcDbLine
 10
95.691742
 20
220.478269
 11
95.941742
 21
220.478269
  0
LINE
  5
12B
100
AcDbEntity
  8
M46
  6
DASHDOT
 62
     4
100
AcDbLine
 10
143.441742
 20
170.874426
 11
143.441742
 21
234.180393
  0
LINE
  5
12C
100
AcDbEntity
  8
M46
 62
     4
100
AcDbLine
 10
171.691742
 20
208.498158
 11
171.691742
 21
222.930393
  0
LINE
  5
12D
100
AcDbEntity
  8
M46
 62
     4
100
AcDbLine
 10
167.191742
 20
227.430393
 11
159.175861
 21
227.430393
  0
ARC
  5
12E
100
AcDbEntity
  8
M46
 62
     4
100
AcDbCircle
 10
167.191742
 20
222.930393
 40
4.5
100
AcDbArc
 50
0.0
 51
90.0
  0
ARC
  5
12F
100
AcDbEntity
  8
M46
 62
     4
100
AcDbCircle
 10
167.191742
 20
182.930393
 40
4.5
100
AcDbArc
 50
270.0
 51
360.0
  0
LINE
  5
130
100
AcDbEntity
  8
M46
 62
     4
100
AcDbLine
 10
167.191742
 20
178.430393
 11
159.175861
 21
178.430393
  0
ARC
  5
131
100
AcDbEntity
  8
M46
 62
     4
100
AcDbCircle
 10
143.441742
 20
202.930393
 40
28.75
100
AcDbArc
 50
59.768714
 51
120.231286
  0
ARC
  5
132
100
AcDbEntity
  8
M46
 62
     4
100
AcDbCircle
 10
159.175861
 20
175.930393
 40
2.5
100
AcDbArc
 50
90.0
 51
120.231286
  0
ARC
  5
133
100
AcDbEntity
  8
M46
 62
     4
100
AcDbCircle
 10
159.175861
 20
229.930393
 40
2.5
100
AcDbArc
 50
239.768714
 51
270.0
  0
ARC
  5
134
100
AcDbEntity
  8
M46
 62
     4
100
AcDbCircle
 10
143.441742
 20
202.930393
 40
28.75
100
AcDbArc
 50
239.768714
 51
300.231286
  0
LINE
  5
135
100
AcDbEntity
  8
M46
 62
     4
100
AcDbLine
 10
119.691742
 20
178.430393
 11
127.707623
 21
178.430393
  0
ARC
  5
136
100
AcDbEntity
  8
M46
 62
     4
100
AcDbCircle
 10
127.707623
 20
175.930393
 40
2.5
100
AcDbArc
 50
59.768714
 51
90.0
  0
ARC
  5
137
100
AcDbEntity
  8
M46
 62
     4
100
AcDbCircle
 10
119.691742
 20
182.930393
 40
4.5
100
AcDbArc
 50
180.0
 51
270.0
  0
ARC
  5
138
100
AcDbEntity
  8
M46
 62
     4
100
AcDbCircle
 10
119.691742
 20
222.930393
 40
4.5
100
AcDbArc
 50
90.0
 51
180.0
  0
LINE
  5
139
100
AcDbEntity
  8
M46
 62
     4
100
AcDbLine
 10
119.691742
 20
227.430393
 11
127.707623
 21
227.430393
  0
ARC
  5
13A
100
AcDbEntity
  8
M46
 62
     4
100
AcDbCircle
 10
127.707623
 20
229.930393
 40
2.5
100
AcDbArc
 50
270.0
 51
300.231286
  0
ARC
  5
13B
100
AcDbEntity
  8
M46
 62
     4
100
AcDbCircle
 10
174.191742
 20
208.498158
 40
2.5
100
AcDbArc
 50
180.0
 51
190.263096
  0
ARC
  5
13C
100
AcDbEntity
  8
M46
 62
     4
100
AcDbCircle
 10
143.441742
 20
202.930393
 40
28.75
100
AcDbArc
 50
-10.263096
 51
10.263096
  0
LINE
  5
13D
100
AcDbEntity
  8
M46
 62
     4
100
AcDbLine
 10
171.691742
 20
197.362629
 11
171.691742
 21
182.930393
  0
ARC
  5
13E
100
AcDbEntity
  8
M46
 62
     4
100
AcDbCircle
 10
174.191742
 20
197.362629
 40
2.5
100
AcDbArc
 50
169.736904
 51
180.0
  0
LINE
  5
13F
100
AcDbEntity
  8
M46
 62
     4
100
AcDbLine
 10
115.191742
 20
197.362629
 11
115.191742
 21
182.930393
  0
ARC
  5
140
100
AcDbEntity
  8
M46
 62
     4
100
AcDbCircle
 10
112.691742
 20
197.362629
 40
2.5
100
AcDbArc
 50
0.0
 51
10.263096
  0
ARC
  5
141
100
AcDbEntity
  8
M46
 62
     4
100
AcDbCircle
 10
143.441742
 20
202.930393
 40
28.75
100
AcDbArc
 50
169.736904
 51
190.263096
  0
ARC
  5
142
100
AcDbEntity
  8
M46
 62
     4
100
AcDbCircle
 10
112.691742
 20
208.498158
 40
2.5
100
AcDbArc
 50
349.736904
 51
360.0
  0
LINE
  5
143
100
AcDbEntity
  8
M46
 62
     4
100
AcDbLine
 10
115.191742
 20
208.498158
 11
115.191742
 21
222.930393
  0
CIRCLE
  5
144
100
AcDbEntity
  8
M46
 62
     4
100
AcDbCircle
 10
143.441742
 20
202.930393
 40
19.25
  0
LINE
  5
145
100
AcDbEntity
  8
M46
 62
     1
100
AcDbLine
 10
100.941742
 20
183.180393
 11
100.941742
 21
222.680393
  0
LINE
  5
146
100
AcDbEntity
  8
M46
 62
     1
100
AcDbLine
 10
100.941742
 20
222.680393
 11
99.941742
 21
222.680393
  0
LINE
  5
147
100
AcDbEntity
  8
M46
 62
     1
100
AcDbLine
 10
99.941742
 20
222.680393
 11
99.941742
 21
183.180393
  0
LINE
  5
148
100
AcDbEntity
  8
M46
 62
     1
100
AcDbLine
 10
99.941742
 20
183.180393
 11
100.941742
 21
183.180393
  0
LINE
  5
149
100
AcDbEntity
  8
M46
 62
     1
100
AcDbLine
 10
173.441742
 20
183.180393
 11
173.441742
 21
222.680393
  0
LINE
  5
14A
100
AcDbEntity
  8
M46
 62
     1
100
AcDbLine
 10
173.441742
 20
222.680393
 11
174.441742
 21
222.680393
  0
LINE
  5
14B
100
AcDbEntity
  8
M46
 62
     1
100
AcDbLine
 10
174.441742
 20
222.680393
 11
174.441742
 21
183.180393
  0
LINE
  5
14C
100
AcDbEntity
  8
M46
 62
     1
100
AcDbLine
 10
174.441742
 20
183.180393
 11
173.441742
 21
183.180393
  0
LINE
  5
14D
100
AcDbEntity
  8
M46
 62
   253
100
AcDbLine
 10
94.691742
 20
190.430393
 11
92.041742
 21
190.430393
  0
LINE
  5
14E
100
AcDbEntity
  8
M46
 62
   253
100
AcDbLine
 10
92.041742
 20
190.430393
 11
92.041742
 21
181.930393
  0
LINE
  5
14F
100
AcDbEntity
  8
M46
 62
   253
100
AcDbLine
 10
92.041742
 20
181.930393
 11
94.691742
 21
181.930393
  0
LINE
  5
150
100
AcDbEntity
  8
M46
 62
   253
100
AcDbLine
 10
94.691742
 20
181.930393
 11
94.691742
 21
190.430393
  0
LINE
  5
151
100
AcDbEntity
  8
M46
 62
   253
100
AcDbLine
 10
92.041742
 20
188.490994
 11
94.691742
 21
188.490994
  0
LINE
  5
152
100
AcDbEntity
  8
M46
 62
   253
100
AcDbLine
 10
92.041742
 20
183.869793
 11
94.691742
 21
183.869793
  0
LINE
  5
153
100
AcDbEntity
  8
M46
 62
   253
100
AcDbLine
 10
94.691742
 20
215.430393
 11
92.041742
 21
215.430393
  0
LINE
  5
154
100
AcDbEntity
  8
M46
 62
   253
100
AcDbLine
 10
92.041742
 20
215.430393
 11
92.041742
 21
223.930393
  0
LINE
  5
155
100
AcDbEntity
  8
M46
 62
   253
100
AcDbLine
 10
92.041742
 20
223.930393
 11
94.691742
 21
223.930393
  0
LINE
  5
156
100
AcDbEntity
  8
M46
 62
   253
100
AcDbLine
 10
94.691742
 20
223.930393
 11
94.691742
 21
215.430393
  0
LINE
  5
157
100
AcDbEntity
  8
M46
 62
   253
100
AcDbLine
 10
92.041742
 20
217.369793
 11
94.691742
 21
217.369793
  0
LINE
  5
158
100
AcDbEntity
  8
M46
 62
   253
100
AcDbLine
 10
92.041742
 20
221.990994
 11
94.691742
 21
221.990994
  0
LINE
  5
159
100
AcDbEntity
  8
M46
 62
   253
100
AcDbLine
 10
179.691742
 20
190.430393
 11
182.341742
 21
190.430393
  0
LINE
  5
15A
100
AcDbEntity
  8
M46
 62
   253
100
AcDbLine
 10
182.341742
 20
190.430393
 11
182.341742
 21
181.930393
  0
LINE
  5
15B
100
AcDbEntity
  8
M46
 62
   253
100
AcDbLine
 10
182.341742
 20
181.930393
 11
179.691742
 21
181.930393
  0
LINE
  5
15C
100
AcDbEntity
  8
M46
 62
   253
100
AcDbLine
 10
179.691742
 20
181.930393
 11
179.691742
 21
190.430393
  0
LINE
  5
15D
100
AcDbEntity
  8
M46
 62
   253
100
AcDbLine
 10
182.341742
 20
188.490994
 11
179.691742
 21
188.490994
  0
LINE
  5
15E
100
AcDbEntity
  8
M46
 62
   253
100
AcDbLine
 10
182.341742
 20
183.869793
 11
179.691742
 21
183.869793
  0
LINE
  5
15F
100
AcDbEntity
  8
M46
 62
   253
100
AcDbLine
 10
179.691742
 20
215.430393
 11
182.341742
 21
215.430393
  0
LINE
  5
160
100
AcDbEntity
  8
M46
 62
   253
100
AcDbLine
 10
182.341742
 20
215.430393
 11
182.341742
 21
223.930393
  0
LINE
  5
161
100
AcDbEntity
  8
M46
 62
   253
100
AcDbLine
 10
182.341742
 20
223.930393
 11
179.691742
 21
223.930393
  0
LINE
  5
162
100
AcDbEntity
  8
M46
 62
   253
100
AcDbLine
 10
179.691742
 20
223.930393
 11
179.691742
 21
215.430393
  0
LINE
  5
163
100
AcDbEntity
  8
M46
 62
   253
100
AcDbLine
 10
182.341742
 20
217.369793
 11
179.691742
 21
217.369793
  0
LINE
  5
164
100
AcDbEntity
  8
M46
 62
   253
100
AcDbLine
 10
182.341742
 20
221.990994
 11
179.691742
 21
221.990994
  0
LINE
  5
165
100
AcDbEntity
  8
M46
 62
    74
100
AcDbLine
 10
166.997608
 20
178.914674
 11
163.317001
 21
181.039674
  0
LINE
  5
166
100
AcDbEntity
  8
M46
 62
    74
100
AcDbLine
 10
163.317001
 20
181.039674
 11
163.317001
 21
185.289674
  0
LINE
  5
167
100
AcDbEntity
  8
M46
 62
    74
100
AcDbLine
 10
163.317001
 20
185.289674
 11
166.997608
 21
187.414674
  0
LINE
  5
168
100
AcDbEntity
  8
M46
 62
    74
100
AcDbLine
 10
166.997608
 20
187.414674
 11
170.678216
 21
185.289674
  0
LINE
  5
169
100
AcDbEntity
  8
M46
 62
    74
100
AcDbLine
 10
170.678216
 20
185.289674
 11
170.678216
 21
181.039674
  0
LINE
  5
16A
100
AcDbEntity
  8
M46
 62
    74
100
AcDbLine
 10
170.678216
 20
181.039674
 11
166.997608
 21
178.914674
  0
LINE
  5
16B
100
AcDbEntity
  8
M46
 62
    74
100
AcDbLine
 10
166.997608
 20
226.946112
 11
163.317001
 21
224.821112
  0
LINE
  5
16C
100
AcDbEntity
  8
M46
 62
    74
100
AcDbLine
 10
163.317001
 20
224.821112
 11
163.317001
 21
220.571112
  0
LINE
  5
16D
100
AcDbEntity
  8
M46
 62
    74
100
AcDbLine
 10
163.317001
 20
220.571112
 11
166.997608
 21
218.446112
  0
LINE
  5
16E
100
AcDbEntity
  8
M46
 62
    74
100
AcDbLine
 10
166.997608
 20
218.446112
 11
170.678216
 21
220.571112
  0
LINE
  5
16F
100
AcDbEntity
  8
M46
 62
    74
100
AcDbLine
 10
170.678216
 20
220.571112
 11
170.678216
 21
224.821112
  0
LINE
  5
170
100
AcDbEntity
  8
M46
 62
    74
100
AcDbLine
 10
170.678216
 20
224.821112
 11
166.997608
 21
226.946112
  0
LINE
  5
171
100
AcDbEntity
  8
M46
 62
    74
100
AcDbLine
 10
119.885875
 20
226.946112
 11
123.566483
 21
224.821112
  0
LINE
  5
172
100
AcDbEntity
  8
M46
 62
    74
100
AcDbLine
 10
123.566483
 20
224.821112
 11
123.566483
 21
220.571112
  0
LINE
  5
173
100
AcDbEntity
  8
M46
 62
    74
100
AcDbLine
 10
123.566483
 20
220.571112
 11
119.885875
 21
218.446112
  0
LINE
  5
174
100
AcDbEntity
  8
M46
 62
    74
100
AcDbLine
 10
119.885875
 20
218.446112
 11
116.205267
 21
220.571112
  0
LINE
  5
175
100
AcDbEntity
  8
M46
 62
    74
100
AcDbLine
 10
116.205267
 20
220.571112
 11
116.205267
 21
224.821112
  0
LINE
  5
176
100
AcDbEntity
  8
M46
 62
    74
100
AcDbLine
 10
116.205267
 20
224.821112
 11
119.885875
 21
226.946112
  0
LINE
  5
177
100
AcDbEntity
  8
M46
 62
    74
100
AcDbLine
 10
119.885875
 20
178.914674
 11
123.566483
 21
181.039674
  0
LINE
  5
178
100
AcDbEntity
  8
M46
 62
    74
100
AcDbLine
 10
123.566483
 20
181.039674
 11
123.566483
 21
185.289674
  0
LINE
  5
179
100
AcDbEntity
  8
M46
 62
    74
100
AcDbLine
 10
123.566483
 20
185.289674
 11
119.885875
 21
187.414674
  0
LINE
  5
17A
100
AcDbEntity
  8
M46
 62
    74
100
AcDbLine
 10
119.885875
 20
187.414674
 11
116.205267
 21
185.289674
  0
LINE
  5
17B
100
AcDbEntity
  8
M46
 62
    74
100
AcDbLine
 10
116.205267
 20
185.289674
 11
116.205267
 21
181.039674
  0
LINE
  5
17C
100
AcDbEntity
  8
M46
 62
    74
100
AcDbLine
 10
116.205267
 20
181.039674
 11
119.885875
 21
178.914674
  0
LINE
  5
17D
100
AcDbEntity
  8
M46
 62
   154
100
AcDbLine
 10
186.691742
 20
211.930393
 11
186.691742
 21
193.930393
  0
LINE
  5
17E
100
AcDbEntity
  8
M46
 62
   154
100
AcDbLine
 10
178.691742
 20
181.430393
 11
177.441742
 21
181.430393
  0
LINE
  5
17F
100
AcDbEntity
  8
M46
 62
   154
100
AcDbLine
 10
174.691742
 20
183.430393
 11
174.691742
 21
189.180393
  0
LINE
  5
180
100
AcDbEntity
  8
M46
 62
   154
100
AcDbLine
 10
177.441742
 20
181.430393
 11
177.441742
 21
182.430393
  0
LINE
  5
181
100
AcDbEntity
  8
M46
 62
   154
100
AcDbLine
 10
174.691742
 20
183.430393
 11
176.441742
 21
183.430393
  0
ARC
  5
182
100
AcDbEntity
  8
M46
 62
   154
100
AcDbCircle
 10
176.441742
 20
182.430393
 40
1.0
100
AcDbArc
 50
0.0
 51
90.0
  0
LINE
  5
183
100
AcDbEntity
  8
M46
 62
   154
100
AcDbLine
 10
185.691742
 20
192.930393
 11
180.691742
 21
192.930393
  0
ARC
  5
184
100
AcDbEntity
  8
M46
 62
   154
100
AcDbCircle
 10
185.691742
 20
193.930393
 40
1.0
100
AcDbArc
 50
-90.0
 51
0.0
  0
ARC
  5
185
100
AcDbEntity
  8
M46
 62
   154
100
AcDbCircle
 10
180.691742
 20
191.930393
 40
1.0
100
AcDbArc
 50
90.0
 51
180.0
  0
LINE
  5
186
100
AcDbEntity
  8
M46
 62
   154
100
AcDbLine
 10
178.691742
 20
224.430393
 11
177.441742
 21
224.430393
  0
LINE
  5
187
100
AcDbEntity
  8
M46
 62
   154
100
AcDbLine
 10
174.691742
 20
222.430393
 11
174.691742
 21
216.680393
  0
LINE
  5
188
100
AcDbEntity
  8
M46
 62
   154
100
AcDbLine
 10
177.441742
 20
224.430393
 11
177.441742
 21
223.430393
  0
LINE
  5
189
100
AcDbEntity
  8
M46
 62
   154
100
AcDbLine
 10
179.691742
 20
223.430393
 11
179.691742
 21
213.930393
  0
LINE
  5
18A
100
AcDbEntity
  8
M46
 62
   154
100
AcDbLine
 10
174.691742
 20
222.430393
 11
176.441742
 21
222.430393
  0
ARC
  5
18B
100
AcDbEntity
  8
M46
 62
   154
100
AcDbCircle
 10
176.441742
 20
223.430393
 40
1.0
100
AcDbArc
 50
270.0
 51
360.0
  0
LINE
  5
18C
100
AcDbEntity
  8
M46
 62
   154
100
AcDbLine
 10
185.691742
 20
212.930393
 11
180.691742
 21
212.930393
  0
ARC
  5
18D
100
AcDbEntity
  8
M46
 62
   154
100
AcDbCircle
 10
185.691742
 20
211.930393
 40
1.0
100
AcDbArc
 50
0.0
 51
90.0
  0
ARC
  5
18E
100
AcDbEntity
  8
M46
 62
   154
100
AcDbCircle
 10
180.691742
 20
213.930393
 40
1.0
100
AcDbArc
 50
180.0
 51
270.0
  0
ARC
  5
18F
100
AcDbEntity
  8
M46
 62
   154
100
AcDbCircle
 10
178.691742
 20
223.430393
 40
1.0
100
AcDbArc
 50
0.0
 51
90.0
  0
ARC
  5
190
100
AcDbEntity
  8
M46
 62
   154
100
AcDbCircle
 10
178.691742
 20
182.430393
 40
1.0
100
AcDbArc
 50
-90.0
 51
0.0
  0
LINE
  5
191
100
AcDbEntity
  8
M46
 62
   154
100
AcDbLine
 10
177.441742
 20
219.478269
 11
177.441742
 21
207.930393
  0
LINE
  5
192
100
AcDbEntity
  8
M46
 62
   154
100
AcDbLine
 10
177.441742
 20
186.382517
 11
177.441742
 21
197.930393
  0
LINE
  5
193
100
AcDbEntity
  8
M46
 62
   154
100
AcDbLine
 10
178.691742
 20
185.382517
 11
178.441742
 21
185.382517
  0
LINE
  5
194
100
AcDbEntity
  8
M46
 62
   154
100
AcDbLine
 10
177.441742
 20
197.930393
 11
179.191742
 21
197.930393
  0
LINE
  5
195
100
AcDbEntity
  8
M46
 62
   154
100
AcDbLine
 10
177.441742
 20
207.930393
 11
179.191742
 21
207.930393
  0
ARC
  5
196
100
AcDbEntity
  8
M46
 62
   154
100
AcDbCircle
 10
178.441742
 20
186.382517
 40
1.0
100
AcDbArc
 50
180.0
 51
270.0
  0
ARC
  5
197
100
AcDbEntity
  8
M46
 62
   154
100
AcDbCircle
 10
178.691742
 20
184.382517
 40
1.0
100
AcDbArc
 50
0.0
 51
90.0
  0
ARC
  5
198
100
AcDbEntity
  8
M46
 62
   154
100
AcDbCircle
 10
178.691742
 20
221.478269
 40
1.0
100
AcDbArc
 50
270.0
 51
360.0
  0
ARC
  5
199
100
AcDbEntity
  8
M46
 62
   154
100
AcDbCircle
 10
178.441742
 20
219.478269
 40
1.0
100
AcDbArc
 50
90.0
 51
180.0
  0
ARC
  5
19A
100
AcDbEntity
  8
M46
 62
   154
100
AcDbCircle
 10
179.191742
 20
198.430393
 40
0.5
100
AcDbArc
 50
-90.0
 51
0.0
  0
ARC
  5
19B
100
AcDbEntity
  8
M46
 62
   154
100
AcDbCircle
 10
179.191742
 20
207.430393
 40
0.5
100
AcDbArc
 50
0.0
 51
90.0
  0
LINE
  5
19C
100
AcDbEntity
  8
M46
 62
   154
100
AcDbLine
 10
174.441742
 20
216.680393
 11
174.441742
 21
189.180393
  0
LINE
  5
19D
100
AcDbEntity
  8
M46
 62
   154
100
AcDbLine
 10
174.441742
 20
216.680393
 11
174.691742
 21
216.680393
  0
LINE
  5
19E
100
AcDbEntity
  8
M46
 62
   154
100
AcDbLine
 10
174.441742
 20
189.180393
 11
174.691742
 21
189.180393
  0
LINE
  5
19F
100
AcDbEntity
  8
M46
 62
   154
100
AcDbLine
 10
179.691742
 20
207.430393
 11
179.691742
 21
198.430393
  0
LINE
  5
1A0
100
AcDbEntity
  8
M46
 62
   154
100
AcDbLine
 10
179.691742
 20
191.930393
 11
179.691742
 21
182.430393
  0
LINE
  5
1A1
100
AcDbEntity
  8
M46
 62
   154
100
AcDbLine
 10
178.691742
 20
220.478269
 11
178.441742
 21
220.478269
  0
LINE
  5
1A2
100
AcDbEntity
  8
M46
 62
     1
100
AcDbLine
 10
147.194519
 20
232.680393
 11
147.194519
 21
231.434413
  0
LINE
  5
1A3
100
AcDbEntity
  8
M46
 62
     1
100
AcDbLine
 10
139.688965
 20
232.680393
 11
139.688965
 21
231.434413
  0
LINE
  5
1A4
100
AcDbEntity
  8
M46
 62
     1
100
AcDbLine
 10
147.194519
 20
232.680393
 11
139.688965
 21
232.680393
  0
LINE
  5
1A5
100
AcDbEntity
  8
M46
  6
DASHED
 62
     1
100
AcDbLine
 10
147.194519
 20
229.930393
 11
139.688965
 21
229.930393
  0
LINE
  5
1A6
100
AcDbEntity
  8
M46
 62
     1
100
AcDbLine
 10
141.565353
 20
232.680393
 11
141.565353
 21
231.619096
  0
LINE
  5
1A7
100
AcDbEntity
  8
M46
 62
     1
100
AcDbLine
 10
145.31813
 20
232.680393
 11
145.31813
 21
231.619096
  0
LINE
  5
1A8
100
AcDbEntity
  8
M46
  6
DASHED
 62
     1
100
AcDbLine
 10
140.152492
 20
229.930393
 11
140.152492
 21
227.930393
  0
LINE
  5
1A9
100
AcDbEntity
  8
M46
  6
DASHED
 62
     1
100
AcDbLine
 10
146.730992
 20
229.930393
 11
146.730992
 21
227.930393
  0
LINE
  5
1AA
100
AcDbEntity
  8
M46
  6
DASHED
 62
     1
100
AcDbLine
 10
140.580492
 20
227.930393
 11
140.580492
 21
229.930393
  0
LINE
  5
1AB
100
AcDbEntity
  8
M46
  6
DASHED
 62
     1
100
AcDbLine
 10
146.302992
 20
227.930393
 11
146.302992
 21
229.930393
  0
LINE
  5
1AC
100
AcDbEntity
  8
M46
  6
DASHED
 62
     1
100
AcDbLine
 10
147.194519
 20
231.434413
 11
147.194519
 21
229.930393
  0
LINE
  5
1AD
100
AcDbEntity
  8
M46
  6
DASHED
 62
     1
100
AcDbLine
 10
145.31813
 20
231.619096
 11
145.31813
 21
229.930393
  0
LINE
  5
1AE
100
AcDbEntity
  8
M46
  6
DASHED
 62
     1
100
AcDbLine
 10
141.565353
 20
231.619096
 11
141.565353
 21
229.930393
  0
LINE
  5
1AF
100
AcDbEntity
  8
M46
  6
DASHED
 62
     1
100
AcDbLine
 10
139.688965
 20
231.434413
 11
139.688965
 21
229.930393
  0
LINE
  5
1B0
100
AcDbEntity
  8
M46
 62
     4
100
AcDbLine
 10
161.233702
 20
131.401174
 11
125.649782
 21
131.401174
  0
LINE
  5
1B1
100
AcDbEntity
  8
M46
 62
     4
100
AcDbLine
 10
171.191742
 20
128.901174
 11
115.691742
 21
128.901174
  0
LINE
  5
1B2
100
AcDbEntity
  8
M46
 62
     4
100
AcDbLine
 10
114.691742
 20
126.401174
 11
114.691742
 21
127.901174
  0
ARC
  5
1B3
100
AcDbEntity
  8
M46
 62
     4
100
AcDbCircle
 10
115.691742
 20
127.901174
 40
1.0
100
AcDbArc
 50
90.0
 51
180.0
  0
LINE
  5
1B4
100
AcDbEntity
  8
M46
 62
     4
100
AcDbLine
 10
115.191742
 20
125.901174
 11
117.941742
 21
125.901174
  0
ARC
  5
1B5
100
AcDbEntity
  8
M46
 62
     4
100
AcDbCircle
 10
122.691742
 20
130.401174
 40
1.5
100
AcDbArc
 50
344.313522
 51
350.405932
  0
ARC
  5
1B6
100
AcDbEntity
  8
M46
 62
     4
100
AcDbCircle
 10
125.649782
 20
129.901174
 40
1.5
100
AcDbArc
 50
90.0
 51
170.405932
  0
LINE
  5
1B7
100
AcDbEntity
  8
M46
 62
     4
100
AcDbLine
 10
172.191742
 20
126.401174
 11
172.191742
 21
127.901174
  0
ARC
  5
1B8
100
AcDbEntity
  8
M46
 62
     4
100
AcDbCircle
 10
171.191742
 20
127.901174
 40
1.0
100
AcDbArc
 50
0.0
 51
90.0
  0
ARC
  5
1B9
100
AcDbEntity
  8
M46
 62
     4
100
AcDbCircle
 10
164.191742
 20
130.401174
 40
1.5
100
AcDbArc
 50
189.594068
 51
195.686478
  0
ARC
  5
1BA
100
AcDbEntity
  8
M46
 62
     4
100
AcDbCircle
 10
161.233702
 20
129.901174
 40
1.5
100
AcDbArc
 50
9.594068
 51
90.0
  0
LINE
  5
1BB
100
AcDbEntity
  8
M46
 62
     4
100
AcDbLine
 10
171.691742
 20
125.901174
 11
168.941742
 21
125.901174
  0
LINE
  5
1BC
100
AcDbEntity
  8
M46
 62
     4
100
AcDbLine
 10
171.691742
 20
125.901174
 11
172.191742
 21
126.401174
  0
LINE
  5
1BD
100
AcDbEntity
  8
M46
 62
     4
100
AcDbLine
 10
115.191742
 20
125.901174
 11
114.691742
 21
126.401174
  0
LINE
  5
1BE
100
AcDbEntity
  8
M46
 62
     1
100
AcDbLine
 10
100.941742
 20
89.151174
 11
100.941742
 21
110.651174
  0
LINE
  5
1BF
100
AcDbEntity
  8
M46
 62
     1
100
AcDbLine
 10
99.941742
 20
110.651174
 11
100.941742
 21
110.651174
  0
LINE
  5
1C0
100
AcDbEntity
  8
M46
 62
     1
100
AcDbLine
 10
99.941742
 20
89.151174
 11
100.941742
 21
89.151174
  0
LINE
  5
1C1
100
AcDbEntity
  8
M46
 62
     1
100
AcDbLine
 10
173.441742
 20
89.151174
 11
173.441742
 21
110.651174
  0
LINE
  5
1C2
100
AcDbEntity
  8
M46
 62
     1
100
AcDbLine
 10
174.441742
 20
110.651174
 11
174.441742
 21
89.151174
  0
LINE
  5
1C3
100
AcDbEntity
  8
M46
 62
     1
100
AcDbLine
 10
174.441742
 20
110.651174
 11
173.441742
 21
110.651174
  0
LINE
  5
1C4
100
AcDbEntity
  8
M46
 62
     1
100
AcDbLine
 10
174.441742
 20
89.151174
 11
173.441742
 21
89.151174
  0
LINE
  5
1C5
100
AcDbEntity
  8
M46
 62
    74
100
AcDbLine
 10
171.247608
 20
128.901174
 11
171.247608
 21
131.551174
  0
LINE
  5
1C6
100
AcDbEntity
  8
M46
 62
    74
100
AcDbLine
 10
171.247608
 20
131.551174
 11
162.747608
 21
131.551174
  0
LINE
  5
1C7
100
AcDbEntity
  8
M46
 62
    74
100
AcDbLine
 10
162.747608
 20
131.551174
 11
162.747608
 21
128.901174
  0
LINE
  5
1C8
100
AcDbEntity
  8
M46
 62
    74
100
AcDbLine
 10
164.191742
 20
128.901174
 11
171.247608
 21
128.901174
  0
LINE
  5
1C9
100
AcDbEntity
  8
M46
 62
    74
100
AcDbLine
 10
169.308209
 20
131.551174
 11
169.308209
 21
128.901174
  0
LINE
  5
1CA
100
AcDbEntity
  8
M46
 62
    74
100
AcDbLine
 10
164.687008
 20
131.551174
 11
164.687008
 21
128.901174
  0
LINE
  5
1CB
100
AcDbEntity
  8
M46
 62
    74
100
AcDbLine
 10
115.635875
 20
128.901174
 11
115.635875
 21
131.551174
  0
LINE
  5
1CC
100
AcDbEntity
  8
M46
 62
    74
100
AcDbLine
 10
115.635875
 20
131.551174
 11
124.135875
 21
131.551174
  0
LINE
  5
1CD
100
AcDbEntity
  8
M46
 62
    74
100
AcDbLine
 10
124.135875
 20
131.551174
 11
124.135875
 21
128.901174
  0
LINE
  5
1CE
100
AcDbEntity
  8
M46
 62
    74
100
AcDbLine
 10
122.691742
 20
128.901174
 11
115.635875
 21
128.901174
  0
LINE
  5
1CF
100
AcDbEntity
  8
M46
 62
    74
100
AcDbLine
 10
117.575275
 20
131.551174
 11
117.575275
 21
128.901174
  0
LINE
  5
1D0
100
AcDbEntity
  8
M46
 62
    74
100
AcDbLine
 10
122.196476
 20
131.551174
 11
122.196476
 21
128.901174
  0
LINE
  5
1D1
100
AcDbEntity
  8
M46
 62
   194
100
AcDbLine
 10
100.941742
 20
113.151174
 11
100.941742
 21
86.651174
  0
LINE
  5
1D2
100
AcDbEntity
  8
M46
 62
   194
100
AcDbLine
 10
171.441742
 20
125.901174
 11
115.441742
 21
125.901174
  0
LINE
  5
1D3
100
AcDbEntity
  8
M46
 62
   194
100
AcDbLine
 10
101.441742
 20
113.651174
 11
102.441742
 21
113.651174
  0
LINE
  5
1D4
100
AcDbEntity
  8
M46
 62
   194
100
AcDbLine
 10
101.441742
 20
86.151174
 11
102.441742
 21
86.151174
  0
ARC
  5
1D5
100
AcDbEntity
  8
M46
 62
   194
100
AcDbCircle
 10
102.441742
 20
87.651174
 40
1.5
100
AcDbArc
 50
270.0
 51
360.0
  0
LINE
  5
1D6
100
AcDbEntity
  8
M46
 62
   194
100
AcDbLine
 10
103.941742
 20
89.401174
 11
103.941742
 21
87.651174
  0
LINE
  5
1D7
100
AcDbEntity
  8
M46
 62
   194
100
AcDbLine
 10
105.441742
 20
90.901174
 11
119.441742
 21
90.901174
  0
ARC
  5
1D8
100
AcDbEntity
  8
M46
 62
   194
100
AcDbCircle
 10
105.441742
 20
89.401174
 40
1.5
100
AcDbArc
 50
90.0
 51
180.0
  0
LINE
  5
1D9
100
AcDbEntity
  8
M46
 62
   194
100
AcDbLine
 10
173.441742
 20
113.151174
 11
173.441742
 21
86.651174
  0
LINE
  5
1DA
100
AcDbEntity
  8
M46
 62
   194
100
AcDbLine
 10
172.941742
 20
86.151174
 11
171.941742
 21
86.151174
  0
ARC
  5
1DB
100
AcDbEntity
  8
M46
 62
   194
100
AcDbCircle
 10
171.941742
 20
87.651174
 40
1.5
100
AcDbArc
 50
204.624318
 51
270.0
  0
LINE
  5
1DC
100
AcDbEntity
  8
M46
 62
   194
100
AcDbLine
 10
165.941742
 20
68.901174
 11
165.941742
 21
86.401174
  0
ARC
  5
1DD
100
AcDbEntity
  8
M46
 62
   194
100
AcDbCircle
 10
119.441742
 20
89.401174
 40
1.5
100
AcDbArc
 50
0.0
 51
90.0
  0
ARC
  5
1DE
100
AcDbEntity
  8
M46
 62
   194
100
AcDbCircle
 10
102.441742
 20
115.151174
 40
1.5
100
AcDbArc
 50
270.0
 51
360.0
  0
LINE
  5
1DF
100
AcDbEntity
  8
M46
 62
   194
100
AcDbLine
 10
103.941742
 20
95.151174
 11
103.941742
 21
87.507074
  0
LINE
  5
1E0
100
AcDbEntity
  8
M46
 62
   194
100
AcDbLine
 10
114.941742
 20
125.401174
 11
114.941742
 21
123.401174
  0
LINE
  5
1E1
100
AcDbEntity
  8
M46
 62
   194
100
AcDbLine
 10
171.941742
 20
125.401174
 11
171.941742
 21
114.45395
  0
LINE
  5
1E2
100
AcDbEntity
  8
M46
 62
   194
100
AcDbLine
 10
106.941742
 20
124.401174
 11
113.941742
 21
124.401174
  0
ARC
  5
1E3
100
AcDbEntity
  8
M46
 62
   194
100
AcDbCircle
 10
113.941742
 20
125.401174
 40
1.0
100
AcDbArc
 50
270.0
 51
360.0
  0
ARC
  5
1E4
100
AcDbEntity
  8
M46
 62
   194
100
AcDbCircle
 10
106.941742
 20
121.401174
 40
3.0
100
AcDbArc
 50
90.0
 51
180.0
  0
LINE
  5
1E5
100
AcDbEntity
  8
M46
 62
   194
100
AcDbLine
 10
169.214564
 20
87.901174
 11
167.441742
 21
87.901174
  0
ARC
  5
1E6
100
AcDbEntity
  8
M46
 62
   194
100
AcDbCircle
 10
167.441742
 20
86.401174
 40
1.5
100
AcDbArc
 50
90.0
 51
180.0
  0
ARC
  5
1E7
100
AcDbEntity
  8
M46
 62
   194
100
AcDbCircle
 10
169.214564
 20
86.401174
 40
1.5
100
AcDbArc
 50
24.624318
 51
90.0
  0
ARC
  5
1E8
100
AcDbEntity
  8
M46
 62
   194
100
AcDbCircle
 10
172.941742
 20
114.651174
 40
1.0
100
AcDbArc
 50
180.0
 51
270.0
  0
LINE
  5
1E9
100
AcDbEntity
  8
M46
 62
   194
100
AcDbLine
 10
103.941742
 20
104.651174
 11
103.941742
 21
121.401174
  0
ARC
  5
1EA
100
AcDbEntity
  8
M46
 62
   194
100
AcDbCircle
 10
115.941742
 20
123.401174
 40
1.0
100
AcDbArc
 50
180.0
 51
270.0
  0
LINE
  5
1EB
100
AcDbEntity
  8
M46
 62
   194
100
AcDbLine
 10
170.441742
 20
95.151174
 11
170.441742
 21
87.507074
  0
LINE
  5
1EC
100
AcDbEntity
  8
M46
 62
   194
100
AcDbLine
 10
170.441742
 20
104.651174
 11
170.441742
 21
110.151174
  0
ARC
  5
1ED
100
AcDbEntity
  8
M46
 62
   194
100
AcDbCircle
 10
167.941742
 20
110.151174
 40
2.5
100
AcDbArc
 50
1.302755E-012
 51
90.0
  0
LINE
  5
1EE
100
AcDbEntity
  8
M46
 62
   194
100
AcDbLine
 10
170.819629
 20
112.903098
 11
171.273792
 21
113.205874
  0
ARC
  5
1EF
100
AcDbEntity
  8
M46
 62
   194
100
AcDbCircle
 10
189.017931
 20
99.901174
 40
25.0
100
AcDbArc
 50
150.708732
 51
207.1077
  0
LINE
  5
1F0
100
AcDbEntity
  8
M46
 62
   194
100
AcDbLine
 10
120.941742
 20
68.901174
 11
120.941742
 21
89.401174
  0
LINE
  5
1F1
100
AcDbEntity
  8
M46
 62
   194
100
AcDbLine
 10
169.987578
 20
112.651174
 11
118.616742
 21
112.651174
  0
LINE
  5
1F2
100
AcDbEntity
  8
M46
 62
   194
100
AcDbLine
 10
128.091742
 20
122.401174
 11
115.941742
 21
122.401174
  0
LINE
  5
1F3
100
AcDbEntity
  8
M46
 62
   194
100
AcDbLine
 10
158.791742
 20
122.401174
 11
170.941742
 21
122.401174
  0
LINE
  5
1F4
100
AcDbEntity
  8
M46
 62
   194
100
AcDbLine
 10
128.091742
 20
125.401174
 11
128.091742
 21
123.083558
  0
LINE
  5
1F5
100
AcDbEntity
  8
M46
 62
   194
100
AcDbLine
 10
158.791742
 20
125.401174
 11
158.791742
 21
123.083558
  0
ARC
  5
1F6
100
AcDbEntity
  8
M46
 62
   194
100
AcDbCircle
 10
170.941742
 20
123.401174
 40
1.0
100
AcDbArc
 50
270.0
 51
360.0
  0
ARC
  5
1F7
100
AcDbEntity
  8
M46
 62
   194
100
AcDbCircle
 10
169.987578
 20
114.151174
 40
1.5
100
AcDbArc
 50
270.0
 51
303.690068
  0
LINE
  5
1F8
100
AcDbEntity
  8
M46
 62
   194
100
AcDbLine
 10
105.941742
 20
97.151174
 11
105.941742
 21
102.651174
  0
LINE
  5
1F9
100
AcDbEntity
  8
M46
 62
   194
100
AcDbLine
 10
168.441742
 20
97.151174
 11
168.441742
 21
102.651174
  0
ARC
  5
1FA
100
AcDbEntity
  8
M46
 62
   194
100
AcDbCircle
 10
104.941742
 20
102.651174
 40
1.0
100
AcDbArc
 50
8.14222E-013
 51
90.0
  0
ARC
  5
1FB
100
AcDbEntity
  8
M46
 62
   194
100
AcDbCircle
 10
104.941742
 20
97.151174
 40
1.0
100
AcDbArc
 50
-90.0
 51
0.0
  0
ARC
  5
1FC
100
AcDbEntity
  8
M46
 62
   194
100
AcDbCircle
 10
104.941742
 20
95.151174
 40
1.0
100
AcDbArc
 50
90.0
 51
180.0
  0
ARC
  5
1FD
100
AcDbEntity
  8
M46
 62
   194
100
AcDbCircle
 10
104.941742
 20
104.651174
 40
1.0
100
AcDbArc
 50
180.0
 51
270.0
  0
ARC
  5
1FE
100
AcDbEntity
  8
M46
 62
   194
100
AcDbCircle
 10
169.441742
 20
95.151174
 40
1.0
100
AcDbArc
 50
0.0
 51
90.0
  0
ARC
  5
1FF
100
AcDbEntity
  8
M46
 62
   194
100
AcDbCircle
 10
169.441742
 20
97.151174
 40
1.0
100
AcDbArc
 50
180.0
 51
270.0
  0
ARC
  5
200
100
AcDbEntity
  8
M46
 62
   194
100
AcDbCircle
 10
169.441742
 20
102.651174
 40
1.0
100
AcDbArc
 50
90.0
 51
180.0
  0
ARC
  5
201
100
AcDbEntity
  8
M46
 62
   194
100
AcDbCircle
 10
169.441742
 20
104.651174
 40
1.0
100
AcDbArc
 50
270.0
 51
360.0
  0
ARC
  5
202
100
AcDbEntity
  8
M46
 62
   194
100
AcDbCircle
 10
170.441742
 20
114.45395
 40
1.5
100
AcDbArc
 50
303.690068
 51
360.0
  0
LINE
  5
203
100
AcDbEntity
  8
M46
 62
   194
100
AcDbLine
 10
120.941742
 20
90.901174
 11
125.733542
 21
111.491175
  0
ARC
  5
204
100
AcDbEntity
  8
M46
 62
   194
100
AcDbCircle
 10
127.1945
 20
111.151174
 40
1.5
100
AcDbArc
 50
90.0
 51
166.899059
  0
LINE
  5
205
100
AcDbEntity
  8
M46
 62
   194
100
AcDbLine
 10
101.441742
 20
113.651174
 11
100.941742
 21
113.151174
  0
LINE
  5
206
100
AcDbEntity
  8
M46
 62
   194
100
AcDbLine
 10
100.941742
 20
86.651174
 11
101.441742
 21
86.151174
  0
LINE
  5
207
100
AcDbEntity
  8
M46
 62
   194
100
AcDbLine
 10
173.441742
 20
113.151174
 11
172.941742
 21
113.651174
  0
LINE
  5
208
100
AcDbEntity
  8
M46
 62
   194
100
AcDbLine
 10
172.941742
 20
86.151174
 11
173.441742
 21
86.651174
  0
LINE
  5
209
100
AcDbEntity
  8
M46
 62
   194
100
AcDbLine
 10
172.941742
 20
113.651174
 11
172.941742
 21
86.151174
  0
LINE
  5
20A
100
AcDbEntity
  8
M46
 62
   194
100
AcDbLine
 10
101.441742
 20
113.651174
 11
101.441742
 21
86.151174
  0
LINE
  5
20B
100
AcDbEntity
  8
M46
 62
   194
100
AcDbLine
 10
171.941742
 20
125.401174
 11
171.441742
 21
125.901174
  0
LINE
  5
20C
100
AcDbEntity
  8
M46
 62
   194
100
AcDbLine
 10
115.441742
 20
125.901174
 11
114.941742
 21
125.401174
  0
LINE
  5
20D
100
AcDbEntity
  8
M46
 62
   194
100
AcDbLine
 10
171.941742
 20
125.401174
 11
114.941742
 21
125.401174
  0
LINE
  5
20E
100
AcDbEntity
  8
M46
 62
   194
100
AcDbLine
 10
135.941742
 20
98.901174
 11
150.941742
 21
98.901174
  0
LINE
  5
20F
100
AcDbEntity
  8
M46
 62
   194
100
AcDbLine
 10
150.941742
 20
98.901174
 11
147.691742
 21
102.401174
  0
LINE
  5
210
100
AcDbEntity
  8
M46
 62
   194
100
AcDbLine
 10
147.691742
 20
102.401174
 11
146.941742
 21
100.401174
  0
LINE
  5
211
100
AcDbEntity
  8
M46
 62
   194
100
AcDbLine
 10
143.441742
 20
100.401174
 11
146.898453
 21
100.401174
  0
LINE
  5
212
100
AcDbEntity
  8
M46
 62
   194
100
AcDbLine
 10
143.441742
 20
100.901174
 11
143.441742
 21
100.401174
  0
LINE
  5
213
100
AcDbEntity
  8
M46
 62
   194
100
AcDbLine
 10
143.441742
 20
100.901174
 11
136.941742
 21
100.901174
  0
LINE
  5
214
100
AcDbEntity
  8
M46
 62
   194
100
AcDbLine
 10
135.941742
 20
98.901174
 11
136.941742
 21
100.901174
  0
LINE
  5
215
100
AcDbEntity
  8
M46
 62
   194
100
AcDbLine
 10
118.616742
 20
120.276281
 11
118.616742
 21
114.013761
  0
LINE
  5
216
100
AcDbEntity
  8
M46
 62
   194
100
AcDbLine
 10
106.056371
 20
112.051174
 11
116.646713
 21
112.051174
  0
LINE
  5
217
100
AcDbEntity
  8
M46
 62
   194
100
AcDbLine
 10
158.941742
 20
63.401174
 11
158.941742
 21
64.901174
  0
LINE
  5
218
100
AcDbEntity
  8
M46
 62
   194
100
AcDbLine
 10
159.941742
 20
65.901174
 11
162.941742
 21
65.901174
  0
LINE
  5
219
100
AcDbEntity
  8
M46
  6
DASHDOT
 62
   194
100
AcDbLine
 10
143.441742
 20
136.885456
 11
143.441742
 21
60.201574
  0
LINE
  5
21A
100
AcDbEntity
  8
M46
 62
   194
100
AcDbLine
 10
133.941742
 20
62.401174
 11
128.941742
 21
62.401174
  0
LINE
  5
21B
100
AcDbEntity
  8
M46
 62
   194
100
AcDbLine
 10
123.941742
 20
65.901174
 11
126.941742
 21
65.901174
  0
LINE
  5
21C
100
AcDbEntity
  8
M46
 62
   194
100
AcDbLine
 10
134.941742
 20
63.401174
 11
134.941742
 21
64.901174
  0
LINE
  5
21D
100
AcDbEntity
  8
M46
 62
   194
100
AcDbLine
 10
127.941742
 20
63.401174
 11
127.941742
 21
64.901174
  0
LINE
  5
21E
100
AcDbEntity
  8
M46
 62
   194
100
AcDbLine
 10
135.941742
 20
65.901174
 11
150.941742
 21
65.901174
  0
LINE
  5
21F
100
AcDbEntity
  8
M46
 62
   194
100
AcDbLine
 10
152.941742
 20
62.401174
 11
157.941742
 21
62.401174
  0
LINE
  5
220
100
AcDbEntity
  8
M46
 62
   194
100
AcDbLine
 10
151.941742
 20
63.401174
 11
151.941742
 21
64.901174
  0
ARC
  5
221
100
AcDbEntity
  8
M46
 62
   194
100
AcDbCircle
 10
159.941742
 20
64.901174
 40
1.0
100
AcDbArc
 50
90.0
 51
180.0
  0
ARC
  5
222
100
AcDbEntity
  8
M46
 62
   194
100
AcDbCircle
 10
157.941742
 20
63.401174
 40
1.0
100
AcDbArc
 50
-90.0
 51
0.0
  0
ARC
  5
223
100
AcDbEntity
  8
M46
 62
   194
100
AcDbCircle
 10
162.941742
 20
68.901174
 40
3.0
100
AcDbArc
 50
270.0
 51
360.0
  0
ARC
  5
224
100
AcDbEntity
  8
M46
 62
   194
100
AcDbCircle
 10
123.941742
 20
68.901174
 40
3.0
100
AcDbArc
 50
180.0
 51
270.0
  0
ARC
  5
225
100
AcDbEntity
  8
M46
 62
   194
100
AcDbCircle
 10
126.941742
 20
64.901174
 40
1.0
100
AcDbArc
 50
0.0
 51
90.0
  0
ARC
  5
226
100
AcDbEntity
  8
M46
 62
   194
100
AcDbCircle
 10
128.941742
 20
63.401174
 40
1.0
100
AcDbArc
 50
180.0
 51
270.0
  0
ARC
  5
227
100
AcDbEntity
  8
M46
 62
   194
100
AcDbCircle
 10
133.941742
 20
63.401174
 40
1.0
100
AcDbArc
 50
270.0
 51
360.0
  0
ARC
  5
228
100
AcDbEntity
  8
M46
 62
   194
100
AcDbCircle
 10
135.941742
 20
64.901174
 40
1.0
100
AcDbArc
 50
90.0
 51
180.0
  0
ARC
  5
229
100
AcDbEntity
  8
M46
 62
   194
100
AcDbCircle
 10
152.941742
 20
63.401174
 40
1.0
100
AcDbArc
 50
180.0
 51
270.0
  0
ARC
  5
22A
100
AcDbEntity
  8
M46
 62
   194
100
AcDbCircle
 10
150.941742
 20
64.901174
 40
1.0
100
AcDbArc
 50
0.0
 51
90.0
  0
LINE
  5
22B
100
AcDbEntity
  8
M46
  6
DASHDOT
 62
   194
100
AcDbLine
 10
84.542232
 20
99.901174
 11
190.527995
 21
99.901174
  0
LINE
  5
22C
100
AcDbEntity
  8
M46
 62
   154
100
AcDbLine
 10
186.441742
 20
90.901174
 11
186.441742
 21
108.901174
  0
LINE
  5
22D
100
AcDbEntity
  8
M46
 62
   154
100
AcDbLine
 10
178.477213
 20
111.526174
 11
174.441742
 21
111.526174
  0
LINE
  5
22E
100
AcDbEntity
  8
M46
 62
   154
100
AcDbLine
 10
174.441742
 20
111.526174
 11
174.441742
 21
88.276174
  0
LINE
  5
22F
100
AcDbEntity
  8
M46
 62
   154
100
AcDbLine
 10
174.441742
 20
88.276174
 11
178.477213
 21
88.276174
  0
LINE
  5
230
100
AcDbEntity
  8
M46
 62
   154
100
AcDbLine
 10
185.441742
 20
109.901174
 11
180.441742
 21
109.901174
  0
LINE
  5
231
100
AcDbEntity
  8
M46
 62
   154
100
AcDbLine
 10
178.191742
 20
104.901174
 11
178.441742
 21
104.901174
  0
LINE
  5
232
100
AcDbEntity
  8
M46
 62
   154
100
AcDbLine
 10
179.441742
 20
110.79015
 11
179.441742
 21
89.012198
  0
LINE
  5
233
100
AcDbEntity
  8
M46
 62
   154
100
AcDbLine
 10
178.906901
 20
108.858777
 11
177.191742
 21
108.858777
  0
LINE
  5
234
100
AcDbEntity
  8
M46
 62
   154
100
AcDbLine
 10
177.191742
 20
109.401174
 11
177.191742
 21
105.901174
  0
LINE
  5
235
100
AcDbEntity
  8
M46
 62
   154
100
AcDbLine
 10
179.441742
 20
110.401174
 11
178.191742
 21
110.401174
  0
LINE
  5
236
100
AcDbEntity
  8
M46
 62
   154
100
AcDbLine
 10
174.441742
 20
102.151174
 11
177.191742
 21
102.151174
  0
LINE
  5
237
100
AcDbEntity
  8
M46
 62
   154
100
AcDbLine
 10
174.441742
 20
102.776174
 11
177.191742
 21
102.776174
  0
LINE
  5
238
100
AcDbEntity
  8
M46
 62
   154
100
AcDbLine
 10
174.441742
 20
97.651174
 11
177.191742
 21
97.651174
  0
LINE
  5
239
100
AcDbEntity
  8
M46
 62
   154
100
AcDbLine
 10
174.441742
 20
97.026174
 11
177.191742
 21
97.026174
  0
LINE
  5
23A
100
AcDbEntity
  8
M46
 62
   154
100
AcDbLine
 10
177.191742
 20
102.776174
 11
177.191742
 21
97.026174
  0
ARC
  5
23B
100
AcDbEntity
  8
M46
 62
   154
100
AcDbCircle
 10
185.441742
 20
108.901174
 40
1.0
100
AcDbArc
 50
0.0
 51
90.0
  0
ARC
  5
23C
100
AcDbEntity
  8
M46
 62
   154
100
AcDbCircle
 10
180.441742
 20
110.901174
 40
1.0
100
AcDbArc
 50
190.806923
 51
270.0
  0
ARC
  5
23D
100
AcDbEntity
  8
M46
 62
   154
100
AcDbCircle
 10
178.477213
 20
110.526174
 40
1.0
100
AcDbArc
 50
10.806923
 51
90.0
  0
ARC
  5
23E
100
AcDbEntity
  8
M46
 62
   154
100
AcDbCircle
 10
178.191742
 20
109.401174
 40
1.0
100
AcDbArc
 50
90.0
 51
180.0
  0
ARC
  5
23F
100
AcDbEntity
  8
M46
 62
   154
100
AcDbCircle
 10
178.191742
 20
105.901174
 40
1.0
100
AcDbArc
 50
180.0
 51
270.0
  0
ARC
  5
240
100
AcDbEntity
  8
M46
 62
   154
100
AcDbCircle
 10
178.441742
 20
103.901174
 40
1.0
100
AcDbArc
 50
0.0
 51
90.0
  0
LINE
  5
241
100
AcDbEntity
  8
M46
 62
   154
100
AcDbLine
 10
185.441742
 20
89.901174
 11
180.441742
 21
89.901174
  0
ARC
  5
242
100
AcDbEntity
  8
M46
 62
   154
100
AcDbCircle
 10
185.441742
 20
90.901174
 40
1.0
100
AcDbArc
 50
-90.0
 51
0.0
  0
ARC
  5
243
100
AcDbEntity
  8
M46
 62
   154
100
AcDbCircle
 10
180.441742
 20
88.901174
 40
1.0
100
AcDbArc
 50
90.0
 51
169.193077
  0
ARC
  5
244
100
AcDbEntity
  8
M46
 62
   154
100
AcDbCircle
 10
178.477213
 20
89.276174
 40
1.0
100
AcDbArc
 50
270.0
 51
349.193077
  0
LINE
  5
245
100
AcDbEntity
  8
M46
 62
   154
100
AcDbLine
 10
179.441742
 20
89.401174
 11
178.191742
 21
89.401174
  0
ARC
  5
246
100
AcDbEntity
  8
M46
 62
   154
100
AcDbCircle
 10
178.191742
 20
90.401174
 40
1.0
100
AcDbArc
 50
180.0
 51
270.0
  0
LINE
  5
247
100
AcDbEntity
  8
M46
 62
   154
100
AcDbLine
 10
178.906901
 20
90.943571
 11
177.191742
 21
90.943571
  0
LINE
  5
248
100
AcDbEntity
  8
M46
 62
   154
100
AcDbLine
 10
177.191742
 20
90.401174
 11
177.191742
 21
93.901174
  0
ARC
  5
249
100
AcDbEntity
  8
M46
 62
   154
100
AcDbCircle
 10
178.191742
 20
93.901174
 40
1.0
100
AcDbArc
 50
90.0
 51
180.0
  0
ARC
  5
24A
100
AcDbEntity
  8
M46
 62
   154
100
AcDbCircle
 10
178.441742
 20
95.901174
 40
1.0
100
AcDbArc
 50
-90.0
 51
0.0
  0
LINE
  5
24B
100
AcDbEntity
  8
M46
 62
   154
100
AcDbLine
 10
178.191742
 20
94.901174
 11
178.441742
 21
94.901174
  0
LINE
  5
24C
100
AcDbEntity
  8
M46
 62
   154
100
AcDbLine
 10
95.906271
 20
111.526174
 11
99.941742
 21
111.526174
  0
LINE
  5
24D
100
AcDbEntity
  8
M46
 62
   154
100
AcDbLine
 10
99.941742
 20
111.526174
 11
99.941742
 21
88.276174
  0
LINE
  5
24E
100
AcDbEntity
  8
M46
 62
   154
100
AcDbLine
 10
99.941742
 20
88.276174
 11
95.906271
 21
88.276174
  0
LINE
  5
24F
100
AcDbEntity
  8
M46
 62
   154
100
AcDbLine
 10
88.941742
 20
109.901174
 11
93.941742
 21
109.901174
  0
LINE
  5
250
100
AcDbEntity
  8
M46
 62
   154
100
AcDbLine
 10
96.191742
 20
104.901174
 11
95.941742
 21
104.901174
  0
LINE
  5
251
100
AcDbEntity
  8
M46
 62
   154
100
AcDbLine
 10
94.941742
 20
110.79015
 11
94.941742
 21
89.012198
  0
LINE
  5
252
100
AcDbEntity
  8
M46
 62
   154
100
AcDbLine
 10
95.476583
 20
108.858777
 11
97.191742
 21
108.858777
  0
LINE
  5
253
100
AcDbEntity
  8
M46
 62
   154
100
AcDbLine
 10
97.191742
 20
109.401174
 11
97.191742
 21
105.901174
  0
LINE
  5
254
100
AcDbEntity
  8
M46
 62
   154
100
AcDbLine
 10
94.941742
 20
110.401174
 11
96.191742
 21
110.401174
  0
LINE
  5
255
100
AcDbEntity
  8
M46
 62
   154
100
AcDbLine
 10
99.941742
 20
102.151174
 11
97.191742
 21
102.151174
  0
LINE
  5
256
100
AcDbEntity
  8
M46
 62
   154
100
AcDbLine
 10
99.941742
 20
102.776174
 11
97.191742
 21
102.776174
  0
LINE
  5
257
100
AcDbEntity
  8
M46
 62
   154
100
AcDbLine
 10
99.941742
 20
97.651174
 11
97.191742
 21
97.651174
  0
LINE
  5
258
100
AcDbEntity
  8
M46
 62
   154
100
AcDbLine
 10
99.941742
 20
97.026174
 11
97.191742
 21
97.026174
  0
LINE
  5
259
100
AcDbEntity
  8
M46
 62
   154
100
AcDbLine
 10
97.191742
 20
102.776174
 11
97.191742
 21
97.026174
  0
ARC
  5
25A
100
AcDbEntity
  8
M46
 62
   154
100
AcDbCircle
 10
88.941742
 20
108.901174
 40
1.0
100
AcDbArc
 50
90.0
 51
180.0
  0
ARC
  5
25B
100
AcDbEntity
  8
M46
 62
   154
100
AcDbCircle
 10
93.941742
 20
110.901174
 40
1.0
100
AcDbArc
 50
270.0
 51
349.193077
  0
ARC
  5
25C
100
AcDbEntity
  8
M46
 62
   154
100
AcDbCircle
 10
95.906271
 20
110.526174
 40
1.0
100
AcDbArc
 50
90.0
 51
169.193077
  0
ARC
  5
25D
100
AcDbEntity
  8
M46
 62
   154
100
AcDbCircle
 10
96.191742
 20
109.401174
 40
1.0
100
AcDbArc
 50
0.0
 51
90.0
  0
ARC
  5
25E
100
AcDbEntity
  8
M46
 62
   154
100
AcDbCircle
 10
96.191742
 20
105.901174
 40
1.0
100
AcDbArc
 50
-90.0
 51
0.0
  0
ARC
  5
25F
100
AcDbEntity
  8
M46
 62
   154
100
AcDbCircle
 10
95.941742
 20
103.901174
 40
1.0
100
AcDbArc
 50
90.0
 51
180.0
  0
LINE
  5
260
100
AcDbEntity
  8
M46
 62
   154
100
AcDbLine
 10
88.941742
 20
89.901174
 11
93.941742
 21
89.901174
  0
ARC
  5
261
100
AcDbEntity
  8
M46
 62
   154
100
AcDbCircle
 10
88.941742
 20
90.901174
 40
1.0
100
AcDbArc
 50
180.0
 51
270.0
  0
ARC
  5
262
100
AcDbEntity
  8
M46
 62
   154
100
AcDbCircle
 10
93.941742
 20
88.901174
 40
1.0
100
AcDbArc
 50
10.806923
 51
90.0
  0
ARC
  5
263
100
AcDbEntity
  8
M46
 62
   154
100
AcDbCircle
 10
95.906271
 20
89.276174
 40
1.0
100
AcDbArc
 50
190.806923
 51
270.0
  0
LINE
  5
264
100
AcDbEntity
  8
M46
 62
   154
100
AcDbLine
 10
94.941742
 20
89.401174
 11
96.191742
 21
89.401174
  0
ARC
  5
265
100
AcDbEntity
  8
M46
 62
   154
100
AcDbCircle
 10
96.191742
 20
90.401174
 40
1.0
100
AcDbArc
 50
270.0
 51
360.0
  0
LINE
  5
266
100
AcDbEntity
  8
M46
 62
   154
100
AcDbLine
 10
95.476583
 20
90.943571
 11
97.191742
 21
90.943571
  0
LINE
  5
267
100
AcDbEntity
  8
M46
 62
   154
100
AcDbLine
 10
97.191742
 20
90.401174
 11
97.191742
 21
93.901174
  0
ARC
  5
268
100
AcDbEntity
  8
M46
 62
   154
100
AcDbCircle
 10
96.191742
 20
93.901174
 40
1.0
100
AcDbArc
 50
0.0
 51
90.0
  0
ARC
  5
269
100
AcDbEntity
  8
M46
 62
   154
100
AcDbCircle
 10
95.941742
 20
95.901174
 40
1.0
100
AcDbArc
 50
180.0
 51
270.0
  0
LINE
  5
26A
100
AcDbEntity
  8
M46
 62
   154
100
AcDbLine
 10
96.191742
 20
94.901174
 11
95.941742
 21
94.901174
  0
LINE
  5
26B
100
AcDbEntity
  8
M46
 62
   154
100
AcDbLine
 10
87.941742
 20
108.901174
 11
87.941742
 21
90.901174
  0
LINE
  5
26C
100
AcDbEntity
  8
M46
 62
   253
100
AcDbLine
 10
94.441742
 20
104.151174
 11
91.791742
 21
104.151174
  0
LINE
  5
26D
100
AcDbEntity
  8
M46
 62
   253
100
AcDbLine
 10
91.791742
 20
104.151174
 11
91.791742
 21
95.651174
  0
LINE
  5
26E
100
AcDbEntity
  8
M46
 62
   253
100
AcDbLine
 10
91.791742
 20
95.651174
 11
94.441742
 21
95.651174
  0
LINE
  5
26F
100
AcDbEntity
  8
M46
 62
   253
100
AcDbLine
 10
94.441742
 20
95.651174
 11
94.441742
 21
104.151174
  0
LINE
  5
270
100
AcDbEntity
  8
M46
 62
   253
100
AcDbLine
 10
91.791742
 20
102.211774
 11
94.441742
 21
102.211774
  0
LINE
  5
271
100
AcDbEntity
  8
M46
 62
   253
100
AcDbLine
 10
91.791742
 20
97.590574
 11
94.441742
 21
97.590574
  0
LINE
  5
272
100
AcDbEntity
  8
M46
 62
   253
100
AcDbLine
 10
179.441742
 20
104.151174
 11
182.091742
 21
104.151174
  0
LINE
  5
273
100
AcDbEntity
  8
M46
 62
   253
100
AcDbLine
 10
182.091742
 20
104.151174
 11
182.091742
 21
95.651174
  0
LINE
  5
274
100
AcDbEntity
  8
M46
 62
   253
100
AcDbLine
 10
182.091742
 20
95.651174
 11
179.441742
 21
95.651174
  0
LINE
  5
275
100
AcDbEntity
  8
M46
 62
   253
100
AcDbLine
 10
179.441742
 20
95.651174
 11
179.441742
 21
104.151174
  0
LINE
  5
276
100
AcDbEntity
  8
M46
 62
   253
100
AcDbLine
 10
182.091742
 20
102.211774
 11
179.441742
 21
102.211774
  0
LINE
  5
277
100
AcDbEntity
  8
M46
 62
   253
100
AcDbLine
 10
182.091742
 20
97.590574
 11
179.441742
 21
97.590574
  0
LINE
  5
278
100
AcDbEntity
  8
M46
  6
DIVIDE
 62
     1
100
AcDbLine
 10
186.941742
 20
107.401174
 11
212.342316
 21
107.401174
  0
LINE
  5
279
100
AcDbEntity
  8
M46
  6
DIVIDE
 62
     1
100
AcDbLine
 10
186.941742
 20
92.401174
 11
212.342316
 21
92.401174
  0
ARC
  5
27A
100
AcDbEntity
  8
M46
  6
DIVIDE
 62
     1
100
AcDbCircle
 10
208.68958
 20
103.651174
 40
5.234977
100
AcDbArc
 50
-45.75276
 51
45.75276
  0
ARC
  5
27B
100
AcDbEntity
  8
M46
  6
DIVIDE
 62
     1
100
AcDbCircle
 10
215.995053
 20
96.151174
 40
5.234977
100
AcDbArc
 50
134.24724
 51
225.75276
  0
LINE
  5
27C
100
AcDbEntity
  8
M46
  6
DIVIDE
 62
     1
100
AcDbLine
 10
186.691742
 20
210.430393
 11
212.092316
 21
210.430393
  0
LINE
  5
27D
100
AcDbEntity
  8
M46
  6
DIVIDE
 62
     1
100
AcDbLine
 10
186.691742
 20
195.430393
 11
212.092316
 21
195.430393
  0
ARC
  5
27E
100
AcDbEntity
  8
M46
  6
DIVIDE
 62
     1
100
AcDbCircle
 10
208.43958
 20
206.680393
 40
5.234977
100
AcDbArc
 50
-45.75276
 51
45.75276
  0
ARC
  5
27F
100
AcDbEntity
  8
M46
  6
DIVIDE
 62
     1
100
AcDbCircle
 10
215.745053
 20
199.180393
 40
5.234977
100
AcDbArc
 50
134.24724
 51
225.75276
  0
LINE
  5
280
100
AcDbEntity
  8
M46
  6
DIVIDE
 62
     1
100
AcDbLine
 10
87.691742
 20
210.430393
 11
62.291167
 21
210.430393
  0
LINE
  5
281
100
AcDbEntity
  8
M46
  6
DIVIDE
 62
     1
100
AcDbLine
 10
87.691742
 20
195.430393
 11
62.291167
 21
195.430393
  0
ARC
  5
282
100
AcDbEntity
  8
M46
  6
DIVIDE
 62
     1
100
AcDbCircle
 10
65.943904
 20
206.680393
 40
5.234977
100
AcDbArc
 50
134.24724
 51
225.75276
  0
ARC
  5
283
100
AcDbEntity
  8
M46
  6
DIVIDE
 62
     1
100
AcDbCircle
 10
58.638431
 20
199.180393
 40
5.234977
100
AcDbArc
 50
314.24724
 51
405.75276
  0
LINE
  5
284
100
AcDbEntity
  8
M46
  6
DIVIDE
 62
     1
100
AcDbLine
 10
87.941742
 20
107.401174
 11
62.541167
 21
107.401174
  0
LINE
  5
285
100
AcDbEntity
  8
M46
  6
DIVIDE
 62
     1
100
AcDbLine
 10
87.941742
 20
92.401174
 11
62.541167
 21
92.401174
  0
ARC
  5
286
100
AcDbEntity
  8
M46
  6
DIVIDE
 62
     1
100
AcDbCircle
 10
66.193904
 20
103.651174
 40
5.234977
100
AcDbArc
 50
134.24724
 51
225.75276
  0
ARC
  5
287
100
AcDbEntity
  8
M46
  6
DIVIDE
 62
     1
100
AcDbCircle
 10
58.888431
 20
96.151174
 40
5.234977
100
AcDbArc
 50
314.24724
 51
405.75276
  0
ENDSEC
  0
SECTION
  2
OBJECTS
  0
DICTIONARY
  5
C
100
AcDbDictionary
  3
ACAD_GROUP
350
D
  3
ACAD_MLINESTYLE
350
E
  0
DICTIONARY
  5
D
102
{ACAD_REACTORS
330
C
102
}
100
AcDbDictionary
  0
DICTIONARY
  5
E
102
{ACAD_REACTORS
330
C
102
}
100
AcDbDictionary
  3
STANDARD
350
13
  0
MLINESTYLE
  5
13
102
{ACAD_REACTORS
330
E
102
}
100
AcDbMlineStyle
  2
STANDARD
 70
     0
  3

 62
     0
 51
90.0
 52
90.0
 71
     2
 49
0.5
 62
   256
  6
BYLAYER
 49
-0.5
 62
   256
  6
BYLAYER
  0
ENDSEC
  0
EOF
