  0
SECTION
  2
HEADER
  9
$ACADVER
  1
AC1012
  9
$INSBASE
 10
0.0
 20
0.0
  9
$VIEWCTR
 10
7.531722
 20
4.5
  9
$VIEWSIZE
 40
9.0
  9
$SNAPMODE
 70
     0
  9
$SNAPUNIT
 10
1.0
 20
1.0
  9
$SNAPBASE
 10
0.0
 20
0.0
  9
$SNAPANG
 50
0.0
  9
$SNAPSTYLE
 70
     0
  9
$SNAPISOPAIR
 70
     0
  9
$GRIDMODE
 70
     0
  9
$GRIDUNIT
 10
0.0
 20
0.0
  9
$ORTHOMODE
 70
     0
  9
$REGENMODE
 70
     1
  9
$FILLMODE
 70
     1
  9
$QTEXTMODE
 70
     0
  9
$DRAGMODE
 70
     2
  9
$LTSCALE
 40
1.0
  9
$OSMODE
 70
     0
  9
$ATTMODE
 70
     1
  9
$TEXTSIZE
 40
0.2
  9
$TRACEWID
 40
0.05
  9
$TEXTSTYLE
  7
STANDARD
  9
$CELTYPE
  6
BYLAYER
  9
$CECOLOR
 62
   256
  9
$DIMSCALE
 40
1.0
  9
$DIMASZ
 40
0.18
  9
$DIMEXO
 40
0.0625
  9
$DIMDLI
 40
0.38
  9
$DIMRND
 40
0.0
  9
$DIMDLE
 40
0.0
  9
$DIMEXE
 40
0.18
  9
$DIMTP
 40
0.0
  9
$DIMTM
 40
0.0
  9
$DIMTXT
 40
0.18
  9
$DIMCEN
 40
0.09
  9
$DIMTSZ
 40
0.0
  9
$DIMTOL
 70
     0
  9
$DIMLIM
 70
     0
  9
$DIMTIH
 70
     1
  9
$DIMTOH
 70
     1
  9
$DIMSE1
 70
     0
  9
$DIMSE2
 70
     0
  9
$DIMTAD
 70
     0
  9
$DIMZIN
 70
     0
  9
$DIMBLK
  1

  9
$LUNITS
 70
     2
  9
$LUPREC
 70
     4
  9
$AXISMODE
 70
     0
  9
$AXISUNIT
 10
0.0
 20
0.0
  9
$SKETCHINC
 40
0.1
  9
$FILLETRAD
 40
0.0
  9
$AUNITS
 70
     0
  9
$AUPREC
 70
     0
  9
$MENU
  1
ACAD
  9
$ELEVATION
 40
0.0
  9
$THICKNESS
 40
0.0
  9
$VIEWDIR
 10
0.0
 20
0.0
 30
1.0
  9
$LIMCHECK
 70
     0
  9
$BLIPMODE
 70
     1
  9
$CHAMFERA
 40
0.0
  9
$CHAMFERB
 40
0.0
  9
$FASTZOOM
 70
     1
  9
$SKPOLY
 70
     0
  9
$TDCREATE
 40
0000000.0000000000
  9
$TDUPDATE
 40
0000000.0000000000
  9
$TDINDWG
 40
0.0000000000
  9
$TDUSRTIMER
 40
0.0000000000
  9
$USRTIMER
 70
     1
  9
$ANGBASE
 50
0.0
  9
$ANGDIR
 70
     0
  9
$PDMODE
 70
     0
  9
$PDSIZE
 40
0.0
  9
$PLINEWID
 40
0.0
  9
$COORDS
 70
     0
  9
$USERI1
 70
     0
  9
$USERI2
 70
     0
  9
$USERI3
 70
     0
  9
$USERI4
 70
     0
  9
$USERI5
 70
     0
  9
$USERR1
 40
0.0
  9
$USERR2
 40
0.0
  9
$USERR3
 40
0.0
  9
$USERR4
 40
0.0
  9
$USERR5
 40
0.0
  9
$CLAYER
  8
M0
  9
$EXTMIN
 10
0.0
 20
0.0
  9
$EXTMAX
 10
420.0
 20
297.0
  9
$LIMMIN
 10
0.0
 20
0.0
  9
$LIMMAX
 10
420.0
 20
297.0
  9
$HANDSEED
  5
BB
  0
ENDSEC
  0
SECTION
  2
CLASSES
  0
ENDSEC
  0
SECTION
  2
TABLES
  0
TABLE
  2
VPORT
  5
8
100
AcDbSymbolTable
 70
     2
  0
VPORT
  5
14
100
AcDbSymbolTableRecord
100
AcDbViewportTableRecord
  2
*ACTIVE
 70
     0
 10
0.0
 20
0.0
 11
1.0
 21
1.0
 12
484.0
 22
297.0
 13
0.0
 23
0.0
 14
1.0
 24
1.0
 15
0.0
 25
0.0
 16
0.0
 26
0.0
 36
1.0
 17
0.0
 27
0.0
 37
0.0
 40
594.0
 41
2.0
 42
50.0
 43
0.0
 44
0.0
 50
0.0
 51
0.0
 71
     0
 72
   100
 73
     1
 74
     1
 75
     0
 76
     0
 77
     0
 78
     0
  0
ENDTAB
  0
TABLE
  2
LTYPE
  5
5
100
AcDbSymbolTable
 70
     5
  0
LTYPE
  5
15
100
AcDbSymbolTableRecord
100
AcDbLinetypeTableRecord
  2
BYBLOCK
 70
     0
  3

 72
    65
 73
     0
 40
0.0
  0
LTYPE
  5
16
100
AcDbSymbolTableRecord
100
AcDbLinetypeTableRecord
  2
BYLAYER
 70
     0
  3

 72
    65
 73
     0
 40
0.0
  0
LTYPE
  5
17
100
AcDbSymbolTableRecord
100
AcDbLinetypeTableRecord
  2
CONTINUOUS
 70
    64
  3
Solid line
 72
    65
 73
     0
 40
0.0
  0
LTYPE
  5
18
100
AcDbSymbolTableRecord
100
AcDbLinetypeTableRecord
  2
DASHED
 70
    64
  3
__ __ __ __ __ __ __ __ __ __ __ __ __ __ __ __
 72
    65
 73
     2
 40
0.75
 49
0.5
 74
     0
 49
-0.25
 74
     0
  0
LTYPE
  5
19
100
AcDbSymbolTableRecord
100
AcDbLinetypeTableRecord
  2
DASHDOT
 70
    64
  3
__ . __ . __ . __ . __ . __ . __ . __ . __ . __
 72
    65
 73
     4
 40
1.0
 49
0.5
 74
     0
 49
-0.25
 74
     0
 49
0.0
 74
     0
 49
-0.25
 74
     0
  0
LTYPE
  5
1A
100
AcDbSymbolTableRecord
100
AcDbLinetypeTableRecord
  2
DIVIDE
 70
    64
  3
____ . . ____ . . ____ . . ____ . . ____ . . __
 72
    65
 73
     6
 40
1.25
 49
0.5
 74
     0
 49
-0.25
 74
     0
 49
0.0
 74
     0
 49
-0.25
 74
     0
 49
0.0
 74
     0
 49
-0.25
 74
     0
  0
LTYPE
  5
1B
100
AcDbSymbolTableRecord
100
AcDbLinetypeTableRecord
  2
DOT
 70
    64
  3
. . . . . . . . . . . . . . . . . . . . . . . .
 72
    65
 73
     2
 40
0.25
 49
0.0
 74
     0
 49
-0.25
 74
     0
  0
ENDTAB
  0
TABLE
  2
LAYER
  5
2
100
AcDbSymbolTable
 70
   102
  0
LAYER
  5
F
100
AcDbSymbolTableRecord
100
AcDbLayerTableRecord
  2
0
 70
     0
 62
     7
  6
CONTINUOUS
  0
LAYER
  5
1C
100
AcDbSymbolTableRecord
100
AcDbLayerTableRecord
  2
DEFPOINTS
 70
     0
 62
     7
  6
CONTINUOUS
  0
LAYER
  5
1D
100
AcDbSymbolTableRecord
100
AcDbLayerTableRecord
  2
M0
 70
     0
 62
     3
  6
CONTINUOUS
  0
LAYER
  5
1E
100
AcDbSymbolTableRecord
100
AcDbLayerTableRecord
  2
DD0
 70
     0
 62
     4
  6
CONTINUOUS
  0
ENDTAB
  0
TABLE
  2
STYLE
  5
3
100
AcDbSymbolTable
 70
     2
  0
STYLE
  5
10
100
AcDbSymbolTableRecord
100
AcDbTextStyleTableRecord
  2
STANDARD
 70
     0
 40
0.0
 41
1.0
 50
0.0
 71
     0
 42
0.2
  3
txt
  4
BIGFONT
  0
ENDTAB
  0
TABLE
  2
VIEW
  5
6
100
AcDbSymbolTable
 70
     0
  0
ENDTAB
  0
TABLE
  2
UCS
  5
7
100
AcDbSymbolTable
 70
     0
  0
ENDTAB
  0
TABLE
  2
APPID
  5
9
100
AcDbSymbolTable
 70
     1
  0
APPID
  5
11
100
AcDbSymbolTableRecord
100
AcDbRegAppTableRecord
  2
ACAD
 70
     0
  0
ENDTAB
  0
TABLE
  2
DIMSTYLE
  5
A
100
AcDbSymbolTable
 70
     2
  0
DIMSTYLE
105
25
100
AcDbSymbolTableRecord
100
AcDbDimStyleTableRecord
  2
STANDARD
 70
     0
  3

  4

  5

  6
_OPEN
  7
_OPEN
 40
1.0
 41
3.0
 42
0.0
 43
8.0
 44
1.5
 45
0.0
 46
0.0
 47
0.0
 48
0.0
140
3.5
141
0.09
142
0.0
143
0.03937
144
1.0
145
0.0
146
1.0
147
1.0
 71
     0
 72
     0
 73
     0
 74
     0
 75
     0
 76
     0
 77
     3
 78
     8
170
     0
171
     2
172
     0
173
     1
174
     0
175
     0
176
     0
177
     0
178
     0
270
     2
271
     2
272
     4
273
     2
274
     2
340
10
275
     0
280
     0
281
     0
282
     0
283
     1
284
     0
285
     0
286
     0
287
     3
288
     0
  0
DIMSTYLE
105
26
100
AcDbSymbolTableRecord
100
AcDbDimStyleTableRecord
  2
LEADSTYL
 70
     0
  3

  4

  5

  6
_OPEN
  7
_OPEN
 40
1.0
 41
3.0
 42
0.0625
 43
0.38
 44
0.18
 45
0.0
 46
0.0
 47
0.0
 48
0.0
140
3.2
141
0.09
142
0.0
143
25.4
144
1.0
145
0.0
146
1.0
147
1.0
 71
     0
 72
     0
 73
     1
 74
     1
 75
     0
 76
     0
 77
     0
 78
     0
170
     0
171
     2
172
     0
173
     1
174
     0
175
     0
176
     0
177
     0
178
     0
270
     2
271
     4
272
     4
273
     2
274
     2
340
10
275
     0
280
     0
281
     0
282
     0
283
     1
284
     0
285
     0
286
     0
287
     3
288
     0
  0
ENDTAB
  0
TABLE
  2
BLOCK_RECORD
  5
1
100
AcDbSymbolTable
 70
     6
  0
BLOCK_RECORD
  5
1F
100
AcDbSymbolTableRecord
100
AcDbBlockTableRecord
  2
*MODEL_SPACE
  0
BLOCK_RECORD
  5
22
100
AcDbSymbolTableRecord
100
AcDbBlockTableRecord
  2
*PAPER_SPACE
  0
BLOCK_RECORD
  5
27
100
AcDbSymbolTableRecord
100
AcDbBlockTableRecord
  2
_NONE
  0
BLOCK_RECORD
  5
2B
100
AcDbSymbolTableRecord
100
AcDbBlockTableRecord
  2
_OPEN
  0
BLOCK_RECORD
  5
31
100
AcDbSymbolTableRecord
100
AcDbBlockTableRecord
  2
_CLOSED
  0
BLOCK_RECORD
  5
38
100
AcDbSymbolTableRecord
100
AcDbBlockTableRecord
  2
_ORIGIN
  0
BLOCK_RECORD
  5
3D
100
AcDbSymbolTableRecord
100
AcDbBlockTableRecord
  2
_DOT
  0
BLOCK_RECORD
  5
45
100
AcDbSymbolTableRecord
100
AcDbBlockTableRecord
  2
_OBLIQUE
  0
ENDTAB
  0
ENDSEC
  0
SECTION
  2
BLOCKS
  0
BLOCK
  5
20
100
AcDbEntity
  8
0
100
AcDbBlockBegin
  2
*MODEL_SPACE
 70
     0
 10
0.0
 20
0.0
 30
0.0
  3
*MODEL_SPACE
  1

  0
ENDBLK
  5
21
100
AcDbEntity
  8
0
100
AcDbBlockEnd
  0
BLOCK
  5
23
100
AcDbEntity
 67
     1
  8
0
100
AcDbBlockBegin
  2
*PAPER_SPACE
 70
     0
 10
0.0
 20
0.0
 30
0.0
  3
*PAPER_SPACE
  1

  0
ENDBLK
  5
24
100
AcDbEntity
 67
     1
  8
0
100
AcDbBlockEnd
  0
BLOCK
  5
28
100
AcDbEntity
  8
0
100
AcDbBlockBegin
  2
_NONE
 70
     0
 10
0.0
 20
0.0
  0
CIRCLE
  5
29
100
AcDbEntity
  8
0
 62
     0
100
AcDbCircle
 10
0.0
 20
0.0
 40
0.25
  0
ENDBLK
  5
2A
100
AcDbEntity
  8
0
100
AcDbBlockEnd
  0
BLOCK
  5
2C
100
AcDbEntity
  8
0
100
AcDbBlockBegin
  2
_OPEN
 70
     0
 10
0.0
 20
0.0
  0
LINE
  5
2D
100
AcDbEntity
  8
0
 62
     0
100
AcDbLine
 10
-0.965926
 20
0.258819
 11
0.0
 21
0.0
  0
LINE
  5
2E
100
AcDbEntity
  8
0
 62
     0
100
AcDbLine
 10
0.0
 20
0.0
 11
-0.965926
 21
-0.258819
  0
LINE
  5
2F
100
AcDbEntity
  8
0
 62
     0
100
AcDbLine
 10
0.0
 20
0.0
 11
-1.0
 21
0.0
  0
ENDBLK
  5
30
100
AcDbEntity
  8
0
100
AcDbBlockEnd
  0
BLOCK
  5
32
100
AcDbEntity
  8
0
100
AcDbBlockBegin
  2
_CLOSED
 70
     0
 10
0.0
 20
0.0
  0
LINE
  5
33
100
AcDbEntity
  8
0
 62
     0
100
AcDbLine
 10
-0.965926
 20
0.258819
 11
0.0
 21
0.0
  0
LINE
  5
34
100
AcDbEntity
  8
0
 62
     0
100
AcDbLine
 10
0.0
 20
0.0
 11
-0.965926
 21
-0.258819
  0
LINE
  5
35
100
AcDbEntity
  8
0
 62
     0
100
AcDbLine
 10
-0.965926
 20
0.258819
 11
-0.965926
 21
-0.258819
  0
LINE
  5
36
100
AcDbEntity
  8
0
 62
     0
100
AcDbLine
 10
0.0
 20
0.0
 11
-1.0
 21
0.0
  0
ENDBLK
  5
37
100
AcDbEntity
  8
0
100
AcDbBlockEnd
  0
BLOCK
  5
39
100
AcDbEntity
  8
0
100
AcDbBlockBegin
  2
_ORIGIN
 70
     0
 10
0.0
 20
0.0
  0
CIRCLE
  5
3A
100
AcDbEntity
  8
0
 62
     0
100
AcDbCircle
 10
0.0
 20
0.0
 40
0.5
  0
LINE
  5
3B
100
AcDbEntity
  8
0
 62
     0
100
AcDbLine
 10
0.0
 20
0.0
 11
-1.0
 21
0.0
  0
ENDBLK
  5
3C
100
AcDbEntity
  8
0
100
AcDbBlockEnd
  0
BLOCK
  5
3E
100
AcDbEntity
  8
0
100
AcDbBlockBegin
  2
_DOT
 70
     0
 10
0.0
 20
0.0
  0
POLYLINE
  5
3F
100
AcDbEntity
  8
0
 62
     0
100
AcDb2dPolyline
 66
     1
 70
     1
 40
0.5
 41
0.5
  0
VERTEX
  5
40
100
AcDbEntity
  8
0
 62
     0
100
AcDbVertex
100
AcDb2dVertex
 10
-0.25
 20
0.0
 42
1.0
  0
VERTEX
  5
41
100
AcDbEntity
  8
0
 62
     0
100
AcDbVertex
100
AcDb2dVertex
 10
0.25
 20
0.0
 42
1.0
  0
SEQEND
  5
42
100
AcDbEntity
  8
0
 62
     0
  0
LINE
  5
43
100
AcDbEntity
  8
0
 62
     0
100
AcDbLine
 10
-0.5
 20
0.0
 11
-1.0
 21
0.0
  0
ENDBLK
  5
44
100
AcDbEntity
  8
0
100
AcDbBlockEnd
  0
BLOCK
  5
46
100
AcDbEntity
  8
0
100
AcDbBlockBegin
  2
_OBLIQUE
 70
     0
 10
0.0
 20
0.0
  0
LINE
  5
47
100
AcDbEntity
  8
0
 62
     0
100
AcDbLine
 10
-0.353553
 20
-0.353553
 11
0.353553
 21
0.353553
  0
ENDBLK
  5
48
100
AcDbEntity
  8
0
100
AcDbBlockEnd
  0
ENDSEC
  0
SECTION
  2
ENTITIES
  0
LEADER
  5
49
100
AcDbEntity
  8
DD0
100
AcDbLeader
  3
LEADSTYL
 76
     3
 10
112.763611
 20
216.880768
 10
123.128242
 20
241.738754
 10
190.12825
 20
241.738754
340
4A
 77
     4
  0
TEXT
  5
4A
100
AcDbEntity
  8
DD0
100
AcDbText
 10
124.336576
 20
242.438751
 40
2.5
  1
標準（Ｌ）ＯＦＦ圧力　１３０ｋＰａ（吸上高さ３ｍ時）
 41
0.833333
  7
STANDARD
100
AcDbText
  0
LEADER
  5
4B
100
AcDbEntity
  8
DD0
100
AcDbLeader
  3
LEADSTYL
 76
     3
 10
92.773041
 20
224.880768
 10
108.917084
 20
255.960861
 10
175.917084
 20
255.960861
340
4C
 77
     4
  0
TEXT
  5
4C
100
AcDbEntity
  8
DD0
100
AcDbText
 10
110.125417
 20
256.660858
 40
2.5
  1
標準（Ｌ）ＯＦＦ圧力　１３０ｋＰａ（吸上高さ８ｍ時）
 41
0.833333
  7
STANDARD
100
AcDbText
  0
LEADER
  5
4D
100
AcDbEntity
  8
DD0
100
AcDbLeader
  3
LEADSTYL
 76
     3
 10
104.2938
 20
223.280762
 10
115.756218
 20
249.422653
 10
182.756226
 20
249.422653
340
4E
 77
     4
  0
TEXT
  5
4E
100
AcDbEntity
  8
DD0
100
AcDbText
 10
116.964552
 20
250.12265
 40
2.5
  1
高い（Ｈ）ＯＦＦ圧力　１７０ｋＰａ（吸上高さ３ｍ時）
 41
0.833333
  7
STANDARD
100
AcDbText
  0
LEADER
  5
4F
100
AcDbEntity
  8
DD0
100
AcDbLeader
  3
LEADSTYL
 76
     3
 10
92.907005
 20
92.072098
 10
102.437881
 20
59.046371
 10
169.437881
 20
59.046371
340
50
 77
     4
  0
TEXT
  5
50
100
AcDbEntity
  8
DD0
100
AcDbText
 10
103.646215
 20
59.746372
 40
2.5
  1
標準（Ｌ）ＯＦＦ圧力　２００ｋＰａ（吸上高さ３ｍ時）
 41
0.833333
  7
STANDARD
100
AcDbText
  0
LEADER
  5
51
100
AcDbEntity
  8
DD0
100
AcDbLeader
  3
LEADSTYL
 76
     3
 10
94.900002
 20
98.472099
 10
105.040466
 20
113.257347
 10
172.040466
 20
113.257347
340
52
 77
     4
  0
TEXT
  5
52
100
AcDbEntity
  8
DD0
100
AcDbText
 10
106.2488
 20
113.957344
 40
2.5
  1
高い（Ｈ）ＯＦＦ圧力　２４０ｋＰａ（吸上高さ３ｍ時）
 41
0.833333
  7
STANDARD
100
AcDbText
  0
LEADER
  5
53
100
AcDbEntity
  8
DD0
100
AcDbLeader
  3
LEADSTYL
 76
     3
 10
119.637581
 20
100.072098
 10
124.312187
 20
105.682419
 10
191.312195
 20
105.682419
340
54
 77
     4
  0
TEXT
  5
54
100
AcDbEntity
  8
DD0
100
AcDbText
 10
125.520521
 20
106.382416
 40
2.5
  1
標準（Ｌ）ＯＦＦ圧力　２００ｋＰａ（吸上高さ８ｍ時）
 41
0.833333
  7
STANDARD
100
AcDbText
  0
TEXT
  5
55
100
AcDbEntity
  8
M0
100
AcDbText
 10
40.443959
 20
270.085632
 40
7.0
  1
揚水性能
 41
0.780952
  7
STANDARD
100
AcDbText
  0
LINE
  5
56
100
AcDbEntity
  8
M0
100
AcDbLine
 10
67.628533
 20
278.881493
 11
37.628533
 21
278.881493
  0
LINE
  5
57
100
AcDbEntity
  8
M0
100
AcDbLine
 10
67.628533
 20
268.881493
 11
67.628533
 21
278.881493
  0
LINE
  5
58
100
AcDbEntity
  8
M0
100
AcDbLine
 10
37.628533
 20
268.881493
 11
67.628533
 21
268.881493
  0
LINE
  5
59
100
AcDbEntity
  8
M0
100
AcDbLine
 10
37.628533
 20
278.881493
 11
37.628533
 21
268.881493
  0
LINE
  5
5A
100
AcDbEntity
  8
M0
100
AcDbLine
 10
82.84922
 20
247.280763
 11
82.84922
 21
191.280763
  0
LINE
  5
5B
100
AcDbEntity
  8
M0
100
AcDbLine
 10
82.84922
 20
191.280763
 11
226.84922
 21
191.280763
  0
LINE
  5
5C
100
AcDbEntity
  8
M0
100
AcDbLine
 10
178.84922
 20
191.280763
 11
178.84922
 21
232.703333
  0
LINE
  5
5D
100
AcDbEntity
  8
M0
100
AcDbLine
 10
82.84922
 20
207.280763
 11
226.84922
 21
207.280763
  0
LINE
  5
5E
100
AcDbEntity
  8
M0
100
AcDbLine
 10
155.021464
 20
223.280763
 11
226.314673
 21
223.280763
  0
LINE
  5
5F
100
AcDbEntity
  8
M0
100
AcDbLine
 10
82.84922
 20
239.280763
 11
98.548756
 21
239.280763
  0
LINE
  5
60
100
AcDbEntity
  8
M0
100
AcDbLine
 10
114.84922
 20
191.280763
 11
114.84922
 21
232.633878
  0
LINE
  5
61
100
AcDbEntity
  8
M0
100
AcDbLine
 10
146.84922
 20
191.280763
 11
146.84922
 21
232.703333
  0
ARC
  5
62
100
AcDbEntity
  8
M0
100
AcDbCircle
 10
64.984845
 20
208.943317
 40
7.68
100
AcDbArc
 50
52.58592
 51
127.41408
  0
ARC
  5
63
100
AcDbEntity
  8
M0
100
AcDbCircle
 10
64.984845
 20
213.763275
 40
7.68
100
AcDbArc
 50
232.58592
 51
307.41408
  0
TEXT
  5
64
100
AcDbEntity
  8
M0
100
AcDbText
 10
61.784842
 20
231.897988
 40
5.12
  1
全
 41
1.25
  7
STANDARD
100
AcDbText
  0
TEXT
  5
65
100
AcDbEntity
  8
M0
100
AcDbText
 10
61.784842
 20
226.265988
 40
5.12
  1
揚
 41
1.25
  7
STANDARD
100
AcDbText
  0
TEXT
  5
66
100
AcDbEntity
  8
M0
100
AcDbText
 10
61.784842
 20
220.633988
 40
5.12
  1
程
 41
1.25
  7
STANDARD
100
AcDbText
  0
TEXT
  5
67
100
AcDbEntity
  8
M0
100
AcDbText
 10
61.784842
 20
215.001988
 40
5.12
  1
　
 41
1.25
  7
STANDARD
100
AcDbText
  0
TEXT
  5
68
100
AcDbEntity
  8
M0
100
AcDbText
 10
61.784842
 20
209.369988
 40
5.12
  1
ｍ
 41
1.25
  7
STANDARD
100
AcDbText
  0
TEXT
  5
69
100
AcDbEntity
  8
M0
100
AcDbText
 10
73.329017
 20
237.00073
 40
4.8
  1
３０
 41
0.611111
  7
STANDARD
100
AcDbText
  0
TEXT
  5
6A
100
AcDbEntity
  8
M0
100
AcDbText
 10
73.329017
 20
221.00073
 40
4.8
  1
２０
 41
0.611111
  7
STANDARD
100
AcDbText
  0
TEXT
  5
6B
100
AcDbEntity
  8
M0
100
AcDbText
 10
73.329017
 20
205.00073
 40
4.8
  1
１０
 41
0.611111
  7
STANDARD
100
AcDbText
  0
TEXT
  5
6C
100
AcDbEntity
  8
M0
100
AcDbText
 10
76.529016
 20
189.000732
 40
4.8
  1
０
 41
0.611111
  7
STANDARD
100
AcDbText
  0
TEXT
  5
6D
100
AcDbEntity
  8
M0
100
AcDbText
 10
79.729017
 20
183.238723
 40
4.8
  1
０
 41
0.611111
  7
STANDARD
100
AcDbText
  0
TEXT
  5
6E
100
AcDbEntity
  8
M0
100
AcDbText
 10
111.729016
 20
183.238723
 40
4.8
  1
１０
 41
0.611111
  7
STANDARD
100
AcDbText
  0
TEXT
  5
6F
100
AcDbEntity
  8
M0
100
AcDbText
 10
143.729019
 20
183.238723
 40
4.8
  1
２０
 41
0.611111
  7
STANDARD
100
AcDbText
  0
TEXT
  5
70
100
AcDbEntity
  8
M0
100
AcDbText
 10
175.729011
 20
183.238723
 40
4.8
  1
３０
 41
0.611111
  7
STANDARD
100
AcDbText
  0
TEXT
  5
71
100
AcDbEntity
  8
M0
100
AcDbText
 10
207.729011
 20
183.238724
 40
4.8
  1
４０
 41
0.611111
  7
STANDARD
100
AcDbText
  0
LINE
  5
72
100
AcDbEntity
  8
M0
100
AcDbLine
 10
210.84922
 20
191.280763
 11
210.84922
 21
233.339736
  0
LINE
  5
73
100
AcDbEntity
  8
M0
100
AcDbLine
 10
136.796093
 20
265.773569
 11
136.796095
 21
271.173569
  0
LINE
  5
74
100
AcDbEntity
  8
M0
100
AcDbLine
 10
136.796095
 20
271.173569
 11
171.496098
 21
271.173569
  0
LINE
  5
75
100
AcDbEntity
  8
M0
100
AcDbLine
 10
171.496098
 20
271.173569
 11
171.496096
 21
265.773569
  0
LINE
  5
76
100
AcDbEntity
  8
M0
100
AcDbLine
 10
171.496096
 20
265.773569
 11
136.796093
 21
265.773569
  0
TEXT
  5
77
100
AcDbEntity
  8
M0
100
AcDbText
 10
137.429426
 20
266.223569
 40
4.5
  1
　ＷＭ－Ｐ１２５Ｖ　
 41
0.62963
  7
STANDARD
100
AcDbText
  0
TEXT
  5
78
100
AcDbEntity
  8
M0
100
AcDbText
 10
120.368202
 20
172.294299
 40
7.68
  1
揚水量（Ｌ／分）
 41
0.611111
  7
STANDARD
100
AcDbText
  0
TEXT
  5
79
100
AcDbEntity
  8
M0
100
AcDbText
 10
83.09922
 20
164.671524
 40
4.5
  1
※破線部域では５０ｋＰａの圧力変動があります。
 41
0.777778
  7
STANDARD
100
AcDbText
  0
LINE
  5
7A
100
AcDbEntity
  8
M0
  6
DASHED
 62
     6
100
AcDbLine
 10
82.84922
 20
216.880763
 11
164.621464
 21
216.880763
  0
LINE
  5
7B
100
AcDbEntity
  8
M0
 62
     6
100
AcDbLine
 10
169.24922
 20
199.280763
 11
169.24922
 21
211.180763
  0
ARC
  5
7C
100
AcDbEntity
  8
M0
 62
     6
100
AcDbCircle
 10
164.24922
 20
211.180763
 40
5.0
100
AcDbArc
 50
0.0
 51
53.130102
  0
LINE
  5
7D
100
AcDbEntity
  8
M0
 62
     6
100
AcDbLine
 10
160.568466
 20
221.601266
 11
194.04922
 21
199.280763
  0
LINE
  5
7E
100
AcDbEntity
  8
M0
 62
     6
100
AcDbLine
 10
164.147441
 20
217.507097
 11
167.24922
 21
215.180763
  0
LINE
  5
7F
100
AcDbEntity
  8
M0
  6
DASHED
 62
     6
100
AcDbLine
 10
82.84922
 20
223.280763
 11
155.021464
 21
223.280763
  0
ARC
  5
80
100
AcDbEntity
  8
M0
 62
     6
100
AcDbCircle
 10
158.147441
 20
209.507097
 40
10.0
100
AcDbArc
 50
53.130102
 51
71.565051
  0
LINE
  5
81
100
AcDbEntity
  8
M0
 62
     6
100
AcDbLine
 10
143.64922
 20
224.880763
 11
161.309719
 21
218.99393
  0
LINE
  5
82
100
AcDbEntity
  8
M0
  6
DASHED
 62
     6
100
AcDbLine
 10
82.84922
 20
224.880763
 11
143.64922
 21
224.880763
  0
ARC
  5
83
100
AcDbEntity
  8
M0
 62
     6
100
AcDbCircle
 10
155.021464
 20
213.280763
 40
10.0
100
AcDbArc
 50
56.309932
 51
90.0
  0
ARC
  5
84
100
AcDbEntity
  8
M0
 62
     6
100
AcDbCircle
 10
164.621464
 20
206.880763
 40
10.0
100
AcDbArc
 50
56.309932
 51
90.0
  0
LINE
  5
85
100
AcDbEntity
  8
M0
100
AcDbLine
 10
82.84922
 20
127.272097
 11
82.84922
 21
55.272097
  0
LINE
  5
86
100
AcDbEntity
  8
M0
100
AcDbLine
 10
82.84922
 20
55.272097
 11
226.84922
 21
55.272097
  0
LINE
  5
87
100
AcDbEntity
  8
M0
100
AcDbLine
 10
114.84922
 20
55.272097
 11
114.84922
 21
57.462181
  0
LINE
  5
88
100
AcDbEntity
  8
M0
100
AcDbLine
 10
146.84922
 20
55.272097
 11
146.84922
 21
57.462181
  0
LINE
  5
89
100
AcDbEntity
  8
M0
100
AcDbLine
 10
210.84922
 20
55.272097
 11
210.84922
 21
127.272097
  0
LINE
  5
8A
100
AcDbEntity
  8
M0
100
AcDbLine
 10
82.84922
 20
71.272097
 11
226.84922
 21
71.272097
  0
LINE
  5
8B
100
AcDbEntity
  8
M0
100
AcDbLine
 10
82.84922
 20
87.272097
 11
226.84922
 21
87.272097
  0
LINE
  5
8C
100
AcDbEntity
  8
M0
100
AcDbLine
 10
82.84922
 20
103.272097
 11
226.84922
 21
103.272097
  0
LINE
  5
8D
100
AcDbEntity
  8
M0
100
AcDbLine
 10
82.84922
 20
119.272097
 11
226.84922
 21
119.272097
  0
LINE
  5
8E
100
AcDbEntity
  8
M0
100
AcDbLine
 10
146.84922
 20
119.272097
 11
146.84922
 21
127.272097
  0
LINE
  5
8F
100
AcDbEntity
  8
M0
100
AcDbLine
 10
178.84922
 20
112.988376
 11
178.84922
 21
127.272097
  0
LINE
  5
90
100
AcDbEntity
  8
M0
100
AcDbLine
 10
114.84922
 20
119.272097
 11
114.84922
 21
127.272097
  0
LINE
  5
91
100
AcDbEntity
  8
M0
100
AcDbLine
 10
114.84922
 20
64.930472
 11
114.84922
 21
109.149086
  0
LINE
  5
92
100
AcDbEntity
  8
M0
100
AcDbLine
 10
146.84922
 20
64.930472
 11
146.84922
 21
103.272097
  0
TEXT
  5
93
100
AcDbEntity
  8
M0
100
AcDbText
 10
120.368202
 20
36.285632
 40
7.68
  1
揚水量（Ｌ／分）
 41
0.611111
  7
STANDARD
100
AcDbText
  0
TEXT
  5
94
100
AcDbEntity
  8
M0
100
AcDbText
 10
207.729013
 20
47.230059
 40
4.8
  1
４０
 41
0.611111
  7
STANDARD
100
AcDbText
  0
TEXT
  5
95
100
AcDbEntity
  8
M0
100
AcDbText
 10
175.729011
 20
47.230059
 40
4.8
  1
３０
 41
0.611111
  7
STANDARD
100
AcDbText
  0
TEXT
  5
96
100
AcDbEntity
  8
M0
100
AcDbText
 10
143.72902
 20
47.230059
 40
4.8
  1
２０
 41
0.611111
  7
STANDARD
100
AcDbText
  0
TEXT
  5
97
100
AcDbEntity
  8
M0
100
AcDbText
 10
111.729017
 20
47.230059
 40
4.8
  1
１０
 41
0.611111
  7
STANDARD
100
AcDbText
  0
TEXT
  5
98
100
AcDbEntity
  8
M0
100
AcDbText
 10
76.529016
 20
52.992068
 40
4.8
  1
０
 41
0.611111
  7
STANDARD
100
AcDbText
  0
TEXT
  5
99
100
AcDbEntity
  8
M0
100
AcDbText
 10
79.729013
 20
47.230059
 40
4.8
  1
０
 41
0.611111
  7
STANDARD
100
AcDbText
  0
TEXT
  5
9A
100
AcDbEntity
  8
M0
100
AcDbText
 10
73.32902
 20
68.992066
 40
4.8
  1
１０
 41
0.611111
  7
STANDARD
100
AcDbText
  0
TEXT
  5
9B
100
AcDbEntity
  8
M0
100
AcDbText
 10
61.78484
 20
95.889325
 40
5.12
  1
全
 41
1.25
  7
STANDARD
100
AcDbText
  0
TEXT
  5
9C
100
AcDbEntity
  8
M0
100
AcDbText
 10
61.78484
 20
90.257325
 40
5.12
  1
揚
 41
1.25
  7
STANDARD
100
AcDbText
  0
TEXT
  5
9D
100
AcDbEntity
  8
M0
100
AcDbText
 10
61.78484
 20
84.625325
 40
5.12
  1
程
 41
1.25
  7
STANDARD
100
AcDbText
  0
TEXT
  5
9E
100
AcDbEntity
  8
M0
100
AcDbText
 10
61.78484
 20
78.993325
 40
5.12
  1
　
 41
1.25
  7
STANDARD
100
AcDbText
  0
TEXT
  5
9F
100
AcDbEntity
  8
M0
100
AcDbText
 10
61.78484
 20
73.361325
 40
5.12
  1
ｍ
 41
1.25
  7
STANDARD
100
AcDbText
  0
TEXT
  5
A0
100
AcDbEntity
  8
M0
100
AcDbText
 10
73.32902
 20
84.992064
 40
4.8
  1
２０
 41
0.611111
  7
STANDARD
100
AcDbText
  0
TEXT
  5
A1
100
AcDbEntity
  8
M0
100
AcDbText
 10
73.32902
 20
100.992065
 40
4.8
  1
３０
 41
0.611111
  7
STANDARD
100
AcDbText
  0
TEXT
  5
A2
100
AcDbEntity
  8
M0
100
AcDbText
 10
73.32902
 20
116.992064
 40
4.8
  1
４０
 41
0.611111
  7
STANDARD
100
AcDbText
  0
ARC
  5
A3
100
AcDbEntity
  8
M0
100
AcDbCircle
 10
64.984845
 20
77.75461
 40
7.68
100
AcDbArc
 50
232.58592
 51
307.41408
  0
ARC
  5
A4
100
AcDbEntity
  8
M0
100
AcDbCircle
 10
64.984845
 20
72.934652
 40
7.68
100
AcDbArc
 50
52.58592
 51
127.41408
  0
TEXT
  5
A5
100
AcDbEntity
  8
M0
100
AcDbText
 10
83.09922
 20
28.662859
 40
4.5
  1
※破線部域では５０ｋＰａの圧力変動があります。
 41
0.777778
  7
STANDARD
100
AcDbText
  0
LINE
  5
A6
100
AcDbEntity
  8
M0
100
AcDbLine
 10
178.84922
 20
55.272097
 11
178.84922
 21
103.272097
  0
LINE
  5
A7
100
AcDbEntity
  8
M0
100
AcDbLine
 10
136.796093
 20
134.764903
 11
136.796095
 21
140.164903
  0
LINE
  5
A8
100
AcDbEntity
  8
M0
100
AcDbLine
 10
136.796095
 20
140.164903
 11
171.496094
 21
140.164903
  0
LINE
  5
A9
100
AcDbEntity
  8
M0
100
AcDbLine
 10
171.496094
 20
140.164903
 11
171.496093
 21
134.764903
  0
LINE
  5
AA
100
AcDbEntity
  8
M0
100
AcDbLine
 10
171.496093
 20
134.764903
 11
136.796093
 21
134.764903
  0
TEXT
  5
AB
100
AcDbEntity
  8
M0
100
AcDbText
 10
137.429427
 20
135.214903
 40
4.5
  1
　ＷＭ－Ｐ２００Ｖ　
 41
0.62963
  7
STANDARD
100
AcDbText
  0
LINE
  5
AC
100
AcDbEntity
  8
M0
  6
DASHDOT
 62
   154
100
AcDbLine
 10
82.84922
 20
88.872097
 11
82.84922
 21
98.472097
  0
LINE
  5
AD
100
AcDbEntity
  8
M0
 62
   234
100
AcDbLine
 10
215.143211
 20
63.272097
 11
176.155868
 21
90.709886
  0
LINE
  5
AE
100
AcDbEntity
  8
M0
  6
DASHED
 62
   234
100
AcDbLine
 10
82.84922
 20
92.072097
 11
171.117157
 21
92.072097
  0
ARC
  5
AF
100
AcDbEntity
  8
M0
 62
   234
100
AcDbCircle
 10
171.117157
 20
82.072097
 40
10.0
100
AcDbArc
 50
59.743563
 51
90.0
  0
LINE
  5
B0
100
AcDbEntity
  8
M0
 62
   234
100
AcDbLine
 10
176.155868
 20
90.709886
 11
165.184439
 21
97.109886
  0
ARC
  5
B1
100
AcDbEntity
  8
M0
 62
   234
100
AcDbCircle
 10
160.145729
 20
88.472097
 40
10.0
100
AcDbArc
 50
59.743563
 51
90.0
  0
LINE
  5
B2
100
AcDbEntity
  8
M0
  6
DASHED
 62
   234
100
AcDbLine
 10
160.145729
 20
98.472097
 11
82.84922
 21
98.472097
  0
LINE
  5
B3
100
AcDbEntity
  8
M0
  6
DASHED
 62
   234
100
AcDbLine
 10
82.84922
 20
100.072097
 11
163.975315
 21
100.072097
  0
ARC
  5
B4
100
AcDbEntity
  8
M0
 62
   234
100
AcDbCircle
 10
163.975315
 20
95.072097
 40
5.0
100
AcDbArc
 50
51.340192
 51
90.0
  0
LINE
  5
B5
100
AcDbEntity
  8
M0
 62
   234
100
AcDbLine
 10
167.09879
 20
98.976441
 11
172.511622
 21
94.646176
  0
LINE
  5
B6
100
AcDbEntity
  8
M0
 62
   234
100
AcDbLine
 10
175.438352
 20
87.974992
 11
174.177278
 21
92.178571
  0
LINE
  5
B7
100
AcDbEntity
  8
M0
 62
   234
100
AcDbLine
 10
175.64922
 20
86.538253
 11
175.64922
 21
63.272097
  0
ARC
  5
B8
100
AcDbEntity
  8
M0
 62
   234
100
AcDbCircle
 10
169.388146
 20
90.741832
 40
5.0
100
AcDbArc
 50
16.699244
 51
51.340192
  0
ARC
  5
B9
100
AcDbEntity
  8
M0
 62
   234
100
AcDbCircle
 10
170.64922
 20
86.538253
 40
5.0
100
AcDbArc
 50
0.0
 51
16.699244
  0
ENDSEC
  0
SECTION
  2
OBJECTS
  0
DICTIONARY
  5
C
100
AcDbDictionary
  3
ACAD_GROUP
350
D
  3
ACAD_MLINESTYLE
350
E
  0
DICTIONARY
  5
D
102
{ACAD_REACTORS
330
C
102
}
100
AcDbDictionary
  0
DICTIONARY
  5
E
102
{ACAD_REACTORS
330
C
102
}
100
AcDbDictionary
  3
STANDARD
350
13
  0
MLINESTYLE
  5
13
102
{ACAD_REACTORS
330
E
102
}
100
AcDbMlineStyle
  2
STANDARD
 70
     0
  3

 62
     0
 51
90.0
 52
90.0
 71
     2
 49
0.5
 62
   256
  6
BYLAYER
 49
-0.5
 62
   256
  6
BYLAYER
  0
ENDSEC
  0
EOF
