  0
SECTION
  2
HEADER
  9
$ACADVER
  1
AC1012
  9
$INSBASE
 10
0.0
 20
0.0
  9
$VIEWCTR
 10
7.531722
 20
4.5
  9
$VIEWSIZE
 40
9.0
  9
$SNAPMODE
 70
     0
  9
$SNAPUNIT
 10
1.0
 20
1.0
  9
$SNAPBASE
 10
0.0
 20
0.0
  9
$SNAPANG
 50
0.0
  9
$SNAPSTYLE
 70
     0
  9
$SNAPISOPAIR
 70
     0
  9
$GRIDMODE
 70
     0
  9
$GRIDUNIT
 10
0.0
 20
0.0
  9
$ORTHOMODE
 70
     0
  9
$REGENMODE
 70
     1
  9
$FILLMODE
 70
     1
  9
$QTEXTMODE
 70
     0
  9
$DRAGMODE
 70
     2
  9
$LTSCALE
 40
1.0
  9
$OSMODE
 70
     0
  9
$ATTMODE
 70
     1
  9
$TEXTSIZE
 40
0.2
  9
$TRACEWID
 40
0.05
  9
$TEXTSTYLE
  7
STANDARD
  9
$CELTYPE
  6
BYLAYER
  9
$CECOLOR
 62
   256
  9
$DIMSCALE
 40
1.0
  9
$DIMASZ
 40
0.18
  9
$DIMEXO
 40
0.0625
  9
$DIMDLI
 40
0.38
  9
$DIMRND
 40
0.0
  9
$DIMDLE
 40
0.0
  9
$DIMEXE
 40
0.18
  9
$DIMTP
 40
0.0
  9
$DIMTM
 40
0.0
  9
$DIMTXT
 40
0.18
  9
$DIMCEN
 40
0.09
  9
$DIMTSZ
 40
0.0
  9
$DIMTOL
 70
     0
  9
$DIMLIM
 70
     0
  9
$DIMTIH
 70
     1
  9
$DIMTOH
 70
     1
  9
$DIMSE1
 70
     0
  9
$DIMSE2
 70
     0
  9
$DIMTAD
 70
     0
  9
$DIMZIN
 70
     0
  9
$DIMBLK
  1

  9
$LUNITS
 70
     2
  9
$LUPREC
 70
     4
  9
$AXISMODE
 70
     0
  9
$AXISUNIT
 10
0.0
 20
0.0
  9
$SKETCHINC
 40
0.1
  9
$FILLETRAD
 40
0.0
  9
$AUNITS
 70
     0
  9
$AUPREC
 70
     0
  9
$MENU
  1
ACAD
  9
$ELEVATION
 40
0.0
  9
$THICKNESS
 40
0.0
  9
$VIEWDIR
 10
0.0
 20
0.0
 30
1.0
  9
$LIMCHECK
 70
     0
  9
$BLIPMODE
 70
     1
  9
$CHAMFERA
 40
0.0
  9
$CHAMFERB
 40
0.0
  9
$FASTZOOM
 70
     1
  9
$SKPOLY
 70
     0
  9
$TDCREATE
 40
0000000.0000000000
  9
$TDUPDATE
 40
0000000.0000000000
  9
$TDINDWG
 40
0.0000000000
  9
$TDUSRTIMER
 40
0.0000000000
  9
$USRTIMER
 70
     1
  9
$ANGBASE
 50
0.0
  9
$ANGDIR
 70
     0
  9
$PDMODE
 70
     0
  9
$PDSIZE
 40
0.0
  9
$PLINEWID
 40
0.0
  9
$COORDS
 70
     0
  9
$USERI1
 70
     0
  9
$USERI2
 70
     0
  9
$USERI3
 70
     0
  9
$USERI4
 70
     0
  9
$USERI5
 70
     0
  9
$USERR1
 40
0.0
  9
$USERR2
 40
0.0
  9
$USERR3
 40
0.0
  9
$USERR4
 40
0.0
  9
$USERR5
 40
0.0
  9
$CLAYER
  8
M80
  9
$EXTMIN
 10
0.0
 20
0.0
  9
$EXTMAX
 10
420.0
 20
297.0
  9
$LIMMIN
 10
0.0
 20
0.0
  9
$LIMMAX
 10
420.0
 20
297.0
  9
$HANDSEED
  5
16B
  0
ENDSEC
  0
SECTION
  2
CLASSES
  0
ENDSEC
  0
SECTION
  2
TABLES
  0
TABLE
  2
VPORT
  5
8
100
AcDbSymbolTable
 70
     2
  0
VPORT
  5
14
100
AcDbSymbolTableRecord
100
AcDbViewportTableRecord
  2
*ACTIVE
 70
     0
 10
0.0
 20
0.0
 11
1.0
 21
1.0
 12
484.0
 22
297.0
 13
0.0
 23
0.0
 14
1.0
 24
1.0
 15
0.0
 25
0.0
 16
0.0
 26
0.0
 36
1.0
 17
0.0
 27
0.0
 37
0.0
 40
594.0
 41
2.0
 42
50.0
 43
0.0
 44
0.0
 50
0.0
 51
0.0
 71
     0
 72
   100
 73
     1
 74
     1
 75
     0
 76
     0
 77
     0
 78
     0
  0
ENDTAB
  0
TABLE
  2
LTYPE
  5
5
100
AcDbSymbolTable
 70
     5
  0
LTYPE
  5
15
100
AcDbSymbolTableRecord
100
AcDbLinetypeTableRecord
  2
BYBLOCK
 70
     0
  3

 72
    65
 73
     0
 40
0.0
  0
LTYPE
  5
16
100
AcDbSymbolTableRecord
100
AcDbLinetypeTableRecord
  2
BYLAYER
 70
     0
  3

 72
    65
 73
     0
 40
0.0
  0
LTYPE
  5
17
100
AcDbSymbolTableRecord
100
AcDbLinetypeTableRecord
  2
CONTINUOUS
 70
    64
  3
Solid line
 72
    65
 73
     0
 40
0.0
  0
LTYPE
  5
18
100
AcDbSymbolTableRecord
100
AcDbLinetypeTableRecord
  2
DASHED
 70
    64
  3
__ __ __ __ __ __ __ __ __ __ __ __ __ __ __ __
 72
    65
 73
     2
 40
0.75
 49
0.5
 74
     0
 49
-0.25
 74
     0
  0
LTYPE
  5
19
100
AcDbSymbolTableRecord
100
AcDbLinetypeTableRecord
  2
DASHDOT
 70
    64
  3
__ . __ . __ . __ . __ . __ . __ . __ . __ . __
 72
    65
 73
     4
 40
1.0
 49
0.5
 74
     0
 49
-0.25
 74
     0
 49
0.0
 74
     0
 49
-0.25
 74
     0
  0
LTYPE
  5
1A
100
AcDbSymbolTableRecord
100
AcDbLinetypeTableRecord
  2
DIVIDE
 70
    64
  3
____ . . ____ . . ____ . . ____ . . ____ . . __
 72
    65
 73
     6
 40
1.25
 49
0.5
 74
     0
 49
-0.25
 74
     0
 49
0.0
 74
     0
 49
-0.25
 74
     0
 49
0.0
 74
     0
 49
-0.25
 74
     0
  0
LTYPE
  5
1B
100
AcDbSymbolTableRecord
100
AcDbLinetypeTableRecord
  2
DOT
 70
    64
  3
. . . . . . . . . . . . . . . . . . . . . . . .
 72
    65
 73
     2
 40
0.25
 49
0.0
 74
     0
 49
-0.25
 74
     0
  0
ENDTAB
  0
TABLE
  2
LAYER
  5
2
100
AcDbSymbolTable
 70
   102
  0
LAYER
  5
F
100
AcDbSymbolTableRecord
100
AcDbLayerTableRecord
  2
0
 70
     0
 62
     7
  6
CONTINUOUS
  0
LAYER
  5
1C
100
AcDbSymbolTableRecord
100
AcDbLayerTableRecord
  2
DEFPOINTS
 70
     0
 62
     7
  6
CONTINUOUS
  0
LAYER
  5
1D
100
AcDbSymbolTableRecord
100
AcDbLayerTableRecord
  2
M0
 70
     0
 62
     3
  6
CONTINUOUS
  0
LAYER
  5
1E
100
AcDbSymbolTableRecord
100
AcDbLayerTableRecord
  2
DD0
 70
     0
 62
     4
  6
CONTINUOUS
  0
ENDTAB
  0
TABLE
  2
STYLE
  5
3
100
AcDbSymbolTable
 70
     2
  0
STYLE
  5
10
100
AcDbSymbolTableRecord
100
AcDbTextStyleTableRecord
  2
STANDARD
 70
     0
 40
0.0
 41
1.0
 50
0.0
 71
     0
 42
0.2
  3
txt
  4
BIGFONT
  0
ENDTAB
  0
TABLE
  2
VIEW
  5
6
100
AcDbSymbolTable
 70
     0
  0
ENDTAB
  0
TABLE
  2
UCS
  5
7
100
AcDbSymbolTable
 70
     0
  0
ENDTAB
  0
TABLE
  2
APPID
  5
9
100
AcDbSymbolTable
 70
     1
  0
APPID
  5
11
100
AcDbSymbolTableRecord
100
AcDbRegAppTableRecord
  2
ACAD
 70
     0
  0
ENDTAB
  0
TABLE
  2
DIMSTYLE
  5
A
100
AcDbSymbolTable
 70
     2
  0
DIMSTYLE
105
25
100
AcDbSymbolTableRecord
100
AcDbDimStyleTableRecord
  2
STANDARD
 70
     0
  3

  4

  5

  6
_OPEN
  7
_OPEN
 40
1.0
 41
3.0
 42
0.0
 43
8.0
 44
1.5
 45
0.0
 46
0.0
 47
0.0
 48
0.0
140
3.5
141
0.09
142
0.0
143
0.03937
144
1.0
145
0.0
146
1.0
147
1.0
 71
     0
 72
     0
 73
     0
 74
     0
 75
     0
 76
     0
 77
     3
 78
     8
170
     0
171
     2
172
     0
173
     1
174
     0
175
     0
176
     0
177
     0
178
     0
270
     2
271
     2
272
     4
273
     2
274
     2
340
10
275
     0
280
     0
281
     0
282
     0
283
     1
284
     0
285
     0
286
     0
287
     3
288
     0
  0
DIMSTYLE
105
26
100
AcDbSymbolTableRecord
100
AcDbDimStyleTableRecord
  2
LEADSTYL
 70
     0
  3

  4

  5

  6
_OPEN
  7
_OPEN
 40
1.0
 41
3.0
 42
0.0625
 43
0.38
 44
0.18
 45
0.0
 46
0.0
 47
0.0
 48
0.0
140
3.2
141
0.09
142
0.0
143
25.4
144
1.0
145
0.0
146
1.0
147
1.0
 71
     0
 72
     0
 73
     1
 74
     1
 75
     0
 76
     0
 77
     0
 78
     0
170
     0
171
     2
172
     0
173
     1
174
     0
175
     0
176
     0
177
     0
178
     0
270
     2
271
     4
272
     4
273
     2
274
     2
340
10
275
     0
280
     0
281
     0
282
     0
283
     1
284
     0
285
     0
286
     0
287
     3
288
     0
  0
ENDTAB
  0
TABLE
  2
BLOCK_RECORD
  5
1
100
AcDbSymbolTable
 70
     6
  0
BLOCK_RECORD
  5
1F
100
AcDbSymbolTableRecord
100
AcDbBlockTableRecord
  2
*MODEL_SPACE
  0
BLOCK_RECORD
  5
22
100
AcDbSymbolTableRecord
100
AcDbBlockTableRecord
  2
*PAPER_SPACE
  0
BLOCK_RECORD
  5
27
100
AcDbSymbolTableRecord
100
AcDbBlockTableRecord
  2
_NONE
  0
BLOCK_RECORD
  5
2B
100
AcDbSymbolTableRecord
100
AcDbBlockTableRecord
  2
_OPEN
  0
BLOCK_RECORD
  5
31
100
AcDbSymbolTableRecord
100
AcDbBlockTableRecord
  2
_CLOSED
  0
BLOCK_RECORD
  5
38
100
AcDbSymbolTableRecord
100
AcDbBlockTableRecord
  2
_ORIGIN
  0
BLOCK_RECORD
  5
3D
100
AcDbSymbolTableRecord
100
AcDbBlockTableRecord
  2
_DOT
  0
BLOCK_RECORD
  5
45
100
AcDbSymbolTableRecord
100
AcDbBlockTableRecord
  2
_OBLIQUE
  0
ENDTAB
  0
ENDSEC
  0
SECTION
  2
BLOCKS
  0
BLOCK
  5
20
100
AcDbEntity
  8
0
100
AcDbBlockBegin
  2
*MODEL_SPACE
 70
     0
 10
0.0
 20
0.0
 30
0.0
  3
*MODEL_SPACE
  1

  0
ENDBLK
  5
21
100
AcDbEntity
  8
0
100
AcDbBlockEnd
  0
BLOCK
  5
23
100
AcDbEntity
 67
     1
  8
0
100
AcDbBlockBegin
  2
*PAPER_SPACE
 70
     0
 10
0.0
 20
0.0
 30
0.0
  3
*PAPER_SPACE
  1

  0
ENDBLK
  5
24
100
AcDbEntity
 67
     1
  8
0
100
AcDbBlockEnd
  0
BLOCK
  5
28
100
AcDbEntity
  8
0
100
AcDbBlockBegin
  2
_NONE
 70
     0
 10
0.0
 20
0.0
  0
CIRCLE
  5
29
100
AcDbEntity
  8
0
 62
     0
100
AcDbCircle
 10
0.0
 20
0.0
 40
0.25
  0
ENDBLK
  5
2A
100
AcDbEntity
  8
0
100
AcDbBlockEnd
  0
BLOCK
  5
2C
100
AcDbEntity
  8
0
100
AcDbBlockBegin
  2
_OPEN
 70
     0
 10
0.0
 20
0.0
  0
LINE
  5
2D
100
AcDbEntity
  8
0
 62
     0
100
AcDbLine
 10
-0.965926
 20
0.258819
 11
0.0
 21
0.0
  0
LINE
  5
2E
100
AcDbEntity
  8
0
 62
     0
100
AcDbLine
 10
0.0
 20
0.0
 11
-0.965926
 21
-0.258819
  0
LINE
  5
2F
100
AcDbEntity
  8
0
 62
     0
100
AcDbLine
 10
0.0
 20
0.0
 11
-1.0
 21
0.0
  0
ENDBLK
  5
30
100
AcDbEntity
  8
0
100
AcDbBlockEnd
  0
BLOCK
  5
32
100
AcDbEntity
  8
0
100
AcDbBlockBegin
  2
_CLOSED
 70
     0
 10
0.0
 20
0.0
  0
LINE
  5
33
100
AcDbEntity
  8
0
 62
     0
100
AcDbLine
 10
-0.965926
 20
0.258819
 11
0.0
 21
0.0
  0
LINE
  5
34
100
AcDbEntity
  8
0
 62
     0
100
AcDbLine
 10
0.0
 20
0.0
 11
-0.965926
 21
-0.258819
  0
LINE
  5
35
100
AcDbEntity
  8
0
 62
     0
100
AcDbLine
 10
-0.965926
 20
0.258819
 11
-0.965926
 21
-0.258819
  0
LINE
  5
36
100
AcDbEntity
  8
0
 62
     0
100
AcDbLine
 10
0.0
 20
0.0
 11
-1.0
 21
0.0
  0
ENDBLK
  5
37
100
AcDbEntity
  8
0
100
AcDbBlockEnd
  0
BLOCK
  5
39
100
AcDbEntity
  8
0
100
AcDbBlockBegin
  2
_ORIGIN
 70
     0
 10
0.0
 20
0.0
  0
CIRCLE
  5
3A
100
AcDbEntity
  8
0
 62
     0
100
AcDbCircle
 10
0.0
 20
0.0
 40
0.5
  0
LINE
  5
3B
100
AcDbEntity
  8
0
 62
     0
100
AcDbLine
 10
0.0
 20
0.0
 11
-1.0
 21
0.0
  0
ENDBLK
  5
3C
100
AcDbEntity
  8
0
100
AcDbBlockEnd
  0
BLOCK
  5
3E
100
AcDbEntity
  8
0
100
AcDbBlockBegin
  2
_DOT
 70
     0
 10
0.0
 20
0.0
  0
POLYLINE
  5
3F
100
AcDbEntity
  8
0
 62
     0
100
AcDb2dPolyline
 66
     1
 70
     1
 40
0.5
 41
0.5
  0
VERTEX
  5
40
100
AcDbEntity
  8
0
 62
     0
100
AcDbVertex
100
AcDb2dVertex
 10
-0.25
 20
0.0
 42
1.0
  0
VERTEX
  5
41
100
AcDbEntity
  8
0
 62
     0
100
AcDbVertex
100
AcDb2dVertex
 10
0.25
 20
0.0
 42
1.0
  0
SEQEND
  5
42
100
AcDbEntity
  8
0
 62
     0
  0
LINE
  5
43
100
AcDbEntity
  8
0
 62
     0
100
AcDbLine
 10
-0.5
 20
0.0
 11
-1.0
 21
0.0
  0
ENDBLK
  5
44
100
AcDbEntity
  8
0
100
AcDbBlockEnd
  0
BLOCK
  5
46
100
AcDbEntity
  8
0
100
AcDbBlockBegin
  2
_OBLIQUE
 70
     0
 10
0.0
 20
0.0
  0
LINE
  5
47
100
AcDbEntity
  8
0
 62
     0
100
AcDbLine
 10
-0.353553
 20
-0.353553
 11
0.353553
 21
0.353553
  0
ENDBLK
  5
48
100
AcDbEntity
  8
0
100
AcDbBlockEnd
  0
ENDSEC
  0
SECTION
  2
ENTITIES
  0
LEADER
  5
49
100
AcDbEntity
  8
DD0
100
AcDbLeader
  3
LEADSTYL
 71
     0
 76
     2
 10
101.526558
 20
175.991714
 10
117.526558
 20
175.991714
340
4A
 77
     4
  0
TEXT
  5
4A
100
AcDbEntity
  8
DD0
100
AcDbText
 10
102.818225
 20
176.991714
 40
3.5
  1
５０Ｈｚ
 41
0.833333
  7
STANDARD
100
AcDbText
  0
LEADER
  5
4B
100
AcDbEntity
  8
DD0
100
AcDbLeader
  3
LEADSTYL
 71
     0
 76
     2
 10
94.867973
 20
194.065079
 10
110.867973
 20
194.065079
340
4C
 77
     4
  0
TEXT
  5
4C
100
AcDbEntity
  8
DD0
100
AcDbText
 10
96.15964
 20
195.065079
 40
3.5
  1
６０Ｈｚ
 41
0.833333
  7
STANDARD
100
AcDbText
  0
LEADER
  5
4D
100
AcDbEntity
  8
DD0
100
AcDbLeader
  3
LEADSTYL
 76
     2
 10
95.882111
 20
168.311554
 10
101.526558
 20
175.991714
 77
     4
  0
LEADER
  5
4E
100
AcDbEntity
  8
DD0
100
AcDbLeader
  3
LEADSTYL
 76
     2
 10
88.943619
 20
184.385773
 10
94.867981
 20
194.065079
 77
     4
  0
LEADER
  5
4F
100
AcDbEntity
  8
DD0
100
AcDbLeader
  3
LEADSTYL
 76
     3
 10
200.541489
 20
187.364304
 10
206.864136
 20
194.338165
 10
222.864136
 20
194.338165
340
50
 77
     4
  0
TEXT
  5
50
100
AcDbEntity
  8
DD0
100
AcDbText
 10
208.155802
 20
195.338165
 40
3.5
  1
６０Ｈｚ
 41
0.833333
  7
STANDARD
100
AcDbText
  0
LEADER
  5
51
100
AcDbEntity
  8
DD0
100
AcDbLeader
  3
LEADSTYL
 76
     3
 10
172.016663
 20
204.698029
 10
179.681442
 20
219.968048
 10
195.681442
 20
219.968048
340
52
 77
     4
  0
TEXT
  5
52
100
AcDbEntity
  8
DD0
100
AcDbText
 10
180.973109
 20
220.968048
 40
3.5
  1
５０Ｈｚ
 41
0.833333
  7
STANDARD
100
AcDbText
  0
LEADER
  5
53
100
AcDbEntity
  8
DD0
100
AcDbLeader
  3
LEADSTYL
 76
     3
 10
93.302765
 20
68.991249
 10
102.306694
 20
79.168312
 10
118.306694
 20
79.168312
340
54
 77
     4
  0
TEXT
  5
54
100
AcDbEntity
  8
DD0
100
AcDbText
 10
103.598361
 20
80.168312
 40
3.5
  1
６０Ｈｚ
 41
0.833333
  7
STANDARD
100
AcDbText
  0
LEADER
  5
55
100
AcDbEntity
  8
DD0
100
AcDbLeader
  3
LEADSTYL
 76
     3
 10
65.405411
 20
94.907951
 10
75.162445
 20
105.864708
 10
91.162445
 20
105.864708
340
56
 77
     4
  0
TEXT
  5
56
100
AcDbEntity
  8
DD0
100
AcDbText
 10
76.454112
 20
106.864708
 40
3.5
  1
５０Ｈｚ
 41
0.833333
  7
STANDARD
100
AcDbText
  0
LINE
  5
57
100
AcDbEntity
  8
M0
 62
     7
100
AcDbLine
 10
127.394334
 20
155.519269
 11
127.394334
 21
236.519269
  0
LINE
  5
58
100
AcDbEntity
  8
M0
 62
     7
100
AcDbLine
 10
127.394334
 20
236.519269
 11
46.394334
 21
236.519269
  0
LINE
  5
59
100
AcDbEntity
  8
M0
 62
     7
100
AcDbLine
 10
46.394334
 20
236.519269
 11
46.394334
 21
155.519269
  0
LINE
  5
5A
100
AcDbEntity
  8
M0
 62
     7
100
AcDbLine
 10
46.394334
 20
155.519269
 11
127.394334
 21
155.519269
  0
LINE
  5
5B
100
AcDbEntity
  8
M0
 62
     7
100
AcDbLine
 10
127.394334
 20
164.519269
 11
46.394334
 21
164.519269
  0
LINE
  5
5C
100
AcDbEntity
  8
M0
 62
     7
100
AcDbLine
 10
127.394334
 20
173.519269
 11
46.394334
 21
173.519269
  0
LINE
  5
5D
100
AcDbEntity
  8
M0
 62
     7
100
AcDbLine
 10
127.394334
 20
182.519269
 11
46.394334
 21
182.519269
  0
LINE
  5
5E
100
AcDbEntity
  8
M0
 62
     7
100
AcDbLine
 10
127.394334
 20
191.519269
 11
46.394334
 21
191.519269
  0
LINE
  5
5F
100
AcDbEntity
  8
M0
 62
     7
100
AcDbLine
 10
127.394334
 20
200.519269
 11
46.394334
 21
200.519269
  0
LINE
  5
60
100
AcDbEntity
  8
M0
 62
     7
100
AcDbLine
 10
127.394334
 20
209.519269
 11
46.394334
 21
209.519269
  0
LINE
  5
61
100
AcDbEntity
  8
M0
 62
     7
100
AcDbLine
 10
127.394334
 20
218.519269
 11
46.394334
 21
218.519269
  0
LINE
  5
62
100
AcDbEntity
  8
M0
 62
     7
100
AcDbLine
 10
127.394334
 20
227.519269
 11
46.394334
 21
227.519269
  0
LINE
  5
63
100
AcDbEntity
  8
M0
 62
     7
100
AcDbLine
 10
55.394334
 20
236.519269
 11
55.394334
 21
155.519269
  0
LINE
  5
64
100
AcDbEntity
  8
M0
 62
     7
100
AcDbLine
 10
64.394334
 20
236.519269
 11
64.394334
 21
155.519269
  0
LINE
  5
65
100
AcDbEntity
  8
M0
 62
     7
100
AcDbLine
 10
73.394334
 20
236.519269
 11
73.394334
 21
155.519269
  0
LINE
  5
66
100
AcDbEntity
  8
M0
 62
     7
100
AcDbLine
 10
82.394334
 20
236.519269
 11
82.394334
 21
218.519269
  0
LINE
  5
67
100
AcDbEntity
  8
M0
 62
     7
100
AcDbLine
 10
91.394334
 20
236.519269
 11
91.394334
 21
155.519269
  0
LINE
  5
68
100
AcDbEntity
  8
M0
 62
     7
100
AcDbLine
 10
100.394334
 20
236.519269
 11
100.394334
 21
200.519269
  0
LINE
  5
69
100
AcDbEntity
  8
M0
 62
     7
100
AcDbLine
 10
109.394334
 20
236.519269
 11
109.394334
 21
200.519269
  0
LINE
  5
6A
100
AcDbEntity
  8
M0
 62
     7
100
AcDbLine
 10
118.394334
 20
236.519269
 11
118.394334
 21
155.519269
  0
TEXT
  5
6B
100
AcDbEntity
  8
M0
 62
     7
100
AcDbText
 10
41.629663
 20
154.944173
 40
3.553875
  1
０
 41
0.777778
  7
STANDARD
100
AcDbText
  0
TEXT
  5
6C
100
AcDbEntity
  8
M0
 62
     7
100
AcDbText
 10
38.694265
 20
162.21034
 40
3.553875
  1
１０
 41
0.777778
  7
STANDARD
100
AcDbText
  0
TEXT
  5
6D
100
AcDbEntity
  8
M0
 62
     7
100
AcDbText
 10
38.694265
 20
172.002231
 40
3.553875
  1
２０
 41
0.777778
  7
STANDARD
100
AcDbText
  0
TEXT
  5
6E
100
AcDbEntity
  8
M0
 62
     7
100
AcDbText
 10
38.694265
 20
181.043615
 40
3.553875
  1
３０
 41
0.777778
  7
STANDARD
100
AcDbText
  0
TEXT
  5
6F
100
AcDbEntity
  8
M0
 62
     7
100
AcDbText
 10
38.694265
 20
189.479162
 40
3.553875
  1
４０
 41
0.777778
  7
STANDARD
100
AcDbText
  0
TEXT
  5
70
100
AcDbEntity
  8
M0
 62
     7
100
AcDbText
 10
38.694265
 20
197.994833
 40
3.553875
  1
５０
 41
0.777778
  7
STANDARD
100
AcDbText
  0
TEXT
  5
71
100
AcDbEntity
  8
M0
 62
     7
100
AcDbText
 10
38.694265
 20
206.660958
 40
3.553875
  1
６０
 41
0.777778
  7
STANDARD
100
AcDbText
  0
TEXT
  5
72
100
AcDbEntity
  8
M0
 62
     7
100
AcDbText
 10
38.694265
 20
215.660958
 40
3.553875
  1
７０
 41
0.777778
  7
STANDARD
100
AcDbText
  0
TEXT
  5
73
100
AcDbEntity
  8
M0
 62
     7
100
AcDbText
 10
38.694265
 20
224.660958
 40
3.553875
  1
８０
 41
0.777778
  7
STANDARD
100
AcDbText
  0
TEXT
  5
74
100
AcDbEntity
  8
M0
 62
     7
100
AcDbText
 10
38.694265
 20
233.660958
 40
3.553875
  1
９０
 41
0.777778
  7
STANDARD
100
AcDbText
  0
TEXT
  5
75
100
AcDbEntity
  8
M0
 62
     7
100
AcDbText
 10
44.545812
 20
150.616498
 40
3.553875
  1
０
 41
0.777778
  7
STANDARD
100
AcDbText
  0
TEXT
  5
76
100
AcDbEntity
  8
M0
 62
     7
100
AcDbText
 10
53.011449
 20
149.991014
 40
3.553875
  1
１０
 41
0.777778
  7
STANDARD
100
AcDbText
  0
TEXT
  5
77
100
AcDbEntity
  8
M0
 62
     7
100
AcDbText
 10
62.011453
 20
149.991014
 40
3.553875
  1
２０
 41
0.777778
  7
STANDARD
100
AcDbText
  0
TEXT
  5
78
100
AcDbEntity
  8
M0
 62
     7
100
AcDbText
 10
71.011453
 20
149.991014
 40
3.553875
  1
３０
 41
0.777778
  7
STANDARD
100
AcDbText
  0
TEXT
  5
79
100
AcDbEntity
  8
M0
 62
     7
100
AcDbText
 10
80.011452
 20
149.991014
 40
3.553875
  1
４０
 41
0.777778
  7
STANDARD
100
AcDbText
  0
TEXT
  5
7A
100
AcDbEntity
  8
M0
 62
     7
100
AcDbText
 10
89.011452
 20
149.991014
 40
3.553875
  1
５０
 41
0.777778
  7
STANDARD
100
AcDbText
  0
TEXT
  5
7B
100
AcDbEntity
  8
M0
 62
     7
100
AcDbText
 10
98.011452
 20
149.991014
 40
3.553875
  1
６０
 41
0.777778
  7
STANDARD
100
AcDbText
  0
TEXT
  5
7C
100
AcDbEntity
  8
M0
 62
     7
100
AcDbText
 10
107.011453
 20
149.991014
 40
3.553875
  1
７０
 41
0.777778
  7
STANDARD
100
AcDbText
  0
TEXT
  5
7D
100
AcDbEntity
  8
M0
 62
     7
100
AcDbText
 10
116.011451
 20
149.991014
 40
3.553875
  1
８０
 41
0.777778
  7
STANDARD
100
AcDbText
  0
TEXT
  5
7E
100
AcDbEntity
  8
M0
 62
     7
100
AcDbText
 10
125.011453
 20
149.991014
 40
3.553875
  1
９０
 41
0.777778
  7
STANDARD
100
AcDbText
  0
TEXT
  5
7F
100
AcDbEntity
  8
M0
 62
     7
100
AcDbText
 10
70.700403
 20
141.546304
 40
5.52825
  1
揚水量
 41
1.666667
  7
STANDARD
100
AcDbText
  0
TEXT
  5
80
100
AcDbEntity
  8
M0
 62
     7
100
AcDbText
 10
101.675279
 20
142.777562
 40
3.553875
  1
（Ｌ／分）
 41
0.777778
  7
STANDARD
100
AcDbText
  0
TEXT
  5
81
100
AcDbEntity
  8
M0
 62
     7
100
AcDbText
 10
26.837376
 20
203.341011
 40
5.52825
  1
全
 41
1.388889
  7
STANDARD
100
AcDbText
  0
TEXT
  5
82
100
AcDbEntity
  8
M0
 62
     7
100
AcDbText
 10
26.837376
 20
192.284512
 40
5.52825
  1
揚
 41
1.388889
  7
STANDARD
100
AcDbText
  0
TEXT
  5
83
100
AcDbEntity
  8
M0
 62
     7
100
AcDbText
 10
26.837376
 20
181.228012
 40
5.52825
  1
程
 41
1.388889
  7
STANDARD
100
AcDbText
  0
TEXT
  5
84
100
AcDbEntity
  8
M0
 62
     7
100
AcDbText
 10
25.986166
 20
172.240995
 40
3.553875
  1
（ｍ）
 41
0.777778
  7
STANDARD
100
AcDbText
  0
LINE
  5
85
100
AcDbEntity
  8
M0
 62
     7
100
AcDbLine
 10
82.394334
 20
218.519269
 11
82.394334
 21
155.519269
  0
LINE
  5
86
100
AcDbEntity
  8
M0
 62
     7
100
AcDbLine
 10
100.394334
 20
191.519269
 11
100.394334
 21
155.519269
  0
LINE
  5
87
100
AcDbEntity
  8
M0
 62
     7
100
AcDbLine
 10
109.394334
 20
191.519269
 11
109.394334
 21
182.519269
  0
LINE
  5
88
100
AcDbEntity
  8
M0
 62
     7
100
AcDbLine
 10
109.394334
 20
173.519269
 11
109.394334
 21
155.519269
  0
LINE
  5
89
100
AcDbEntity
  8
M0
 62
     7
100
AcDbLine
 10
232.118744
 20
155.519269
 11
232.118744
 21
236.519269
  0
LINE
  5
8A
100
AcDbEntity
  8
M0
 62
     7
100
AcDbLine
 10
232.118744
 20
236.519269
 11
151.118744
 21
236.519269
  0
LINE
  5
8B
100
AcDbEntity
  8
M0
 62
     7
100
AcDbLine
 10
151.118744
 20
236.519269
 11
151.118744
 21
155.519269
  0
LINE
  5
8C
100
AcDbEntity
  8
M0
 62
     7
100
AcDbLine
 10
151.118744
 20
155.519269
 11
232.118744
 21
155.519269
  0
LINE
  5
8D
100
AcDbEntity
  8
M0
 62
     7
100
AcDbLine
 10
232.118744
 20
164.519269
 11
151.118744
 21
164.519269
  0
LINE
  5
8E
100
AcDbEntity
  8
M0
 62
     7
100
AcDbLine
 10
232.118744
 20
173.519269
 11
151.118744
 21
173.519269
  0
LINE
  5
8F
100
AcDbEntity
  8
M0
 62
     7
100
AcDbLine
 10
232.118744
 20
182.519269
 11
151.118744
 21
182.519269
  0
LINE
  5
90
100
AcDbEntity
  8
M0
 62
     7
100
AcDbLine
 10
232.118744
 20
191.519269
 11
151.118744
 21
191.519269
  0
LINE
  5
91
100
AcDbEntity
  8
M0
 62
     7
100
AcDbLine
 10
232.118744
 20
200.519269
 11
151.118744
 21
200.519269
  0
LINE
  5
92
100
AcDbEntity
  8
M0
 62
     7
100
AcDbLine
 10
232.118744
 20
209.519269
 11
151.118744
 21
209.519269
  0
LINE
  5
93
100
AcDbEntity
  8
M0
 62
     7
100
AcDbLine
 10
232.118744
 20
218.519269
 11
151.118744
 21
218.519269
  0
LINE
  5
94
100
AcDbEntity
  8
M0
 62
     7
100
AcDbLine
 10
232.118744
 20
227.519269
 11
151.118744
 21
227.519269
  0
LINE
  5
95
100
AcDbEntity
  8
M0
 62
     7
100
AcDbLine
 10
160.118744
 20
236.519269
 11
160.118744
 21
155.519269
  0
LINE
  5
96
100
AcDbEntity
  8
M0
 62
     7
100
AcDbLine
 10
169.118744
 20
236.519269
 11
169.118744
 21
155.519269
  0
LINE
  5
97
100
AcDbEntity
  8
M0
 62
     7
100
AcDbLine
 10
178.118744
 20
236.519269
 11
178.118744
 21
155.519269
  0
LINE
  5
98
100
AcDbEntity
  8
M0
 62
     7
100
AcDbLine
 10
187.118744
 20
236.519269
 11
187.118744
 21
227.519269
  0
LINE
  5
99
100
AcDbEntity
  8
M0
 62
     7
100
AcDbLine
 10
196.118744
 20
236.519269
 11
196.118744
 21
155.519269
  0
LINE
  5
9A
100
AcDbEntity
  8
M0
 62
     7
100
AcDbLine
 10
205.118744
 20
236.519269
 11
205.118744
 21
155.519269
  0
LINE
  5
9B
100
AcDbEntity
  8
M0
 62
     7
100
AcDbLine
 10
214.118744
 20
236.519269
 11
214.118744
 21
200.519269
  0
LINE
  5
9C
100
AcDbEntity
  8
M0
 62
     7
100
AcDbLine
 10
223.118744
 20
236.519269
 11
223.118744
 21
155.519269
  0
TEXT
  5
9D
100
AcDbEntity
  8
M0
 62
     7
100
AcDbText
 10
146.354072
 20
154.944173
 40
3.553875
  1
０
 41
0.777778
  7
STANDARD
100
AcDbText
  0
TEXT
  5
9E
100
AcDbEntity
  8
M0
 62
     7
100
AcDbText
 10
143.418674
 20
162.21034
 40
3.553875
  1
１０
 41
0.777778
  7
STANDARD
100
AcDbText
  0
TEXT
  5
9F
100
AcDbEntity
  8
M0
 62
     7
100
AcDbText
 10
143.418674
 20
172.002231
 40
3.553875
  1
２０
 41
0.777778
  7
STANDARD
100
AcDbText
  0
TEXT
  5
A0
100
AcDbEntity
  8
M0
 62
     7
100
AcDbText
 10
143.418674
 20
181.043615
 40
3.553875
  1
３０
 41
0.777778
  7
STANDARD
100
AcDbText
  0
TEXT
  5
A1
100
AcDbEntity
  8
M0
 62
     7
100
AcDbText
 10
143.418674
 20
189.479162
 40
3.553875
  1
４０
 41
0.777778
  7
STANDARD
100
AcDbText
  0
TEXT
  5
A2
100
AcDbEntity
  8
M0
 62
     7
100
AcDbText
 10
143.418674
 20
197.994833
 40
3.553875
  1
５０
 41
0.777778
  7
STANDARD
100
AcDbText
  0
TEXT
  5
A3
100
AcDbEntity
  8
M0
 62
     7
100
AcDbText
 10
143.418674
 20
206.660958
 40
3.553875
  1
６０
 41
0.777778
  7
STANDARD
100
AcDbText
  0
TEXT
  5
A4
100
AcDbEntity
  8
M0
 62
     7
100
AcDbText
 10
143.418674
 20
215.660958
 40
3.553875
  1
７０
 41
0.777778
  7
STANDARD
100
AcDbText
  0
TEXT
  5
A5
100
AcDbEntity
  8
M0
 62
     7
100
AcDbText
 10
143.418674
 20
224.660958
 40
3.553875
  1
８０
 41
0.777778
  7
STANDARD
100
AcDbText
  0
TEXT
  5
A6
100
AcDbEntity
  8
M0
 62
     7
100
AcDbText
 10
143.418674
 20
233.660958
 40
3.553875
  1
９０
 41
0.777778
  7
STANDARD
100
AcDbText
  0
TEXT
  5
A7
100
AcDbEntity
  8
M0
 62
     7
100
AcDbText
 10
149.270222
 20
150.616498
 40
3.553875
  1
０
 41
0.777778
  7
STANDARD
100
AcDbText
  0
TEXT
  5
A8
100
AcDbEntity
  8
M0
 62
     7
100
AcDbText
 10
157.735859
 20
149.991014
 40
3.553875
  1
１０
 41
0.777778
  7
STANDARD
100
AcDbText
  0
TEXT
  5
A9
100
AcDbEntity
  8
M0
 62
     7
100
AcDbText
 10
166.735863
 20
149.991014
 40
3.553875
  1
２０
 41
0.777778
  7
STANDARD
100
AcDbText
  0
TEXT
  5
AA
100
AcDbEntity
  8
M0
 62
     7
100
AcDbText
 10
175.735863
 20
149.991014
 40
3.553875
  1
３０
 41
0.777778
  7
STANDARD
100
AcDbText
  0
TEXT
  5
AB
100
AcDbEntity
  8
M0
 62
     7
100
AcDbText
 10
184.735862
 20
149.991014
 40
3.553875
  1
４０
 41
0.777778
  7
STANDARD
100
AcDbText
  0
TEXT
  5
AC
100
AcDbEntity
  8
M0
 62
     7
100
AcDbText
 10
193.735861
 20
149.991014
 40
3.553875
  1
５０
 41
0.777778
  7
STANDARD
100
AcDbText
  0
TEXT
  5
AD
100
AcDbEntity
  8
M0
 62
     7
100
AcDbText
 10
202.735862
 20
149.991014
 40
3.553875
  1
６０
 41
0.777778
  7
STANDARD
100
AcDbText
  0
TEXT
  5
AE
100
AcDbEntity
  8
M0
 62
     7
100
AcDbText
 10
211.735863
 20
149.991014
 40
3.553875
  1
７０
 41
0.777778
  7
STANDARD
100
AcDbText
  0
TEXT
  5
AF
100
AcDbEntity
  8
M0
 62
     7
100
AcDbText
 10
220.735861
 20
149.991014
 40
3.553875
  1
８０
 41
0.777778
  7
STANDARD
100
AcDbText
  0
TEXT
  5
B0
100
AcDbEntity
  8
M0
 62
     7
100
AcDbText
 10
229.735863
 20
149.991014
 40
3.553875
  1
９０
 41
0.777778
  7
STANDARD
100
AcDbText
  0
TEXT
  5
B1
100
AcDbEntity
  8
M0
 62
     7
100
AcDbText
 10
175.42481
 20
141.5463
 40
5.52825
  1
揚水量
 41
1.666667
  7
STANDARD
100
AcDbText
  0
TEXT
  5
B2
100
AcDbEntity
  8
M0
 62
     7
100
AcDbText
 10
206.399689
 20
142.777558
 40
3.553875
  1
（Ｌ／分）
 41
0.777778
  7
STANDARD
100
AcDbText
  0
TEXT
  5
B3
100
AcDbEntity
  8
M0
 62
     7
100
AcDbText
 10
131.561786
 20
203.34101
 40
5.52825
  1
全
 41
1.388889
  7
STANDARD
100
AcDbText
  0
TEXT
  5
B4
100
AcDbEntity
  8
M0
 62
     7
100
AcDbText
 10
131.561786
 20
192.284511
 40
5.52825
  1
揚
 41
1.388889
  7
STANDARD
100
AcDbText
  0
TEXT
  5
B5
100
AcDbEntity
  8
M0
 62
     7
100
AcDbText
 10
131.561786
 20
181.228011
 40
5.52825
  1
程
 41
1.388889
  7
STANDARD
100
AcDbText
  0
TEXT
  5
B6
100
AcDbEntity
  8
M0
 62
     7
100
AcDbText
 10
130.710567
 20
172.240996
 40
3.553875
  1
（ｍ）
 41
0.777778
  7
STANDARD
100
AcDbText
  0
LINE
  5
B7
100
AcDbEntity
  8
M0
 62
     7
100
AcDbLine
 10
187.118744
 20
218.519269
 11
187.118744
 21
155.519269
  0
LINE
  5
B8
100
AcDbEntity
  8
M0
 62
     7
100
AcDbLine
 10
214.118744
 20
191.519269
 11
214.118744
 21
155.519269
  0
TEXT
  5
B9
100
AcDbEntity
  8
M0
100
AcDbText
 10
173.691248
 20
246.22501
 40
8.0
  1
ＳＦＭ－Ｐ６００Ｖ
 41
0.416667
  7
STANDARD
100
AcDbText
  0
LINE
  5
BA
100
AcDbEntity
  8
M0
 62
     7
100
AcDbLine
 10
127.370712
 20
31.112445
 11
127.370712
 21
112.112445
  0
LINE
  5
BB
100
AcDbEntity
  8
M0
 62
     7
100
AcDbLine
 10
127.370712
 20
112.112445
 11
46.370712
 21
112.112445
  0
LINE
  5
BC
100
AcDbEntity
  8
M0
 62
     7
100
AcDbLine
 10
46.370712
 20
112.112445
 11
46.370712
 21
31.112445
  0
LINE
  5
BD
100
AcDbEntity
  8
M0
 62
     7
100
AcDbLine
 10
46.370712
 20
31.112445
 11
127.370712
 21
31.112445
  0
LINE
  5
BE
100
AcDbEntity
  8
M0
 62
     7
100
AcDbLine
 10
127.370712
 20
40.112445
 11
46.370712
 21
40.112445
  0
LINE
  5
BF
100
AcDbEntity
  8
M0
 62
     7
100
AcDbLine
 10
127.370712
 20
49.112445
 11
46.370712
 21
49.112445
  0
LINE
  5
C0
100
AcDbEntity
  8
M0
 62
     7
100
AcDbLine
 10
127.370712
 20
58.112445
 11
46.370712
 21
58.112445
  0
LINE
  5
C1
100
AcDbEntity
  8
M0
 62
     7
100
AcDbLine
 10
127.370712
 20
67.112445
 11
46.370712
 21
67.112445
  0
LINE
  5
C2
100
AcDbEntity
  8
M0
 62
     7
100
AcDbLine
 10
127.370712
 20
76.112445
 11
46.370712
 21
76.112445
  0
LINE
  5
C3
100
AcDbEntity
  8
M0
 62
     7
100
AcDbLine
 10
127.370712
 20
85.112445
 11
46.370712
 21
85.112445
  0
LINE
  5
C4
100
AcDbEntity
  8
M0
 62
     7
100
AcDbLine
 10
127.370712
 20
94.112445
 11
46.370712
 21
94.112445
  0
LINE
  5
C5
100
AcDbEntity
  8
M0
 62
     7
100
AcDbLine
 10
127.370712
 20
103.112445
 11
46.370712
 21
103.112445
  0
LINE
  5
C6
100
AcDbEntity
  8
M0
 62
     7
100
AcDbLine
 10
55.370712
 20
112.112445
 11
55.370712
 21
31.112445
  0
LINE
  5
C7
100
AcDbEntity
  8
M0
 62
     7
100
AcDbLine
 10
64.370712
 20
112.112445
 11
64.370712
 21
31.112445
  0
LINE
  5
C8
100
AcDbEntity
  8
M0
 62
     7
100
AcDbLine
 10
73.370712
 20
112.112445
 11
73.370712
 21
31.112445
  0
LINE
  5
C9
100
AcDbEntity
  8
M0
 62
     7
100
AcDbLine
 10
82.370712
 20
103.112445
 11
82.370712
 21
31.112445
  0
LINE
  5
CA
100
AcDbEntity
  8
M0
 62
     7
100
AcDbLine
 10
100.370712
 20
112.112445
 11
100.370712
 21
31.112445
  0
LINE
  5
CB
100
AcDbEntity
  8
M0
 62
     7
100
AcDbLine
 10
109.370712
 20
112.112445
 11
109.370712
 21
85.112445
  0
LINE
  5
CC
100
AcDbEntity
  8
M0
 62
     7
100
AcDbLine
 10
118.370712
 20
112.112445
 11
118.370712
 21
85.112445
  0
TEXT
  5
CD
100
AcDbEntity
  8
M0
 62
     7
100
AcDbText
 10
41.606041
 20
30.537349
 40
3.553875
  1
０
 41
0.777778
  7
STANDARD
100
AcDbText
  0
TEXT
  5
CE
100
AcDbEntity
  8
M0
 62
     7
100
AcDbText
 10
38.670643
 20
37.803512
 40
3.553875
  1
１０
 41
0.777778
  7
STANDARD
100
AcDbText
  0
TEXT
  5
CF
100
AcDbEntity
  8
M0
 62
     7
100
AcDbText
 10
38.670643
 20
47.595407
 40
3.553875
  1
２０
 41
0.777778
  7
STANDARD
100
AcDbText
  0
TEXT
  5
D0
100
AcDbEntity
  8
M0
 62
     7
100
AcDbText
 10
38.670643
 20
56.63679
 40
3.553875
  1
３０
 41
0.777778
  7
STANDARD
100
AcDbText
  0
TEXT
  5
D1
100
AcDbEntity
  8
M0
 62
     7
100
AcDbText
 10
38.670643
 20
65.072338
 40
3.553875
  1
４０
 41
0.777778
  7
STANDARD
100
AcDbText
  0
TEXT
  5
D2
100
AcDbEntity
  8
M0
 62
     7
100
AcDbText
 10
38.670643
 20
73.588009
 40
3.553875
  1
５０
 41
0.777778
  7
STANDARD
100
AcDbText
  0
TEXT
  5
D3
100
AcDbEntity
  8
M0
 62
     7
100
AcDbText
 10
38.670643
 20
82.254134
 40
3.553875
  1
６０
 41
0.777778
  7
STANDARD
100
AcDbText
  0
TEXT
  5
D4
100
AcDbEntity
  8
M0
 62
     7
100
AcDbText
 10
38.670643
 20
91.254134
 40
3.553875
  1
７０
 41
0.777778
  7
STANDARD
100
AcDbText
  0
TEXT
  5
D5
100
AcDbEntity
  8
M0
 62
     7
100
AcDbText
 10
38.670643
 20
100.254134
 40
3.553875
  1
８０
 41
0.777778
  7
STANDARD
100
AcDbText
  0
TEXT
  5
D6
100
AcDbEntity
  8
M0
 62
     7
100
AcDbText
 10
38.670643
 20
109.254134
 40
3.553875
  1
９０
 41
0.777778
  7
STANDARD
100
AcDbText
  0
TEXT
  5
D7
100
AcDbEntity
  8
M0
 62
     7
100
AcDbText
 10
44.52219
 20
26.209674
 40
3.553875
  1
０
 41
0.777778
  7
STANDARD
100
AcDbText
  0
TEXT
  5
D8
100
AcDbEntity
  8
M0
 62
     7
100
AcDbText
 10
52.987827
 20
25.58419
 40
3.553875
  1
１０
 41
0.777778
  7
STANDARD
100
AcDbText
  0
TEXT
  5
D9
100
AcDbEntity
  8
M0
 62
     7
100
AcDbText
 10
61.987831
 20
25.58419
 40
3.553875
  1
２０
 41
0.777778
  7
STANDARD
100
AcDbText
  0
TEXT
  5
DA
100
AcDbEntity
  8
M0
 62
     7
100
AcDbText
 10
70.987831
 20
25.58419
 40
3.553875
  1
３０
 41
0.777778
  7
STANDARD
100
AcDbText
  0
TEXT
  5
DB
100
AcDbEntity
  8
M0
 62
     7
100
AcDbText
 10
79.98783
 20
25.58419
 40
3.553875
  1
４０
 41
0.777778
  7
STANDARD
100
AcDbText
  0
TEXT
  5
DC
100
AcDbEntity
  8
M0
 62
     7
100
AcDbText
 10
88.98783
 20
25.58419
 40
3.553875
  1
５０
 41
0.777778
  7
STANDARD
100
AcDbText
  0
TEXT
  5
DD
100
AcDbEntity
  8
M0
 62
     7
100
AcDbText
 10
97.98783
 20
25.58419
 40
3.553875
  1
６０
 41
0.777778
  7
STANDARD
100
AcDbText
  0
TEXT
  5
DE
100
AcDbEntity
  8
M0
 62
     7
100
AcDbText
 10
106.987831
 20
25.58419
 40
3.553875
  1
７０
 41
0.777778
  7
STANDARD
100
AcDbText
  0
TEXT
  5
DF
100
AcDbEntity
  8
M0
 62
     7
100
AcDbText
 10
115.987829
 20
25.58419
 40
3.553875
  1
８０
 41
0.777778
  7
STANDARD
100
AcDbText
  0
TEXT
  5
E0
100
AcDbEntity
  8
M0
 62
     7
100
AcDbText
 10
124.987831
 20
25.58419
 40
3.553875
  1
９０
 41
0.777778
  7
STANDARD
100
AcDbText
  0
TEXT
  5
E1
100
AcDbEntity
  8
M0
 62
     7
100
AcDbText
 10
70.676776
 20
17.139487
 40
5.52825
  1
揚水量
 41
1.666667
  7
STANDARD
100
AcDbText
  0
TEXT
  5
E2
100
AcDbEntity
  8
M0
 62
     7
100
AcDbText
 10
101.651657
 20
18.370738
 40
3.553875
  1
（Ｌ／分）
 41
0.777778
  7
STANDARD
100
AcDbText
  0
TEXT
  5
E3
100
AcDbEntity
  8
M0
 62
     7
100
AcDbText
 10
26.813758
 20
78.934192
 40
5.52825
  1
全
 41
1.388889
  7
STANDARD
100
AcDbText
  0
TEXT
  5
E4
100
AcDbEntity
  8
M0
 62
     7
100
AcDbText
 10
26.813758
 20
67.877692
 40
5.52825
  1
揚
 41
1.388889
  7
STANDARD
100
AcDbText
  0
TEXT
  5
E5
100
AcDbEntity
  8
M0
 62
     7
100
AcDbText
 10
26.813758
 20
56.821193
 40
5.52825
  1
程
 41
1.388889
  7
STANDARD
100
AcDbText
  0
TEXT
  5
E6
100
AcDbEntity
  8
M0
 62
     7
100
AcDbText
 10
25.962536
 20
47.834176
 40
3.553875
  1
（ｍ）
 41
0.777778
  7
STANDARD
100
AcDbText
  0
LINE
  5
E7
100
AcDbEntity
  8
M0
 62
     7
100
AcDbLine
 10
91.370712
 20
112.112445
 11
91.370712
 21
31.112445
  0
LINE
  5
E8
100
AcDbEntity
  8
M0
 62
     7
100
AcDbLine
 10
109.370712
 20
76.112445
 11
109.370712
 21
31.112445
  0
LINE
  5
E9
100
AcDbEntity
  8
M0
 62
     7
100
AcDbLine
 10
118.370712
 20
76.112445
 11
118.370712
 21
31.112445
  0
TEXT
  5
EA
100
AcDbEntity
  8
M0
100
AcDbText
 10
68.572261
 20
246.22501
 40
8.0
  1
ＳＦＭ－Ｐ４５０Ｖ
 41
0.416667
  7
STANDARD
100
AcDbText
  0
TEXT
  5
EB
100
AcDbEntity
  8
M0
100
AcDbText
 10
69.337373
 20
121.818186
 40
8.0
  1
ＳＦＭ－Ｋ７５０Ｖ
 41
0.416667
  7
STANDARD
100
AcDbText
  0
SPLINE
  5
EC
100
AcDbEntity
  8
M0
 62
     5
100
AcDbSpline
210
0.0
220
0.0
230
-1.0
 70
     8
 71
     3
 72
    11
 73
     7
 43
0.0000001
 40
0.0
 40
0.0
 40
0.0
 40
0.0
 40
1.0
 40
1.0
 40
1.0
 40
2.0
 40
2.0
 40
2.0
 40
2.0
 10
116.594334
 20
160.019269
 10
102.263196
 20
172.521971
 10
87.932057
 20
185.024675
 10
76.094334
 20
193.319269
 10
64.637238
 20
201.347162
 10
55.515785
 20
205.433217
 10
46.394334
 20
209.519269
  0
ARC
  5
ED
100
AcDbEntity
  8
M0
 62
     1
100
AcDbCircle
 10
84.333763
 20
76.443775
 40
155.362311
100
AcDbArc
 50
34.534603
 51
64.540942
  0
SPLINE
  5
EE
100
AcDbEntity
  8
M0
 62
     1
100
AcDbSpline
210
0.0
220
0.0
230
-1.0
 70
     8
 71
     3
 72
    14
 73
    10
 43
0.0000001
 40
0.0
 40
0.0
 40
0.0
 40
0.0
 40
1.0
 40
1.0
 40
1.0
 40
2.0
 40
2.0
 40
2.0
 40
3.0
 40
3.0
 40
3.0
 40
3.0
 10
46.394334
 20
208.619269
 10
55.192904
 20
205.007275
 10
63.991481
 20
201.395281
 10
73.394334
 20
193.319269
 10
82.797187
 20
185.243257
 10
92.804324
 20
172.703239
 10
98.594334
 20
164.519269
 10
99.758218
 20
162.874161
 10
100.7517
 20
161.40507
 10
101.664547
 20
160.019269
  0
SPLINE
  5
EF
100
AcDbEntity
  8
M0
 62
     1
100
AcDbSpline
210
0.0
220
0.0
230
-1.0
 70
     8
 71
     3
 72
    14
 73
    10
 43
0.0000001
 40
0.0
 40
0.0
 40
0.0
 40
0.0
 40
1.0
 40
1.0
 40
1.0
 40
2.0
 40
2.0
 40
2.0
 40
3.0
 40
3.0
 40
3.0
 40
3.0
 10
46.370712
 20
106.712445
 10
52.628804
 20
103.84353
 10
58.886894
 20
100.974609
 10
66.170712
 20
94.112445
 10
75.59434
 20
85.234342
 10
86.734878
 20
69.67212
 10
94.070712
 20
58.112445
 10
98.665872
 20
50.871475
 10
101.768156
 20
45.201001
 10
104.317286
 20
40.112445
  0
SPLINE
  5
F0
100
AcDbEntity
  8
M0
 62
     5
100
AcDbSpline
210
0.0
220
0.0
230
-1.0
 70
     8
 71
     3
 72
    14
 73
    10
 43
0.0000001
 40
0.0
 40
0.0
 40
0.0
 40
0.0
 40
1.0
 40
1.0
 40
1.0
 40
2.0
 40
2.0
 40
2.0
 40
3.0
 40
3.0
 40
3.0
 40
3.0
 10
46.370712
 20
102.212445
 10
51.979319
 20
100.269465
 10
57.587928
 20
98.326477
 10
64.370712
 20
94.112445
 10
73.71951
 20
88.304191
 10
85.298941
 20
78.181511
 10
94.970712
 20
67.112445
 10
102.466243
 20
58.534024
 10
108.816015
 20
49.387183
 10
114.907981
 20
40.112445
  0
SPLINE
  5
F1
100
AcDbEntity
  8
M0
 62
     5
100
AcDbSpline
210
0.0
220
0.0
230
-1.0
 70
     8
 71
     3
 72
    17
 73
    13
 43
0.0000001
 40
0.0
 40
0.0
 40
0.0
 40
0.0
 40
1.0
 40
1.0
 40
1.0
 40
2.0
 40
2.0
 40
2.0
 40
3.0
 40
3.0
 40
3.0
 40
4.0
 40
4.0
 40
4.0
 40
4.0
 10
151.118744
 20
217.619269
 10
157.486698
 20
215.152284
 10
163.854657
 20
212.685299
 10
170.018744
 20
209.519269
 10
176.18283
 20
206.353239
 10
182.14305
 20
202.48817
 10
186.218744
 20
199.619269
 10
190.294437
 20
196.750368
 10
192.485616
 20
194.877635
 10
196.118744
 20
191.519269
 10
203.229456
 20
184.946317
 10
215.863691
 20
172.682541
 10
222.218744
 20
164.519269
  0
TEXT
  5
F2
100
AcDbEntity
  8
M0
 62
   253
100
AcDbText
 10
241.955166
 20
178.836265
 40
3.250065
  1
圧力センサー読取り範囲
 41
0.841667
  7
STANDARD
100
AcDbText
  0
TEXT
  5
F3
100
AcDbEntity
  8
M0
 62
   253
100
AcDbText
 10
252.746932
 20
174.173143
 40
3.250065
  1
自動モード
 41
0.841667
  7
STANDARD
100
AcDbText
  0
TEXT
  5
F4
100
AcDbEntity
  8
M0
 62
   253
100
AcDbText
 10
267.249913
 20
169.357978
 40
3.250065
  1
閉
 41
1.666667
  7
STANDARD
100
AcDbText
  0
TEXT
  5
F5
100
AcDbEntity
  8
M0
 62
   253
100
AcDbText
 10
267.432075
 20
164.275547
 40
3.250065
  1
開
 41
1.666667
  7
STANDARD
100
AcDbText
  0
TEXT
  5
F6
100
AcDbEntity
  8
M0
 62
   253
100
AcDbText
 10
247.655183
 20
159.394472
 40
3.250065
  1
吸込管接続口径
 41
0.841667
  7
STANDARD
100
AcDbText
  0
TEXT
  5
F7
100
AcDbEntity
  8
M0
 62
   253
100
AcDbText
 10
248.021608
 20
154.871524
 40
3.250065
  1
吐出管接続口径
 41
0.841667
  7
STANDARD
100
AcDbText
  0
TEXT
  5
F8
100
AcDbEntity
  8
M0
 62
   253
100
AcDbText
 10
245.569237
 20
147.4079
 40
3.250065
  1
製品質量
 41
0.841667
  7
STANDARD
100
AcDbText
  0
TEXT
  5
F9
100
AcDbEntity
  8
M0
 62
   253
100
AcDbText
 10
263.388102
 20
149.629545
 40
3.250065
  1
ポンプ部
 41
0.841667
  7
STANDARD
100
AcDbText
  0
TEXT
  5
FA
100
AcDbEntity
  8
M0
 62
   253
100
AcDbText
 10
264.056264
 20
144.541533
 40
3.250065
  1
地上部
 41
0.841667
  7
STANDARD
100
AcDbText
  0
LINE
  5
FB
100
AcDbEntity
  8
M0
 62
   253
100
AcDbLine
 10
241.199268
 20
143.892417
 11
404.662051
 21
143.892417
  0
TEXT
  5
FC
100
AcDbEntity
  8
M0
 62
   253
100
AcDbText
 10
322.297521
 20
174.241104
 40
3.033394
  1
マイコンによる無段階圧力運転
 41
0.595238
  7
STANDARD
100
AcDbText
  0
TEXT
  5
FD
100
AcDbEntity
  8
M0
 62
   253
100
AcDbText
 10
301.302331
 20
179.459258
 40
3.033394
  1
１７０ｋＰａ～６００ｋＰａ｛１．７ｋｇｆ／ｃｍ
 41
0.595238
  7
STANDARD
100
AcDbText
  0
TEXT
  5
FE
100
AcDbEntity
  8
M0
 62
   253
100
AcDbText
 10
351.064439
 20
181.279294
 40
1.820036
  1
２
 41
0.595238
  7
STANDARD
100
AcDbText
  0
TEXT
  5
FF
100
AcDbEntity
  8
M0
 62
   253
100
AcDbText
 10
352.436689
 20
179.459258
 40
3.033394
  1
～６．０ｋｇｆ／ｃｍ
 41
0.595238
  7
STANDARD
100
AcDbText
  0
TEXT
  5
100
100
AcDbEntity
  8
M0
 62
   253
100
AcDbText
 10
374.031572
 20
181.279294
 40
1.820036
  1
２
 41
0.595238
  7
STANDARD
100
AcDbText
  0
TEXT
  5
101
100
AcDbEntity
  8
M0
 62
   253
100
AcDbText
 10
375.403814
 20
179.459258
 40
3.033394
  1
｝
 41
0.595238
  7
STANDARD
100
AcDbText
  0
LINE
  5
102
100
AcDbEntity
  8
M0
 62
   253
100
AcDbLine
 10
262.085129
 20
148.767514
 11
404.662051
 21
148.767514
  0
LINE
  5
103
100
AcDbEntity
  8
M0
 62
   253
100
AcDbLine
 10
241.199268
 20
153.642612
 11
404.662051
 21
153.642612
  0
LINE
  5
104
100
AcDbEntity
  8
M0
 62
   253
100
AcDbLine
 10
241.199268
 20
158.517709
 11
404.662051
 21
158.517709
  0
LINE
  5
105
100
AcDbEntity
  8
M0
 62
   253
100
AcDbLine
 10
241.199268
 20
163.392807
 11
404.662051
 21
163.392807
  0
LINE
  5
106
100
AcDbEntity
  8
M0
 62
   253
100
AcDbLine
 10
262.085129
 20
153.642612
 11
262.085129
 21
143.892417
  0
LINE
  5
107
100
AcDbEntity
  8
M0
 62
   253
100
AcDbLine
 10
261.726085
 20
173.143002
 11
261.726085
 21
163.392807
  0
LINE
  5
108
100
AcDbEntity
  8
M0
 62
   253
100
AcDbLine
 10
246.398776
 20
173.143002
 11
404.662051
 21
173.143002
  0
LINE
  5
109
100
AcDbEntity
  8
M0
 62
   253
100
AcDbLine
 10
241.199268
 20
178.018099
 11
404.662051
 21
178.018099
  0
LINE
  5
10A
100
AcDbEntity
  8
M0
 62
   253
100
AcDbLine
 10
241.199268
 20
182.893197
 11
404.662051
 21
182.893197
  0
LINE
  5
10B
100
AcDbEntity
  8
M0
 62
   253
100
AcDbLine
 10
261.726085
 20
168.267904
 11
404.662051
 21
168.267904
  0
TEXT
  5
10C
100
AcDbEntity
  8
M0
 62
   253
100
AcDbText
 10
248.046147
 20
170.295863
 40
1.950039
  1
＊
 41
0.841667
  7
STANDARD
100
AcDbText
  0
TEXT
  5
10D
100
AcDbEntity
  8
M0
 62
   253
100
AcDbText
 10
250.131605
 20
168.345825
 40
3.250065
  1
固　定
 41
0.841667
  7
STANDARD
100
AcDbText
  0
TEXT
  5
10E
100
AcDbEntity
  8
M0
 62
   253
100
AcDbText
 10
249.769764
 20
164.759487
 40
3.250065
  1
モード
 41
0.841667
  7
STANDARD
100
AcDbText
  0
TEXT
  5
10F
100
AcDbEntity
  8
M0
 62
   253
100
AcDbText
 10
242.404983
 20
173.764596
 40
3.250065
  1
運
 41
0.833333
  7
STANDARD
100
AcDbText
  0
TEXT
  5
110
100
AcDbEntity
  8
M0
 62
   253
100
AcDbText
 10
242.404983
 20
170.48203
 40
3.250065
  1
転
 41
0.833333
  7
STANDARD
100
AcDbText
  0
TEXT
  5
111
100
AcDbEntity
  8
M0
 62
   253
100
AcDbText
 10
242.404983
 20
167.199465
 40
3.250065
  1
圧
 41
0.833333
  7
STANDARD
100
AcDbText
  0
TEXT
  5
112
100
AcDbEntity
  8
M0
 62
   253
100
AcDbText
 10
242.404983
 20
163.916899
 40
3.250065
  1
力
 41
0.833333
  7
STANDARD
100
AcDbText
  0
TEXT
  5
113
100
AcDbEntity
  8
M0
 62
   253
100
AcDbText
 10
335.106168
 20
144.846477
 40
3.033394
  1
１２ｋｇ
 41
0.595238
  7
STANDARD
100
AcDbText
  0
TEXT
  5
114
100
AcDbEntity
  8
M0
 62
   253
100
AcDbText
 10
300.698572
 20
169.726652
 40
3.033394
  1
１５０ｋＰａ～３５０ｋＰａ｛１．５ｋｇｆ／ｃｍ
 41
0.595238
  7
STANDARD
100
AcDbText
  0
TEXT
  5
115
100
AcDbEntity
  8
M0
 62
   253
100
AcDbText
 10
350.460679
 20
171.546689
 40
1.820036
  1
２
 41
0.595238
  7
STANDARD
100
AcDbText
  0
TEXT
  5
116
100
AcDbEntity
  8
M0
 62
   253
100
AcDbText
 10
351.832929
 20
169.726652
 40
3.033394
  1
～３．５ｋｇｆ／ｃｍ
 41
0.595238
  7
STANDARD
100
AcDbText
  0
TEXT
  5
117
100
AcDbEntity
  8
M0
 62
   253
100
AcDbText
 10
373.427812
 20
171.546689
 40
1.820036
  1
２
 41
0.595238
  7
STANDARD
100
AcDbText
  0
TEXT
  5
118
100
AcDbEntity
  8
M0
 62
   253
100
AcDbText
 10
374.800054
 20
169.726652
 40
3.033394
  1
｝
 41
0.595238
  7
STANDARD
100
AcDbText
  0
TEXT
  5
119
100
AcDbEntity
  8
M0
 62
   253
100
AcDbText
 10
300.893781
 20
164.54064
 40
3.033394
  1
１７０ｋＰａ～３７０ｋＰａ｛１．７ｋｇｆ／ｃｍ
 41
0.595238
  7
STANDARD
100
AcDbText
  0
TEXT
  5
11A
100
AcDbEntity
  8
M0
 62
   253
100
AcDbText
 10
350.655885
 20
166.360676
 40
1.820036
  1
２
 41
0.595238
  7
STANDARD
100
AcDbText
  0
TEXT
  5
11B
100
AcDbEntity
  8
M0
 62
   253
100
AcDbText
 10
352.028135
 20
164.54064
 40
3.033394
  1
～３．７ｋｇｆ／ｃｍ
 41
0.595238
  7
STANDARD
100
AcDbText
  0
TEXT
  5
11C
100
AcDbEntity
  8
M0
 62
   253
100
AcDbText
 10
373.623002
 20
166.360676
 40
1.820036
  1
２
 41
0.595238
  7
STANDARD
100
AcDbText
  0
TEXT
  5
11D
100
AcDbEntity
  8
M0
 62
   253
100
AcDbText
 10
374.995244
 20
164.54064
 40
3.033394
  1
｝
 41
0.595238
  7
STANDARD
100
AcDbText
  0
LINE
  5
11E
100
AcDbEntity
  8
M0
 62
   253
100
AcDbLine
 10
246.398776
 20
178.018099
 11
246.398776
 21
163.392807
  0
TEXT
  5
11F
100
AcDbEntity
  8
M0
 62
   253
100
AcDbText
 10
251.247844
 20
232.798936
 40
3.250065
  1
型　　　式
 41
0.841667
  7
STANDARD
100
AcDbText
  0
TEXT
  5
120
100
AcDbEntity
  8
M0
 62
   253
100
AcDbText
 10
251.378907
 20
225.445741
 40
3.250065
  1
電　　　源
 41
0.841667
  7
STANDARD
100
AcDbText
  0
TEXT
  5
121
100
AcDbEntity
  8
M0
 62
   253
100
AcDbText
 10
250.007376
 20
216.219098
 40
3.250065
  1
モーター
 41
1.25
  7
STANDARD
100
AcDbText
  0
TEXT
  5
122
100
AcDbEntity
  8
M0
 62
   253
100
AcDbText
 10
246.430075
 20
208.652936
 40
3.250065
  1
定格出力
 41
1.666667
  7
STANDARD
100
AcDbText
  0
TEXT
  5
123
100
AcDbEntity
  8
M0
 62
   253
100
AcDbText
 10
246.205245
 20
203.658864
 40
3.250065
  1
消費電力
 41
1.666667
  7
STANDARD
100
AcDbText
  0
TEXT
  5
124
100
AcDbEntity
  8
M0
 62
   253
100
AcDbText
 10
248.137431
 20
198.6914
 40
3.250065
  1
吸上げ高さ範囲
 41
0.841667
  7
STANDARD
100
AcDbText
  0
TEXT
  5
125
100
AcDbEntity
  8
M0
 62
   253
100
AcDbText
 10
250.919605
 20
193.526784
 40
3.250065
  1
押上げ高さ
 41
0.841667
  7
STANDARD
100
AcDbText
  0
TEXT
  5
126
100
AcDbEntity
  8
M0
 62
   253
100
AcDbText
 10
249.819454
 20
188.992683
 40
3.250065
  1
揚水量
 41
1.666667
  7
STANDARD
100
AcDbText
  0
LINE
  5
127
100
AcDbEntity
  8
M0
 62
   253
100
AcDbLine
 10
241.199268
 20
236.519269
 11
404.662051
 21
236.519269
  0
TEXT
  5
128
100
AcDbEntity
  8
M0
 62
   253
100
AcDbText
 10
251.173648
 20
184.117584
 40
3.250065
  1
（全揚程）
 41
0.833333
  7
STANDARD
100
AcDbText
  0
LINE
  5
129
100
AcDbEntity
  8
M0
 62
   253
100
AcDbLine
 10
241.199268
 20
236.519269
 11
241.199268
 21
143.892417
  0
LINE
  5
12A
100
AcDbEntity
  8
M0
 62
   253
100
AcDbLine
 10
404.662051
 20
236.519269
 11
404.662051
 21
143.892417
  0
TEXT
  5
12B
100
AcDbEntity
  8
M0
 62
   253
100
AcDbText
 10
288.496728
 20
203.535001
 40
3.033394
  1
８２０Ｗ／９５０Ｗ
 41
0.595238
  7
STANDARD
100
AcDbText
  0
TEXT
  5
12C
100
AcDbEntity
  8
M0
 62
   253
100
AcDbText
 10
365.483381
 20
223.624009
 40
3.033394
  1
５０／６０（Ｈｚ）いずれか専用
 41
0.595238
  7
STANDARD
100
AcDbText
  0
TEXT
  5
12D
100
AcDbEntity
  8
M0
 62
   253
100
AcDbText
 10
365.904676
 20
217.633939
 40
3.033394
  1
キャンド式水中
 41
0.595238
  7
STANDARD
100
AcDbText
  0
TEXT
  5
12E
100
AcDbEntity
  8
M0
 62
   253
100
AcDbText
 10
301.565431
 20
227.916398
 40
3.033394
  1
単相　１００（Ｖ）
 41
0.595238
  7
STANDARD
100
AcDbText
  0
TEXT
  5
12F
100
AcDbEntity
  8
M0
 62
   253
100
AcDbText
 10
301.565431
 20
223.624009
 40
3.033394
  1
５０／６０（Ｈｚ）いずれか専用
 41
0.595238
  7
STANDARD
100
AcDbText
  0
TEXT
  5
130
100
AcDbEntity
  8
M0
 62
   253
100
AcDbText
 10
301.98673
 20
217.633939
 40
3.033394
  1
キャンド式水中
 41
0.595238
  7
STANDARD
100
AcDbText
  0
TEXT
  5
131
100
AcDbEntity
  8
M0
 62
   253
100
AcDbText
 10
302.091401
 20
213.755308
 40
3.033394
  1
コンデンサ始動コンデンサモーター
 41
0.595238
  7
STANDARD
100
AcDbText
  0
TEXT
  5
132
100
AcDbEntity
  8
M0
 62
   253
100
AcDbText
 10
365.483381
 20
227.916398
 40
3.033394
  1
３相　２００（Ｖ）
 41
0.595238
  7
STANDARD
100
AcDbText
  0
TEXT
  5
133
100
AcDbEntity
  8
M0
 62
   253
100
AcDbText
 10
293.564981
 20
208.563306
 40
3.033394
  1
４５０Ｗ
 41
0.595238
  7
STANDARD
100
AcDbText
  0
TEXT
  5
134
100
AcDbEntity
  8
M0
 62
   253
100
AcDbText
 10
335.815824
 20
208.563306
 40
3.033394
  1
６００Ｗ
 41
0.595238
  7
STANDARD
100
AcDbText
  0
TEXT
  5
135
100
AcDbEntity
  8
M0
 62
   253
100
AcDbText
 10
330.747564
 20
203.535001
 40
3.033394
  1
８９０Ｗ／１１００Ｗ
 41
0.595238
  7
STANDARD
100
AcDbText
  0
TEXT
  5
136
100
AcDbEntity
  8
M0
 62
   253
100
AcDbText
 10
337.988508
 20
193.424184
 40
3.033394
  1
１５ｍ
 41
0.595238
  7
STANDARD
100
AcDbText
  0
LINE
  5
137
100
AcDbEntity
  8
M0
 62
   253
100
AcDbLine
 10
241.199268
 20
192.643392
 11
404.662051
 21
192.643392
  0
LINE
  5
138
100
AcDbEntity
  8
M0
 62
   253
100
AcDbLine
 10
241.199268
 20
197.518489
 11
404.662051
 21
197.518489
  0
LINE
  5
139
100
AcDbEntity
  8
M0
 62
   253
100
AcDbLine
 10
241.199268
 20
202.393587
 11
404.662051
 21
202.393587
  0
LINE
  5
13A
100
AcDbEntity
  8
M0
 62
   253
100
AcDbLine
 10
241.199268
 20
207.268684
 11
404.662051
 21
207.268684
  0
LINE
  5
13B
100
AcDbEntity
  8
M0
 62
   253
100
AcDbLine
 10
241.199268
 20
212.143782
 11
404.662051
 21
212.143782
  0
LINE
  5
13C
100
AcDbEntity
  8
M0
 62
   253
100
AcDbLine
 10
241.199268
 20
221.893977
 11
404.662051
 21
221.893977
  0
LINE
  5
13D
100
AcDbEntity
  8
M0
 62
   253
100
AcDbLine
 10
241.199268
 20
231.644172
 11
404.662051
 21
231.644172
  0
LINE
  5
13E
100
AcDbEntity
  8
M0
 62
   253
100
AcDbLine
 10
277.909516
 20
236.519269
 11
277.909516
 21
143.892417
  0
LINE
  5
13F
100
AcDbEntity
  8
M0
 62
   253
100
AcDbLine
 10
320.160361
 20
236.519269
 11
320.160361
 21
231.644172
  0
LINE
  5
140
100
AcDbEntity
  8
M0
 62
   253
100
AcDbLine
 10
362.411206
 20
236.519269
 11
362.411206
 21
197.518489
  0
LINE
  5
141
100
AcDbEntity
  8
M0
 62
   253
100
AcDbLine
 10
362.411206
 20
153.642612
 11
362.411206
 21
148.767514
  0
LINE
  5
142
100
AcDbEntity
  8
M0
 62
   253
100
AcDbLine
 10
320.160361
 20
153.642612
 11
320.160361
 21
148.767514
  0
TEXT
  5
143
100
AcDbEntity
  8
M0
 62
   253
100
AcDbText
 10
366.009343
 20
213.755308
 40
3.033394
  1
３相誘導モーター
 41
0.595238
  7
STANDARD
100
AcDbText
  0
TEXT
  5
144
100
AcDbEntity
  8
M0
 62
   253
100
AcDbText
 10
379.150029
 20
208.563306
 40
3.033394
  1
７５０Ｗ
 41
0.595238
  7
STANDARD
100
AcDbText
  0
TEXT
  5
145
100
AcDbEntity
  8
M0
 62
   253
100
AcDbText
 10
333.921026
 20
198.398149
 40
3.033394
  1
１２ｍ～４０ｍ
 41
0.595238
  7
STANDARD
100
AcDbText
  0
TEXT
  5
146
100
AcDbEntity
  8
M0
 62
   253
100
AcDbText
 10
377.255224
 20
198.398149
 40
3.033394
  1
２４ｍ～４２ｍ
 41
0.595238
  7
STANDARD
100
AcDbText
  0
LINE
  5
147
100
AcDbEntity
  8
M0
 62
   253
100
AcDbLine
 10
320.160361
 20
212.143782
 11
320.160361
 21
197.518489
  0
LINE
  5
148
100
AcDbEntity
  8
M0
 62
   253
100
AcDbLine
 10
320.160361
 20
192.643392
 11
320.160361
 21
182.893197
  0
LINE
  5
149
100
AcDbEntity
  8
M0
 62
   253
100
AcDbLine
 10
362.411206
 20
192.643392
 11
362.411206
 21
182.893197
  0
TEXT
  5
14A
100
AcDbEntity
  8
M0
 62
   253
100
AcDbText
 10
372.998403
 20
203.535001
 40
3.033394
  1
１１１０Ｗ／１１６０Ｗ
 41
0.595238
  7
STANDARD
100
AcDbText
  0
TEXT
  5
14B
100
AcDbEntity
  8
M0
 62
   253
100
AcDbText
 10
291.670179
 20
198.398149
 40
3.033394
  1
４ｍ～３０ｍ
 41
0.595238
  7
STANDARD
100
AcDbText
  0
TEXT
  5
14C
100
AcDbEntity
  8
M0
 62
   253
100
AcDbText
 10
287.936563
 20
188.665994
 40
3.033394
  1
３０Ｌ／分／３３Ｌ／分
 41
0.595238
  7
STANDARD
100
AcDbText
  0
TEXT
  5
14D
100
AcDbEntity
  8
M0
 62
   253
100
AcDbText
 10
330.187406
 20
188.665994
 40
3.033394
  1
３１Ｌ／分／３６Ｌ／分
 41
0.595238
  7
STANDARD
100
AcDbText
  0
TEXT
  5
14E
100
AcDbEntity
  8
M0
 62
   253
100
AcDbText
 10
373.521612
 20
188.665994
 40
3.033394
  1
４３Ｌ／分／４８Ｌ／分
 41
0.595238
  7
STANDARD
100
AcDbText
  0
TEXT
  5
14F
100
AcDbEntity
  8
M0
 62
   253
100
AcDbText
 10
293.377096
 20
184.117584
 40
3.033394
  1
（４２ｍ）
 41
0.595238
  7
STANDARD
100
AcDbText
  0
TEXT
  5
150
100
AcDbEntity
  8
M0
 62
   253
100
AcDbText
 10
335.627942
 20
184.117584
 40
3.033394
  1
（４９ｍ）
 41
0.595238
  7
STANDARD
100
AcDbText
  0
TEXT
  5
151
100
AcDbEntity
  8
M0
 62
   253
100
AcDbText
 10
378.962133
 20
184.117584
 40
3.033394
  1
（４７ｍ）
 41
0.595238
  7
STANDARD
100
AcDbText
  0
TEXT
  5
152
100
AcDbEntity
  8
M0
 62
   253
100
AcDbText
 10
330.894231
 20
159.406996
 40
3.033394
  1
２５ｍｍ（Ｒｐ１）
 41
0.595238
  7
STANDARD
100
AcDbText
  0
TEXT
  5
153
100
AcDbEntity
  8
M0
 62
   253
100
AcDbText
 10
331.000608
 20
154.991286
 40
3.033394
  1
２５ｍｍ（Ｒｐ１）
 41
0.595238
  7
STANDARD
100
AcDbText
  0
TEXT
  5
154
100
AcDbEntity
  8
M0
 62
   253
100
AcDbText
 10
283.447156
 20
149.819946
 40
3.033394
  1
　　　　　２０．０ｋｇ
 41
0.595238
  7
STANDARD
100
AcDbText
  0
TEXT
  5
155
100
AcDbEntity
  8
M0
 62
   253
100
AcDbText
 10
330.031431
 20
149.819946
 40
3.033394
  1
　　　２１．０ｋｇ
 41
0.595238
  7
STANDARD
100
AcDbText
  0
TEXT
  5
156
100
AcDbEntity
  8
M0
 62
   253
100
AcDbText
 10
372.282262
 20
149.819946
 40
3.033394
  1
　　　２３．０ｋｇ
 41
0.595238
  7
STANDARD
100
AcDbText
  0
TEXT
  5
157
100
AcDbEntity
  8
M0
 62
   253
100
AcDbText
 10
288.555204
 20
232.645791
 40
3.033394
  1
ＳＦＭ－Ｐ４５０Ｖ
 41
0.595238
  7
STANDARD
100
AcDbText
  0
TEXT
  5
158
100
AcDbEntity
  8
M0
 62
   253
100
AcDbText
 10
330.806051
 20
232.645791
 40
3.033394
  1
ＳＦＭ－Ｐ６００Ｖ
 41
0.595238
  7
STANDARD
100
AcDbText
  0
TEXT
  5
159
100
AcDbEntity
  8
M0
 62
   253
100
AcDbText
 10
373.05689
 20
232.645791
 40
3.033394
  1
ＳＦＭ－Ｋ７５０Ｖ
 41
0.595238
  7
STANDARD
100
AcDbText
  0
TEXT
  5
15A
100
AcDbEntity
  8
M0
100
AcDbText
 10
242.956401
 20
135.584681
 40
3.250065
  1
＊「固定モード」時のポンプを運転させる点を「閉」、停止させる点を「開」として表わしています。
 41
0.844444
  7
STANDARD
100
AcDbText
  0
TEXT
  5
15B
100
AcDbEntity
  8
M0
100
AcDbText
 10
247.000342
 20
131.136823
 40
3.250065
  1
通常は「自動モード」で運転しますので圧力センサーの「閉」「開」圧力は無視されます。
 41
0.844444
  7
STANDARD
100
AcDbText
  0
LINE
  5
15C
100
AcDbEntity
  8
M0
100
AcDbLine
 10
241.14499
 20
276.779112
 11
276.788748
 21
276.779112
  0
LINE
  5
15D
100
AcDbEntity
  8
M0
100
AcDbLine
 10
241.14499
 20
276.779112
 11
241.14499
 21
262.080655
  0
LINE
  5
15E
100
AcDbEntity
  8
M0
100
AcDbLine
 10
276.788748
 20
276.779112
 11
276.788748
 21
262.080655
  0
LINE
  5
15F
100
AcDbEntity
  8
M0
100
AcDbLine
 10
241.14499
 20
262.080655
 11
276.788748
 21
262.080655
  0
TEXT
  5
160
100
AcDbEntity
  8
M0
100
AcDbText
 10
247.294371
 20
265.291341
 40
8.3335
  1
仕　様
 41
0.836667
  7
STANDARD
100
AcDbText
  0
LINE
  5
161
100
AcDbEntity
  8
M0
 62
    74
100
AcDbLine
 10
32.063625
 20
262.080655
 11
65.501946
 21
262.080655
  0
LINE
  5
162
100
AcDbEntity
  8
M0
 62
    74
100
AcDbLine
 10
32.063625
 20
262.080655
 11
65.501946
 21
262.080655
  0
LINE
  5
163
100
AcDbEntity
  8
M0
 62
    74
100
AcDbLine
 10
32.063625
 20
262.080655
 11
64.767038
 21
262.080655
  0
LINE
  5
164
100
AcDbEntity
  8
M0
 62
    74
100
AcDbLine
 10
32.063625
 20
262.080655
 11
36.10562
 21
262.080655
  0
LINE
  5
165
100
AcDbEntity
  8
M0
 62
    74
100
AcDbLine
 10
36.10562
 20
262.080655
 11
32.063625
 21
262.080655
  0
LINE
  5
166
100
AcDbEntity
  8
M0
 62
    74
100
AcDbLine
 10
32.063625
 20
262.080655
 11
32.063625
 21
276.779112
  0
LINE
  5
167
100
AcDbEntity
  8
M0
 62
    74
100
AcDbLine
 10
65.501946
 20
262.080655
 11
65.501946
 21
276.779112
  0
LINE
  5
168
100
AcDbEntity
  8
M0
 62
    74
100
AcDbLine
 10
65.501946
 20
276.779112
 11
32.063625
 21
276.779112
  0
TEXT
  5
169
100
AcDbEntity
  8
M0
 62
    74
100
AcDbText
 10
36.60562
 20
265.020581
 40
10.0
  1
揚水性能
 41
0.5
  7
STANDARD
100
AcDbText
  0
ENDSEC
  0
SECTION
  2
OBJECTS
  0
DICTIONARY
  5
C
100
AcDbDictionary
  3
ACAD_GROUP
350
D
  3
ACAD_MLINESTYLE
350
E
  0
DICTIONARY
  5
D
102
{ACAD_REACTORS
330
C
102
}
100
AcDbDictionary
  0
DICTIONARY
  5
E
102
{ACAD_REACTORS
330
C
102
}
100
AcDbDictionary
  3
STANDARD
350
13
  0
MLINESTYLE
  5
13
102
{ACAD_REACTORS
330
E
102
}
100
AcDbMlineStyle
  2
STANDARD
 70
     0
  3

 62
     0
 51
90.0
 52
90.0
 71
     2
 49
0.5
 62
   256
  6
BYLAYER
 49
-0.5
 62
   256
  6
BYLAYER
  0
ENDSEC
  0
EOF
