  0
SECTION
  2
HEADER
  9
$ACADVER
  1
AC1012
  9
$INSBASE
 10
0.0
 20
0.0
  9
$VIEWCTR
 10
7.531722
 20
4.5
  9
$VIEWSIZE
 40
9.0
  9
$SNAPMODE
 70
     0
  9
$SNAPUNIT
 10
1.0
 20
1.0
  9
$SNAPBASE
 10
0.0
 20
0.0
  9
$SNAPANG
 50
0.0
  9
$SNAPSTYLE
 70
     0
  9
$SNAPISOPAIR
 70
     0
  9
$GRIDMODE
 70
     0
  9
$GRIDUNIT
 10
0.0
 20
0.0
  9
$ORTHOMODE
 70
     0
  9
$REGENMODE
 70
     1
  9
$FILLMODE
 70
     1
  9
$QTEXTMODE
 70
     0
  9
$DRAGMODE
 70
     2
  9
$LTSCALE
 40
1.0
  9
$OSMODE
 70
     0
  9
$ATTMODE
 70
     1
  9
$TEXTSIZE
 40
0.2
  9
$TRACEWID
 40
0.05
  9
$TEXTSTYLE
  7
STANDARD
  9
$CELTYPE
  6
BYLAYER
  9
$CECOLOR
 62
   256
  9
$DIMSCALE
 40
1.0
  9
$DIMASZ
 40
0.18
  9
$DIMEXO
 40
0.0625
  9
$DIMDLI
 40
0.38
  9
$DIMRND
 40
0.0
  9
$DIMDLE
 40
0.0
  9
$DIMEXE
 40
0.18
  9
$DIMTP
 40
0.0
  9
$DIMTM
 40
0.0
  9
$DIMTXT
 40
0.18
  9
$DIMCEN
 40
0.09
  9
$DIMTSZ
 40
0.0
  9
$DIMTOL
 70
     0
  9
$DIMLIM
 70
     0
  9
$DIMTIH
 70
     1
  9
$DIMTOH
 70
     1
  9
$DIMSE1
 70
     0
  9
$DIMSE2
 70
     0
  9
$DIMTAD
 70
     0
  9
$DIMZIN
 70
     0
  9
$DIMBLK
  1

  9
$LUNITS
 70
     2
  9
$LUPREC
 70
     4
  9
$AXISMODE
 70
     0
  9
$AXISUNIT
 10
0.0
 20
0.0
  9
$SKETCHINC
 40
0.1
  9
$FILLETRAD
 40
0.0
  9
$AUNITS
 70
     0
  9
$AUPREC
 70
     0
  9
$MENU
  1
ACAD
  9
$ELEVATION
 40
0.0
  9
$THICKNESS
 40
0.0
  9
$VIEWDIR
 10
0.0
 20
0.0
 30
1.0
  9
$LIMCHECK
 70
     0
  9
$BLIPMODE
 70
     1
  9
$CHAMFERA
 40
0.0
  9
$CHAMFERB
 40
0.0
  9
$FASTZOOM
 70
     1
  9
$SKPOLY
 70
     0
  9
$TDCREATE
 40
0000000.0000000000
  9
$TDUPDATE
 40
0000000.0000000000
  9
$TDINDWG
 40
0.0000000000
  9
$TDUSRTIMER
 40
0.0000000000
  9
$USRTIMER
 70
     1
  9
$ANGBASE
 50
0.0
  9
$ANGDIR
 70
     0
  9
$PDMODE
 70
     0
  9
$PDSIZE
 40
0.0
  9
$PLINEWID
 40
0.0
  9
$COORDS
 70
     0
  9
$USERI1
 70
     0
  9
$USERI2
 70
     0
  9
$USERI3
 70
     0
  9
$USERI4
 70
     0
  9
$USERI5
 70
     0
  9
$USERR1
 40
0.0
  9
$USERR2
 40
0.0
  9
$USERR3
 40
0.0
  9
$USERR4
 40
0.0
  9
$USERR5
 40
0.0
  9
$CLAYER
  8
M0
  9
$EXTMIN
 10
0.0
 20
0.0
  9
$EXTMAX
 10
420.0
 20
297.0
  9
$LIMMIN
 10
0.0
 20
0.0
  9
$LIMMAX
 10
420.0
 20
297.0
  9
$HANDSEED
  5
16F
  0
ENDSEC
  0
SECTION
  2
CLASSES
  0
ENDSEC
  0
SECTION
  2
TABLES
  0
TABLE
  2
VPORT
  5
8
100
AcDbSymbolTable
 70
     2
  0
VPORT
  5
14
100
AcDbSymbolTableRecord
100
AcDbViewportTableRecord
  2
*ACTIVE
 70
     0
 10
0.0
 20
0.0
 11
1.0
 21
1.0
 12
484.0
 22
297.0
 13
0.0
 23
0.0
 14
1.0
 24
1.0
 15
0.0
 25
0.0
 16
0.0
 26
0.0
 36
1.0
 17
0.0
 27
0.0
 37
0.0
 40
594.0
 41
2.0
 42
50.0
 43
0.0
 44
0.0
 50
0.0
 51
0.0
 71
     0
 72
   100
 73
     1
 74
     1
 75
     0
 76
     0
 77
     0
 78
     0
  0
ENDTAB
  0
TABLE
  2
LTYPE
  5
5
100
AcDbSymbolTable
 70
     5
  0
LTYPE
  5
15
100
AcDbSymbolTableRecord
100
AcDbLinetypeTableRecord
  2
BYBLOCK
 70
     0
  3

 72
    65
 73
     0
 40
0.0
  0
LTYPE
  5
16
100
AcDbSymbolTableRecord
100
AcDbLinetypeTableRecord
  2
BYLAYER
 70
     0
  3

 72
    65
 73
     0
 40
0.0
  0
LTYPE
  5
17
100
AcDbSymbolTableRecord
100
AcDbLinetypeTableRecord
  2
CONTINUOUS
 70
    64
  3
Solid line
 72
    65
 73
     0
 40
0.0
  0
LTYPE
  5
18
100
AcDbSymbolTableRecord
100
AcDbLinetypeTableRecord
  2
DASHED
 70
    64
  3
__ __ __ __ __ __ __ __ __ __ __ __ __ __ __ __
 72
    65
 73
     2
 40
0.75
 49
0.5
 74
     0
 49
-0.25
 74
     0
  0
LTYPE
  5
19
100
AcDbSymbolTableRecord
100
AcDbLinetypeTableRecord
  2
DASHDOT
 70
    64
  3
__ . __ . __ . __ . __ . __ . __ . __ . __ . __
 72
    65
 73
     4
 40
1.0
 49
0.5
 74
     0
 49
-0.25
 74
     0
 49
0.0
 74
     0
 49
-0.25
 74
     0
  0
LTYPE
  5
1A
100
AcDbSymbolTableRecord
100
AcDbLinetypeTableRecord
  2
DIVIDE
 70
    64
  3
____ . . ____ . . ____ . . ____ . . ____ . . __
 72
    65
 73
     6
 40
1.25
 49
0.5
 74
     0
 49
-0.25
 74
     0
 49
0.0
 74
     0
 49
-0.25
 74
     0
 49
0.0
 74
     0
 49
-0.25
 74
     0
  0
LTYPE
  5
1B
100
AcDbSymbolTableRecord
100
AcDbLinetypeTableRecord
  2
DOT
 70
    64
  3
. . . . . . . . . . . . . . . . . . . . . . . .
 72
    65
 73
     2
 40
0.25
 49
0.0
 74
     0
 49
-0.25
 74
     0
  0
ENDTAB
  0
TABLE
  2
LAYER
  5
2
100
AcDbSymbolTable
 70
   102
  0
LAYER
  5
F
100
AcDbSymbolTableRecord
100
AcDbLayerTableRecord
  2
0
 70
     0
 62
     7
  6
CONTINUOUS
  0
LAYER
  5
1C
100
AcDbSymbolTableRecord
100
AcDbLayerTableRecord
  2
DEFPOINTS
 70
     0
 62
     7
  6
CONTINUOUS
  0
LAYER
  5
1D
100
AcDbSymbolTableRecord
100
AcDbLayerTableRecord
  2
M0
 70
     0
 62
     3
  6
CONTINUOUS
  0
LAYER
  5
1E
100
AcDbSymbolTableRecord
100
AcDbLayerTableRecord
  2
DD0
 70
     0
 62
     4
  6
CONTINUOUS
  0
ENDTAB
  0
TABLE
  2
STYLE
  5
3
100
AcDbSymbolTable
 70
     2
  0
STYLE
  5
10
100
AcDbSymbolTableRecord
100
AcDbTextStyleTableRecord
  2
STANDARD
 70
     0
 40
0.0
 41
1.0
 50
0.0
 71
     0
 42
0.2
  3
txt
  4
BIGFONT
  0
ENDTAB
  0
TABLE
  2
VIEW
  5
6
100
AcDbSymbolTable
 70
     0
  0
ENDTAB
  0
TABLE
  2
UCS
  5
7
100
AcDbSymbolTable
 70
     0
  0
ENDTAB
  0
TABLE
  2
APPID
  5
9
100
AcDbSymbolTable
 70
     1
  0
APPID
  5
11
100
AcDbSymbolTableRecord
100
AcDbRegAppTableRecord
  2
ACAD
 70
     0
  0
ENDTAB
  0
TABLE
  2
DIMSTYLE
  5
A
100
AcDbSymbolTable
 70
     2
  0
DIMSTYLE
105
25
100
AcDbSymbolTableRecord
100
AcDbDimStyleTableRecord
  2
STANDARD
 70
     0
  3

  4

  5

  6
_OPEN
  7
_OPEN
 40
1.0
 41
3.0
 42
0.0
 43
8.0
 44
1.5
 45
0.0
 46
0.0
 47
0.0
 48
0.0
140
3.5
141
0.09
142
0.0
143
0.03937
144
1.0
145
0.0
146
1.0
147
1.0
 71
     0
 72
     0
 73
     0
 74
     0
 75
     0
 76
     0
 77
     3
 78
     8
170
     0
171
     2
172
     0
173
     1
174
     0
175
     0
176
     0
177
     0
178
     0
270
     2
271
     2
272
     4
273
     2
274
     2
340
10
275
     0
280
     0
281
     0
282
     0
283
     1
284
     0
285
     0
286
     0
287
     3
288
     0
  0
DIMSTYLE
105
26
100
AcDbSymbolTableRecord
100
AcDbDimStyleTableRecord
  2
LEADSTYL
 70
     0
  3

  4

  5

  6
_OPEN
  7
_OPEN
 40
1.0
 41
3.0
 42
0.0625
 43
0.38
 44
0.18
 45
0.0
 46
0.0
 47
0.0
 48
0.0
140
3.2
141
0.09
142
0.0
143
25.4
144
1.0
145
0.0
146
1.0
147
1.0
 71
     0
 72
     0
 73
     1
 74
     1
 75
     0
 76
     0
 77
     0
 78
     0
170
     0
171
     2
172
     0
173
     1
174
     0
175
     0
176
     0
177
     0
178
     0
270
     2
271
     4
272
     4
273
     2
274
     2
340
10
275
     0
280
     0
281
     0
282
     0
283
     1
284
     0
285
     0
286
     0
287
     3
288
     0
  0
ENDTAB
  0
TABLE
  2
BLOCK_RECORD
  5
1
100
AcDbSymbolTable
 70
     6
  0
BLOCK_RECORD
  5
1F
100
AcDbSymbolTableRecord
100
AcDbBlockTableRecord
  2
*MODEL_SPACE
  0
BLOCK_RECORD
  5
22
100
AcDbSymbolTableRecord
100
AcDbBlockTableRecord
  2
*PAPER_SPACE
  0
BLOCK_RECORD
  5
27
100
AcDbSymbolTableRecord
100
AcDbBlockTableRecord
  2
_NONE
  0
BLOCK_RECORD
  5
2B
100
AcDbSymbolTableRecord
100
AcDbBlockTableRecord
  2
_OPEN
  0
BLOCK_RECORD
  5
31
100
AcDbSymbolTableRecord
100
AcDbBlockTableRecord
  2
_CLOSED
  0
BLOCK_RECORD
  5
38
100
AcDbSymbolTableRecord
100
AcDbBlockTableRecord
  2
_ORIGIN
  0
BLOCK_RECORD
  5
3D
100
AcDbSymbolTableRecord
100
AcDbBlockTableRecord
  2
_DOT
  0
BLOCK_RECORD
  5
45
100
AcDbSymbolTableRecord
100
AcDbBlockTableRecord
  2
_OBLIQUE
  0
ENDTAB
  0
ENDSEC
  0
SECTION
  2
BLOCKS
  0
BLOCK
  5
20
100
AcDbEntity
  8
0
100
AcDbBlockBegin
  2
*MODEL_SPACE
 70
     0
 10
0.0
 20
0.0
 30
0.0
  3
*MODEL_SPACE
  1

  0
ENDBLK
  5
21
100
AcDbEntity
  8
0
100
AcDbBlockEnd
  0
BLOCK
  5
23
100
AcDbEntity
 67
     1
  8
0
100
AcDbBlockBegin
  2
*PAPER_SPACE
 70
     0
 10
0.0
 20
0.0
 30
0.0
  3
*PAPER_SPACE
  1

  0
ENDBLK
  5
24
100
AcDbEntity
 67
     1
  8
0
100
AcDbBlockEnd
  0
BLOCK
  5
28
100
AcDbEntity
  8
0
100
AcDbBlockBegin
  2
_NONE
 70
     0
 10
0.0
 20
0.0
  0
CIRCLE
  5
29
100
AcDbEntity
  8
0
 62
     0
100
AcDbCircle
 10
0.0
 20
0.0
 40
0.25
  0
ENDBLK
  5
2A
100
AcDbEntity
  8
0
100
AcDbBlockEnd
  0
BLOCK
  5
2C
100
AcDbEntity
  8
0
100
AcDbBlockBegin
  2
_OPEN
 70
     0
 10
0.0
 20
0.0
  0
LINE
  5
2D
100
AcDbEntity
  8
0
 62
     0
100
AcDbLine
 10
-0.965926
 20
0.258819
 11
0.0
 21
0.0
  0
LINE
  5
2E
100
AcDbEntity
  8
0
 62
     0
100
AcDbLine
 10
0.0
 20
0.0
 11
-0.965926
 21
-0.258819
  0
LINE
  5
2F
100
AcDbEntity
  8
0
 62
     0
100
AcDbLine
 10
0.0
 20
0.0
 11
-1.0
 21
0.0
  0
ENDBLK
  5
30
100
AcDbEntity
  8
0
100
AcDbBlockEnd
  0
BLOCK
  5
32
100
AcDbEntity
  8
0
100
AcDbBlockBegin
  2
_CLOSED
 70
     0
 10
0.0
 20
0.0
  0
LINE
  5
33
100
AcDbEntity
  8
0
 62
     0
100
AcDbLine
 10
-0.965926
 20
0.258819
 11
0.0
 21
0.0
  0
LINE
  5
34
100
AcDbEntity
  8
0
 62
     0
100
AcDbLine
 10
0.0
 20
0.0
 11
-0.965926
 21
-0.258819
  0
LINE
  5
35
100
AcDbEntity
  8
0
 62
     0
100
AcDbLine
 10
-0.965926
 20
0.258819
 11
-0.965926
 21
-0.258819
  0
LINE
  5
36
100
AcDbEntity
  8
0
 62
     0
100
AcDbLine
 10
0.0
 20
0.0
 11
-1.0
 21
0.0
  0
ENDBLK
  5
37
100
AcDbEntity
  8
0
100
AcDbBlockEnd
  0
BLOCK
  5
39
100
AcDbEntity
  8
0
100
AcDbBlockBegin
  2
_ORIGIN
 70
     0
 10
0.0
 20
0.0
  0
CIRCLE
  5
3A
100
AcDbEntity
  8
0
 62
     0
100
AcDbCircle
 10
0.0
 20
0.0
 40
0.5
  0
LINE
  5
3B
100
AcDbEntity
  8
0
 62
     0
100
AcDbLine
 10
0.0
 20
0.0
 11
-1.0
 21
0.0
  0
ENDBLK
  5
3C
100
AcDbEntity
  8
0
100
AcDbBlockEnd
  0
BLOCK
  5
3E
100
AcDbEntity
  8
0
100
AcDbBlockBegin
  2
_DOT
 70
     0
 10
0.0
 20
0.0
  0
POLYLINE
  5
3F
100
AcDbEntity
  8
0
 62
     0
100
AcDb2dPolyline
 66
     1
 70
     1
 40
0.5
 41
0.5
  0
VERTEX
  5
40
100
AcDbEntity
  8
0
 62
     0
100
AcDbVertex
100
AcDb2dVertex
 10
-0.25
 20
0.0
 42
1.0
  0
VERTEX
  5
41
100
AcDbEntity
  8
0
 62
     0
100
AcDbVertex
100
AcDb2dVertex
 10
0.25
 20
0.0
 42
1.0
  0
SEQEND
  5
42
100
AcDbEntity
  8
0
 62
     0
  0
LINE
  5
43
100
AcDbEntity
  8
0
 62
     0
100
AcDbLine
 10
-0.5
 20
0.0
 11
-1.0
 21
0.0
  0
ENDBLK
  5
44
100
AcDbEntity
  8
0
100
AcDbBlockEnd
  0
BLOCK
  5
46
100
AcDbEntity
  8
0
100
AcDbBlockBegin
  2
_OBLIQUE
 70
     0
 10
0.0
 20
0.0
  0
LINE
  5
47
100
AcDbEntity
  8
0
 62
     0
100
AcDbLine
 10
-0.353553
 20
-0.353553
 11
0.353553
 21
0.353553
  0
ENDBLK
  5
48
100
AcDbEntity
  8
0
100
AcDbBlockEnd
  0
ENDSEC
  0
SECTION
  2
ENTITIES
  0
LEADER
  5
49
100
AcDbEntity
  8
DD0
100
AcDbLeader
  3
LEADSTYL
 76
     2
 10
90.868736
 20
175.909073
 10
99.862907
 20
187.096573
 77
     4
  0
LEADER
  5
4A
100
AcDbEntity
  8
DD0
100
AcDbLeader
  3
LEADSTYL
 71
     0
 76
     2
 10
99.8629
 20
187.096573
 10
115.8629
 20
187.096573
340
4B
 77
     4
  0
TEXT
  5
4B
100
AcDbEntity
  8
DD0
100
AcDbText
 10
101.154566
 20
188.096573
 40
3.5
  1
５０Ｈｚ
 41
0.833333
  7
STANDARD
100
AcDbText
  0
LEADER
  5
4C
100
AcDbEntity
  8
DD0
100
AcDbLeader
  3
LEADSTYL
 71
     0
 76
     2
 10
90.034584
 20
204.536148
 10
106.034584
 20
204.536148
340
4D
 77
     4
  0
TEXT
  5
4D
100
AcDbEntity
  8
DD0
100
AcDbText
 10
91.326251
 20
205.536148
 40
3.5
  1
６０Ｈｚ
 41
0.833333
  7
STANDARD
100
AcDbText
  0
LEADER
  5
4E
100
AcDbEntity
  8
DD0
100
AcDbLeader
  3
LEADSTYL
 76
     2
 10
81.102417
 20
187.812912
 10
90.034592
 20
204.536148
 77
     4
  0
LEADER
  5
4F
100
AcDbEntity
  8
DD0
100
AcDbLeader
  3
LEADSTYL
 76
     3
 10
162.086411
 20
206.952087
 10
177.34642
 20
221.492294
 10
193.34642
 20
221.492294
340
50
 77
     4
  0
TEXT
  5
50
100
AcDbEntity
  8
DD0
100
AcDbText
 10
178.638087
 20
222.492294
 40
3.5
  1
５０Ｈｚ
 41
0.833333
  7
STANDARD
100
AcDbText
  0
LEADER
  5
51
100
AcDbEntity
  8
DD0
100
AcDbLeader
  3
LEADSTYL
 76
     3
 10
195.576248
 20
185.698334
 10
204.529114
 20
195.862411
 10
220.529114
 20
195.862411
340
52
 77
     4
  0
TEXT
  5
52
100
AcDbEntity
  8
DD0
100
AcDbText
 10
205.82078
 20
196.862411
 40
3.5
  1
６０Ｈｚ
 41
0.833333
  7
STANDARD
100
AcDbText
  0
LEADER
  5
53
100
AcDbEntity
  8
DD0
100
AcDbLeader
  3
LEADSTYL
 76
     3
 10
57.2001
 20
93.023132
 10
72.827423
 20
107.388947
 10
88.827423
 20
107.388947
340
54
 77
     4
  0
TEXT
  5
54
100
AcDbEntity
  8
DD0
100
AcDbText
 10
74.11909
 20
108.388947
 40
3.5
  1
５０Ｈｚ
 41
0.833333
  7
STANDARD
100
AcDbText
  0
LEADER
  5
55
100
AcDbEntity
  8
DD0
100
AcDbLeader
  3
LEADSTYL
 76
     3
 10
90.062721
 20
69.493034
 10
99.971664
 20
80.692551
 10
115.971664
 20
80.692551
340
56
 77
     4
  0
TEXT
  5
56
100
AcDbEntity
  8
DD0
100
AcDbText
 10
101.263331
 20
81.692551
 40
3.5
  1
６０Ｈｚ
 41
0.833333
  7
STANDARD
100
AcDbText
  0
LINE
  5
57
100
AcDbEntity
  8
M0
 62
     7
100
AcDbLine
 10
125.059309
 20
157.043508
 11
125.059309
 21
238.043508
  0
LINE
  5
58
100
AcDbEntity
  8
M0
 62
     7
100
AcDbLine
 10
125.059309
 20
238.043508
 11
44.059309
 21
238.043508
  0
LINE
  5
59
100
AcDbEntity
  8
M0
 62
     7
100
AcDbLine
 10
44.059309
 20
238.043508
 11
44.059309
 21
157.043508
  0
LINE
  5
5A
100
AcDbEntity
  8
M0
 62
     7
100
AcDbLine
 10
44.059309
 20
157.043508
 11
125.059309
 21
157.043508
  0
LINE
  5
5B
100
AcDbEntity
  8
M0
 62
     7
100
AcDbLine
 10
125.059309
 20
166.043508
 11
44.059309
 21
166.043508
  0
LINE
  5
5C
100
AcDbEntity
  8
M0
 62
     7
100
AcDbLine
 10
125.059309
 20
175.043508
 11
44.059309
 21
175.043508
  0
LINE
  5
5D
100
AcDbEntity
  8
M0
 62
     7
100
AcDbLine
 10
125.059309
 20
184.043508
 11
44.059309
 21
184.043508
  0
LINE
  5
5E
100
AcDbEntity
  8
M0
 62
     7
100
AcDbLine
 10
125.059309
 20
193.043508
 11
44.059309
 21
193.043508
  0
LINE
  5
5F
100
AcDbEntity
  8
M0
 62
     7
100
AcDbLine
 10
125.059309
 20
202.043508
 11
44.059309
 21
202.043508
  0
LINE
  5
60
100
AcDbEntity
  8
M0
 62
     7
100
AcDbLine
 10
125.059309
 20
211.043508
 11
44.059309
 21
211.043508
  0
LINE
  5
61
100
AcDbEntity
  8
M0
 62
     7
100
AcDbLine
 10
125.059309
 20
220.043508
 11
44.059309
 21
220.043508
  0
LINE
  5
62
100
AcDbEntity
  8
M0
 62
     7
100
AcDbLine
 10
125.059309
 20
229.043508
 11
44.059309
 21
229.043508
  0
LINE
  5
63
100
AcDbEntity
  8
M0
 62
     7
100
AcDbLine
 10
53.059309
 20
238.043508
 11
53.059309
 21
157.043508
  0
LINE
  5
64
100
AcDbEntity
  8
M0
 62
     7
100
AcDbLine
 10
62.059309
 20
238.043508
 11
62.059309
 21
157.043508
  0
LINE
  5
65
100
AcDbEntity
  8
M0
 62
     7
100
AcDbLine
 10
71.059309
 20
238.043508
 11
71.059309
 21
157.043508
  0
LINE
  5
66
100
AcDbEntity
  8
M0
 62
     7
100
AcDbLine
 10
80.059309
 20
238.043508
 11
80.059309
 21
220.043508
  0
LINE
  5
67
100
AcDbEntity
  8
M0
 62
     7
100
AcDbLine
 10
89.059309
 20
238.043508
 11
89.059309
 21
157.043508
  0
LINE
  5
68
100
AcDbEntity
  8
M0
 62
     7
100
AcDbLine
 10
98.059309
 20
238.043508
 11
98.059309
 21
211.043508
  0
LINE
  5
69
100
AcDbEntity
  8
M0
 62
     7
100
AcDbLine
 10
107.059309
 20
238.043508
 11
107.059309
 21
193.043508
  0
LINE
  5
6A
100
AcDbEntity
  8
M0
 62
     7
100
AcDbLine
 10
116.059309
 20
238.043508
 11
116.059309
 21
157.043508
  0
TEXT
  5
6B
100
AcDbEntity
  8
M0
 62
     7
100
AcDbText
 10
39.294637
 20
156.468412
 40
3.553875
  1
０
 41
0.777778
  7
STANDARD
100
AcDbText
  0
TEXT
  5
6C
100
AcDbEntity
  8
M0
 62
     7
100
AcDbText
 10
36.359239
 20
163.734579
 40
3.553875
  1
１０
 41
0.777778
  7
STANDARD
100
AcDbText
  0
TEXT
  5
6D
100
AcDbEntity
  8
M0
 62
     7
100
AcDbText
 10
36.359239
 20
173.52647
 40
3.553875
  1
２０
 41
0.777778
  7
STANDARD
100
AcDbText
  0
TEXT
  5
6E
100
AcDbEntity
  8
M0
 62
     7
100
AcDbText
 10
36.359239
 20
182.567854
 40
3.553875
  1
３０
 41
0.777778
  7
STANDARD
100
AcDbText
  0
TEXT
  5
6F
100
AcDbEntity
  8
M0
 62
     7
100
AcDbText
 10
36.359239
 20
191.003401
 40
3.553875
  1
４０
 41
0.777778
  7
STANDARD
100
AcDbText
  0
TEXT
  5
70
100
AcDbEntity
  8
M0
 62
     7
100
AcDbText
 10
36.359239
 20
199.519072
 40
3.553875
  1
５０
 41
0.777778
  7
STANDARD
100
AcDbText
  0
TEXT
  5
71
100
AcDbEntity
  8
M0
 62
     7
100
AcDbText
 10
36.359239
 20
208.185198
 40
3.553875
  1
６０
 41
0.777778
  7
STANDARD
100
AcDbText
  0
TEXT
  5
72
100
AcDbEntity
  8
M0
 62
     7
100
AcDbText
 10
36.359239
 20
217.185198
 40
3.553875
  1
７０
 41
0.777778
  7
STANDARD
100
AcDbText
  0
TEXT
  5
73
100
AcDbEntity
  8
M0
 62
     7
100
AcDbText
 10
36.359239
 20
226.185198
 40
3.553875
  1
８０
 41
0.777778
  7
STANDARD
100
AcDbText
  0
TEXT
  5
74
100
AcDbEntity
  8
M0
 62
     7
100
AcDbText
 10
36.359239
 20
235.185198
 40
3.553875
  1
９０
 41
0.777778
  7
STANDARD
100
AcDbText
  0
TEXT
  5
75
100
AcDbEntity
  8
M0
 62
     7
100
AcDbText
 10
42.210786
 20
152.140737
 40
3.553875
  1
０
 41
0.777778
  7
STANDARD
100
AcDbText
  0
TEXT
  5
76
100
AcDbEntity
  8
M0
 62
     7
100
AcDbText
 10
50.676423
 20
151.515253
 40
3.553875
  1
１０
 41
0.777778
  7
STANDARD
100
AcDbText
  0
TEXT
  5
77
100
AcDbEntity
  8
M0
 62
     7
100
AcDbText
 10
59.676429
 20
151.515253
 40
3.553875
  1
２０
 41
0.777778
  7
STANDARD
100
AcDbText
  0
TEXT
  5
78
100
AcDbEntity
  8
M0
 62
     7
100
AcDbText
 10
68.676427
 20
151.515253
 40
3.553875
  1
３０
 41
0.777778
  7
STANDARD
100
AcDbText
  0
TEXT
  5
79
100
AcDbEntity
  8
M0
 62
     7
100
AcDbText
 10
77.676426
 20
151.515253
 40
3.553875
  1
４０
 41
0.777778
  7
STANDARD
100
AcDbText
  0
TEXT
  5
7A
100
AcDbEntity
  8
M0
 62
     7
100
AcDbText
 10
86.676426
 20
151.515253
 40
3.553875
  1
５０
 41
0.777778
  7
STANDARD
100
AcDbText
  0
TEXT
  5
7B
100
AcDbEntity
  8
M0
 62
     7
100
AcDbText
 10
95.676427
 20
151.515253
 40
3.553875
  1
６０
 41
0.777778
  7
STANDARD
100
AcDbText
  0
TEXT
  5
7C
100
AcDbEntity
  8
M0
 62
     7
100
AcDbText
 10
104.676427
 20
151.515253
 40
3.553875
  1
７０
 41
0.777778
  7
STANDARD
100
AcDbText
  0
TEXT
  5
7D
100
AcDbEntity
  8
M0
 62
     7
100
AcDbText
 10
113.676427
 20
151.515253
 40
3.553875
  1
８０
 41
0.777778
  7
STANDARD
100
AcDbText
  0
TEXT
  5
7E
100
AcDbEntity
  8
M0
 62
     7
100
AcDbText
 10
122.676427
 20
151.515253
 40
3.553875
  1
９０
 41
0.777778
  7
STANDARD
100
AcDbText
  0
TEXT
  5
7F
100
AcDbEntity
  8
M0
 62
     7
100
AcDbText
 10
68.365376
 20
143.070543
 40
5.52825
  1
揚水量
 41
1.666667
  7
STANDARD
100
AcDbText
  0
TEXT
  5
80
100
AcDbEntity
  8
M0
 62
     7
100
AcDbText
 10
99.340254
 20
144.301802
 40
3.553875
  1
（Ｌ／分）
 41
0.777778
  7
STANDARD
100
AcDbText
  0
TEXT
  5
81
100
AcDbEntity
  8
M0
 62
     7
100
AcDbText
 10
27.266472
 20
204.865251
 40
5.52825
  1
全
 41
1.388889
  7
STANDARD
100
AcDbText
  0
TEXT
  5
82
100
AcDbEntity
  8
M0
 62
     7
100
AcDbText
 10
27.266472
 20
193.808751
 40
5.52825
  1
揚
 41
1.388889
  7
STANDARD
100
AcDbText
  0
TEXT
  5
83
100
AcDbEntity
  8
M0
 62
     7
100
AcDbText
 10
27.266472
 20
182.752251
 40
5.52825
  1
程
 41
1.388889
  7
STANDARD
100
AcDbText
  0
TEXT
  5
84
100
AcDbEntity
  8
M0
 62
     7
100
AcDbText
 10
26.415257
 20
173.765234
 40
3.553875
  1
（ｍ）
 41
0.777778
  7
STANDARD
100
AcDbText
  0
LINE
  5
85
100
AcDbEntity
  8
M0
 62
     7
100
AcDbLine
 10
80.059309
 20
220.043508
 11
80.059309
 21
157.043508
  0
LINE
  5
86
100
AcDbEntity
  8
M0
 62
     7
100
AcDbLine
 10
98.059309
 20
202.043508
 11
98.059309
 21
157.043508
  0
LINE
  5
87
100
AcDbEntity
  8
M0
 62
     7
100
AcDbLine
 10
107.059309
 20
184.043508
 11
107.059309
 21
157.043508
  0
LINE
  5
88
100
AcDbEntity
  8
M0
 62
     7
100
AcDbLine
 10
229.783718
 20
157.043508
 11
229.783718
 21
238.043508
  0
LINE
  5
89
100
AcDbEntity
  8
M0
 62
     7
100
AcDbLine
 10
229.783718
 20
238.043508
 11
148.783718
 21
238.043508
  0
LINE
  5
8A
100
AcDbEntity
  8
M0
 62
     7
100
AcDbLine
 10
148.783718
 20
238.043508
 11
148.783718
 21
157.043508
  0
LINE
  5
8B
100
AcDbEntity
  8
M0
 62
     7
100
AcDbLine
 10
148.783718
 20
157.043508
 11
229.783718
 21
157.043508
  0
LINE
  5
8C
100
AcDbEntity
  8
M0
 62
     7
100
AcDbLine
 10
229.783718
 20
166.043508
 11
148.783718
 21
166.043508
  0
LINE
  5
8D
100
AcDbEntity
  8
M0
 62
     7
100
AcDbLine
 10
229.783718
 20
175.043508
 11
148.783718
 21
175.043508
  0
LINE
  5
8E
100
AcDbEntity
  8
M0
 62
     7
100
AcDbLine
 10
229.783718
 20
184.043508
 11
148.783718
 21
184.043508
  0
LINE
  5
8F
100
AcDbEntity
  8
M0
 62
     7
100
AcDbLine
 10
229.783718
 20
193.043508
 11
148.783718
 21
193.043508
  0
LINE
  5
90
100
AcDbEntity
  8
M0
 62
     7
100
AcDbLine
 10
229.783718
 20
202.043508
 11
148.783718
 21
202.043508
  0
LINE
  5
91
100
AcDbEntity
  8
M0
 62
     7
100
AcDbLine
 10
229.783718
 20
211.043508
 11
148.783718
 21
211.043508
  0
LINE
  5
92
100
AcDbEntity
  8
M0
 62
     7
100
AcDbLine
 10
229.783718
 20
220.043508
 11
148.783718
 21
220.043508
  0
LINE
  5
93
100
AcDbEntity
  8
M0
 62
     7
100
AcDbLine
 10
229.783718
 20
229.043508
 11
148.783718
 21
229.043508
  0
LINE
  5
94
100
AcDbEntity
  8
M0
 62
     7
100
AcDbLine
 10
157.783718
 20
238.043508
 11
157.783718
 21
157.043508
  0
LINE
  5
95
100
AcDbEntity
  8
M0
 62
     7
100
AcDbLine
 10
166.783718
 20
238.043508
 11
166.783718
 21
157.043508
  0
LINE
  5
96
100
AcDbEntity
  8
M0
 62
     7
100
AcDbLine
 10
175.783718
 20
238.043508
 11
175.783718
 21
157.043508
  0
LINE
  5
97
100
AcDbEntity
  8
M0
 62
     7
100
AcDbLine
 10
184.783718
 20
238.043508
 11
184.783718
 21
229.043508
  0
LINE
  5
98
100
AcDbEntity
  8
M0
 62
     7
100
AcDbLine
 10
193.783718
 20
238.043508
 11
193.783718
 21
157.043508
  0
LINE
  5
99
100
AcDbEntity
  8
M0
 62
     7
100
AcDbLine
 10
202.783718
 20
238.043508
 11
202.783718
 21
157.043508
  0
LINE
  5
9A
100
AcDbEntity
  8
M0
 62
     7
100
AcDbLine
 10
211.783718
 20
238.043508
 11
211.783718
 21
202.043508
  0
LINE
  5
9B
100
AcDbEntity
  8
M0
 62
     7
100
AcDbLine
 10
220.783718
 20
238.043508
 11
220.783718
 21
157.043508
  0
TEXT
  5
9C
100
AcDbEntity
  8
M0
 62
     7
100
AcDbText
 10
144.019046
 20
156.468412
 40
3.553875
  1
０
 41
0.777778
  7
STANDARD
100
AcDbText
  0
TEXT
  5
9D
100
AcDbEntity
  8
M0
 62
     7
100
AcDbText
 10
141.083648
 20
163.734579
 40
3.553875
  1
１０
 41
0.777778
  7
STANDARD
100
AcDbText
  0
TEXT
  5
9E
100
AcDbEntity
  8
M0
 62
     7
100
AcDbText
 10
141.083648
 20
173.52647
 40
3.553875
  1
２０
 41
0.777778
  7
STANDARD
100
AcDbText
  0
TEXT
  5
9F
100
AcDbEntity
  8
M0
 62
     7
100
AcDbText
 10
141.083648
 20
182.567854
 40
3.553875
  1
３０
 41
0.777778
  7
STANDARD
100
AcDbText
  0
TEXT
  5
A0
100
AcDbEntity
  8
M0
 62
     7
100
AcDbText
 10
141.083648
 20
191.003401
 40
3.553875
  1
４０
 41
0.777778
  7
STANDARD
100
AcDbText
  0
TEXT
  5
A1
100
AcDbEntity
  8
M0
 62
     7
100
AcDbText
 10
141.083648
 20
199.519072
 40
3.553875
  1
５０
 41
0.777778
  7
STANDARD
100
AcDbText
  0
TEXT
  5
A2
100
AcDbEntity
  8
M0
 62
     7
100
AcDbText
 10
141.083648
 20
208.185198
 40
3.553875
  1
６０
 41
0.777778
  7
STANDARD
100
AcDbText
  0
TEXT
  5
A3
100
AcDbEntity
  8
M0
 62
     7
100
AcDbText
 10
141.083648
 20
217.185198
 40
3.553875
  1
７０
 41
0.777778
  7
STANDARD
100
AcDbText
  0
TEXT
  5
A4
100
AcDbEntity
  8
M0
 62
     7
100
AcDbText
 10
141.083648
 20
226.185198
 40
3.553875
  1
８０
 41
0.777778
  7
STANDARD
100
AcDbText
  0
TEXT
  5
A5
100
AcDbEntity
  8
M0
 62
     7
100
AcDbText
 10
141.083648
 20
235.185198
 40
3.553875
  1
９０
 41
0.777778
  7
STANDARD
100
AcDbText
  0
TEXT
  5
A6
100
AcDbEntity
  8
M0
 62
     7
100
AcDbText
 10
146.935195
 20
152.140737
 40
3.553875
  1
０
 41
0.777778
  7
STANDARD
100
AcDbText
  0
TEXT
  5
A7
100
AcDbEntity
  8
M0
 62
     7
100
AcDbText
 10
155.400832
 20
151.515253
 40
3.553875
  1
１０
 41
0.777778
  7
STANDARD
100
AcDbText
  0
TEXT
  5
A8
100
AcDbEntity
  8
M0
 62
     7
100
AcDbText
 10
164.400838
 20
151.515253
 40
3.553875
  1
２０
 41
0.777778
  7
STANDARD
100
AcDbText
  0
TEXT
  5
A9
100
AcDbEntity
  8
M0
 62
     7
100
AcDbText
 10
173.400836
 20
151.515253
 40
3.553875
  1
３０
 41
0.777778
  7
STANDARD
100
AcDbText
  0
TEXT
  5
AA
100
AcDbEntity
  8
M0
 62
     7
100
AcDbText
 10
182.400835
 20
151.515253
 40
3.553875
  1
４０
 41
0.777778
  7
STANDARD
100
AcDbText
  0
TEXT
  5
AB
100
AcDbEntity
  8
M0
 62
     7
100
AcDbText
 10
191.400836
 20
151.515253
 40
3.553875
  1
５０
 41
0.777778
  7
STANDARD
100
AcDbText
  0
TEXT
  5
AC
100
AcDbEntity
  8
M0
 62
     7
100
AcDbText
 10
200.400836
 20
151.515253
 40
3.553875
  1
６０
 41
0.777778
  7
STANDARD
100
AcDbText
  0
TEXT
  5
AD
100
AcDbEntity
  8
M0
 62
     7
100
AcDbText
 10
209.400836
 20
151.515253
 40
3.553875
  1
７０
 41
0.777778
  7
STANDARD
100
AcDbText
  0
TEXT
  5
AE
100
AcDbEntity
  8
M0
 62
     7
100
AcDbText
 10
218.400836
 20
151.515253
 40
3.553875
  1
８０
 41
0.777778
  7
STANDARD
100
AcDbText
  0
TEXT
  5
AF
100
AcDbEntity
  8
M0
 62
     7
100
AcDbText
 10
227.400836
 20
151.515253
 40
3.553875
  1
９０
 41
0.777778
  7
STANDARD
100
AcDbText
  0
TEXT
  5
B0
100
AcDbEntity
  8
M0
 62
     7
100
AcDbText
 10
173.089782
 20
143.070539
 40
5.52825
  1
揚水量
 41
1.666667
  7
STANDARD
100
AcDbText
  0
TEXT
  5
B1
100
AcDbEntity
  8
M0
 62
     7
100
AcDbText
 10
204.064663
 20
144.301798
 40
3.553875
  1
（Ｌ／分）
 41
0.777778
  7
STANDARD
100
AcDbText
  0
TEXT
  5
B2
100
AcDbEntity
  8
M0
 62
     7
100
AcDbText
 10
131.990881
 20
204.86525
 40
5.52825
  1
全
 41
1.388889
  7
STANDARD
100
AcDbText
  0
TEXT
  5
B3
100
AcDbEntity
  8
M0
 62
     7
100
AcDbText
 10
131.990881
 20
193.80875
 40
5.52825
  1
揚
 41
1.388889
  7
STANDARD
100
AcDbText
  0
TEXT
  5
B4
100
AcDbEntity
  8
M0
 62
     7
100
AcDbText
 10
131.990881
 20
182.75225
 40
5.52825
  1
程
 41
1.388889
  7
STANDARD
100
AcDbText
  0
TEXT
  5
B5
100
AcDbEntity
  8
M0
 62
     7
100
AcDbText
 10
131.139659
 20
173.765236
 40
3.553875
  1
（ｍ）
 41
0.777778
  7
STANDARD
100
AcDbText
  0
LINE
  5
B6
100
AcDbEntity
  8
M0
 62
     7
100
AcDbLine
 10
184.783718
 20
220.043508
 11
184.783718
 21
157.043508
  0
LINE
  5
B7
100
AcDbEntity
  8
M0
 62
     7
100
AcDbLine
 10
211.783718
 20
193.043508
 11
211.783718
 21
157.043508
  0
TEXT
  5
B8
100
AcDbEntity
  8
M0
100
AcDbText
 10
162.617051
 20
247.74925
 40
8.0
  1
ＳＦＭ－Ｐ６００Ｖ１
 41
0.416667
  7
STANDARD
100
AcDbText
  0
LINE
  5
B9
100
AcDbEntity
  8
M0
 62
     7
100
AcDbLine
 10
125.035687
 20
32.636684
 11
125.035687
 21
113.636684
  0
LINE
  5
BA
100
AcDbEntity
  8
M0
 62
     7
100
AcDbLine
 10
125.035687
 20
113.636684
 11
44.035687
 21
113.636684
  0
LINE
  5
BB
100
AcDbEntity
  8
M0
 62
     7
100
AcDbLine
 10
44.035687
 20
113.636684
 11
44.035687
 21
32.636684
  0
LINE
  5
BC
100
AcDbEntity
  8
M0
 62
     7
100
AcDbLine
 10
44.035687
 20
32.636684
 11
125.035687
 21
32.636684
  0
LINE
  5
BD
100
AcDbEntity
  8
M0
 62
     7
100
AcDbLine
 10
125.035687
 20
41.636684
 11
44.035687
 21
41.636684
  0
LINE
  5
BE
100
AcDbEntity
  8
M0
 62
     7
100
AcDbLine
 10
125.035687
 20
50.636684
 11
44.035687
 21
50.636684
  0
LINE
  5
BF
100
AcDbEntity
  8
M0
 62
     7
100
AcDbLine
 10
125.035687
 20
59.636684
 11
44.035687
 21
59.636684
  0
LINE
  5
C0
100
AcDbEntity
  8
M0
 62
     7
100
AcDbLine
 10
125.035687
 20
68.636684
 11
44.035687
 21
68.636684
  0
LINE
  5
C1
100
AcDbEntity
  8
M0
 62
     7
100
AcDbLine
 10
125.035687
 20
77.636684
 11
44.035687
 21
77.636684
  0
LINE
  5
C2
100
AcDbEntity
  8
M0
 62
     7
100
AcDbLine
 10
125.035687
 20
86.636684
 11
44.035687
 21
86.636684
  0
LINE
  5
C3
100
AcDbEntity
  8
M0
 62
     7
100
AcDbLine
 10
125.035687
 20
95.636684
 11
44.035687
 21
95.636684
  0
LINE
  5
C4
100
AcDbEntity
  8
M0
 62
     7
100
AcDbLine
 10
125.035687
 20
104.636684
 11
44.035687
 21
104.636684
  0
LINE
  5
C5
100
AcDbEntity
  8
M0
 62
     7
100
AcDbLine
 10
53.035687
 20
113.636684
 11
53.035687
 21
32.636684
  0
LINE
  5
C6
100
AcDbEntity
  8
M0
 62
     7
100
AcDbLine
 10
62.035687
 20
113.636684
 11
62.035687
 21
32.636684
  0
LINE
  5
C7
100
AcDbEntity
  8
M0
 62
     7
100
AcDbLine
 10
71.035687
 20
113.636684
 11
71.035687
 21
32.636684
  0
LINE
  5
C8
100
AcDbEntity
  8
M0
 62
     7
100
AcDbLine
 10
80.035687
 20
104.636684
 11
80.035687
 21
32.636684
  0
LINE
  5
C9
100
AcDbEntity
  8
M0
 62
     7
100
AcDbLine
 10
98.035687
 20
113.636684
 11
98.035687
 21
32.636684
  0
LINE
  5
CA
100
AcDbEntity
  8
M0
 62
     7
100
AcDbLine
 10
107.035687
 20
113.636684
 11
107.035687
 21
86.636684
  0
LINE
  5
CB
100
AcDbEntity
  8
M0
 62
     7
100
AcDbLine
 10
116.035687
 20
113.636684
 11
116.035687
 21
86.636684
  0
TEXT
  5
CC
100
AcDbEntity
  8
M0
 62
     7
100
AcDbText
 10
39.271015
 20
32.061588
 40
3.553875
  1
０
 41
0.777778
  7
STANDARD
100
AcDbText
  0
TEXT
  5
CD
100
AcDbEntity
  8
M0
 62
     7
100
AcDbText
 10
36.335617
 20
39.327751
 40
3.553875
  1
１０
 41
0.777778
  7
STANDARD
100
AcDbText
  0
TEXT
  5
CE
100
AcDbEntity
  8
M0
 62
     7
100
AcDbText
 10
36.335617
 20
49.119646
 40
3.553875
  1
２０
 41
0.777778
  7
STANDARD
100
AcDbText
  0
TEXT
  5
CF
100
AcDbEntity
  8
M0
 62
     7
100
AcDbText
 10
36.335617
 20
58.16103
 40
3.553875
  1
３０
 41
0.777778
  7
STANDARD
100
AcDbText
  0
TEXT
  5
D0
100
AcDbEntity
  8
M0
 62
     7
100
AcDbText
 10
36.335617
 20
66.596577
 40
3.553875
  1
４０
 41
0.777778
  7
STANDARD
100
AcDbText
  0
TEXT
  5
D1
100
AcDbEntity
  8
M0
 62
     7
100
AcDbText
 10
36.335617
 20
75.112248
 40
3.553875
  1
５０
 41
0.777778
  7
STANDARD
100
AcDbText
  0
TEXT
  5
D2
100
AcDbEntity
  8
M0
 62
     7
100
AcDbText
 10
36.335617
 20
83.778374
 40
3.553875
  1
６０
 41
0.777778
  7
STANDARD
100
AcDbText
  0
TEXT
  5
D3
100
AcDbEntity
  8
M0
 62
     7
100
AcDbText
 10
36.335617
 20
92.778374
 40
3.553875
  1
７０
 41
0.777778
  7
STANDARD
100
AcDbText
  0
TEXT
  5
D4
100
AcDbEntity
  8
M0
 62
     7
100
AcDbText
 10
36.335617
 20
101.778374
 40
3.553875
  1
８０
 41
0.777778
  7
STANDARD
100
AcDbText
  0
TEXT
  5
D5
100
AcDbEntity
  8
M0
 62
     7
100
AcDbText
 10
36.335617
 20
110.778374
 40
3.553875
  1
９０
 41
0.777778
  7
STANDARD
100
AcDbText
  0
TEXT
  5
D6
100
AcDbEntity
  8
M0
 62
     7
100
AcDbText
 10
42.187164
 20
27.733913
 40
3.553875
  1
０
 41
0.777778
  7
STANDARD
100
AcDbText
  0
TEXT
  5
D7
100
AcDbEntity
  8
M0
 62
     7
100
AcDbText
 10
50.652801
 20
27.108429
 40
3.553875
  1
１０
 41
0.777778
  7
STANDARD
100
AcDbText
  0
TEXT
  5
D8
100
AcDbEntity
  8
M0
 62
     7
100
AcDbText
 10
59.652807
 20
27.108429
 40
3.553875
  1
２０
 41
0.777778
  7
STANDARD
100
AcDbText
  0
TEXT
  5
D9
100
AcDbEntity
  8
M0
 62
     7
100
AcDbText
 10
68.652805
 20
27.108429
 40
3.553875
  1
３０
 41
0.777778
  7
STANDARD
100
AcDbText
  0
TEXT
  5
DA
100
AcDbEntity
  8
M0
 62
     7
100
AcDbText
 10
77.652804
 20
27.108429
 40
3.553875
  1
４０
 41
0.777778
  7
STANDARD
100
AcDbText
  0
TEXT
  5
DB
100
AcDbEntity
  8
M0
 62
     7
100
AcDbText
 10
86.652804
 20
27.108429
 40
3.553875
  1
５０
 41
0.777778
  7
STANDARD
100
AcDbText
  0
TEXT
  5
DC
100
AcDbEntity
  8
M0
 62
     7
100
AcDbText
 10
95.652805
 20
27.108429
 40
3.553875
  1
６０
 41
0.777778
  7
STANDARD
100
AcDbText
  0
TEXT
  5
DD
100
AcDbEntity
  8
M0
 62
     7
100
AcDbText
 10
104.652805
 20
27.108429
 40
3.553875
  1
７０
 41
0.777778
  7
STANDARD
100
AcDbText
  0
TEXT
  5
DE
100
AcDbEntity
  8
M0
 62
     7
100
AcDbText
 10
113.652805
 20
27.108429
 40
3.553875
  1
８０
 41
0.777778
  7
STANDARD
100
AcDbText
  0
TEXT
  5
DF
100
AcDbEntity
  8
M0
 62
     7
100
AcDbText
 10
122.652805
 20
27.108429
 40
3.553875
  1
９０
 41
0.777778
  7
STANDARD
100
AcDbText
  0
TEXT
  5
E0
100
AcDbEntity
  8
M0
 62
     7
100
AcDbText
 10
68.34175
 20
18.663727
 40
5.52825
  1
揚水量
 41
1.666667
  7
STANDARD
100
AcDbText
  0
TEXT
  5
E1
100
AcDbEntity
  8
M0
 62
     7
100
AcDbText
 10
99.316632
 20
19.894977
 40
3.553875
  1
（Ｌ／分）
 41
0.777778
  7
STANDARD
100
AcDbText
  0
TEXT
  5
E2
100
AcDbEntity
  8
M0
 62
     7
100
AcDbText
 10
27.242858
 20
80.458431
 40
5.52825
  1
全
 41
1.388889
  7
STANDARD
100
AcDbText
  0
TEXT
  5
E3
100
AcDbEntity
  8
M0
 62
     7
100
AcDbText
 10
27.242858
 20
69.401932
 40
5.52825
  1
揚
 41
1.388889
  7
STANDARD
100
AcDbText
  0
TEXT
  5
E4
100
AcDbEntity
  8
M0
 62
     7
100
AcDbText
 10
27.242858
 20
58.345432
 40
5.52825
  1
程
 41
1.388889
  7
STANDARD
100
AcDbText
  0
TEXT
  5
E5
100
AcDbEntity
  8
M0
 62
     7
100
AcDbText
 10
26.847339
 20
49.358415
 40
3.553875
  1
（ｍ）
 41
0.777778
  7
STANDARD
100
AcDbText
  0
LINE
  5
E6
100
AcDbEntity
  8
M0
 62
     7
100
AcDbLine
 10
89.035687
 20
113.636684
 11
89.035687
 21
32.636684
  0
LINE
  5
E7
100
AcDbEntity
  8
M0
 62
     7
100
AcDbLine
 10
107.035687
 20
77.636684
 11
107.035687
 21
32.636684
  0
LINE
  5
E8
100
AcDbEntity
  8
M0
 62
     7
100
AcDbLine
 10
116.035687
 20
77.636684
 11
116.035687
 21
32.636684
  0
TEXT
  5
E9
100
AcDbEntity
  8
M0
100
AcDbText
 10
57.892642
 20
247.74925
 40
8.0
  1
ＳＦＭ－Ｐ４５０Ｖ１
 41
0.416667
  7
STANDARD
100
AcDbText
  0
TEXT
  5
EA
100
AcDbEntity
  8
M0
100
AcDbText
 10
57.86902
 20
123.342425
 40
8.0
  1
ＳＦＭ－Ｋ７５０Ｖ１
 41
0.416667
  7
STANDARD
100
AcDbText
  0
TEXT
  5
EB
100
AcDbEntity
  8
M0
 62
   253
100
AcDbText
 10
251.532499
 20
175.480504
 40
3.250065
  1
圧力センサー読取り範囲
 41
0.841667
  7
STANDARD
100
AcDbText
  0
TEXT
  5
EC
100
AcDbEntity
  8
M0
 62
   253
100
AcDbText
 10
263.979704
 20
170.817382
 40
3.250065
  1
自動モード
 41
0.841667
  7
STANDARD
100
AcDbText
  0
TEXT
  5
ED
100
AcDbEntity
  8
M0
 62
   253
100
AcDbText
 10
246.488032
 20
141.612139
 40
3.250065
  1
製品質量
 41
0.841667
  7
STANDARD
100
AcDbText
  0
TEXT
  5
EE
100
AcDbEntity
  8
M0
 62
   253
100
AcDbText
 10
266.334578
 20
143.78672
 40
3.250065
  1
水中部
 41
0.841667
  7
STANDARD
100
AcDbText
  0
TEXT
  5
EF
100
AcDbEntity
  8
M0
 62
   253
100
AcDbText
 10
271.890721
 20
136.471625
 40
3.250065
  1
地上部
 41
1.346144
  7
STANDARD
100
AcDbText
  0
LINE
  5
F0
100
AcDbEntity
  8
M0
 62
   253
100
AcDbLine
 10
242.618063
 20
135.656656
 11
398.764277
 21
135.656656
  0
TEXT
  5
F1
100
AcDbEntity
  8
M0
 62
   253
100
AcDbText
 10
332.402024
 20
170.885344
 40
3.033394
  1
マイコンによる無段階圧力運転
 41
0.595238
  7
STANDARD
100
AcDbText
  0
LINE
  5
F2
100
AcDbEntity
  8
M0
 62
   253
100
AcDbLine
 10
279.328311
 20
145.411753
 11
398.764277
 21
145.411753
  0
LINE
  5
F3
100
AcDbEntity
  8
M0
 62
   253
100
AcDbLine
 10
242.618063
 20
150.286851
 11
398.764277
 21
150.286851
  0
LINE
  5
F4
100
AcDbEntity
  8
M0
 62
   253
100
AcDbLine
 10
279.328311
 20
155.161948
 11
398.764277
 21
155.161948
  0
LINE
  5
F5
100
AcDbEntity
  8
M0
 62
   253
100
AcDbLine
 10
242.618063
 20
160.037046
 11
398.764277
 21
160.037046
  0
LINE
  5
F6
100
AcDbEntity
  8
M0
 62
   253
100
AcDbLine
 10
262.64488
 20
150.286851
 11
262.64488
 21
135.656656
  0
LINE
  5
F7
100
AcDbEntity
  8
M0
 62
   253
100
AcDbLine
 10
247.817571
 20
169.787241
 11
398.764277
 21
169.787241
  0
LINE
  5
F8
100
AcDbEntity
  8
M0
 62
   253
100
AcDbLine
 10
242.618063
 20
174.662338
 11
398.764277
 21
174.662338
  0
LINE
  5
F9
100
AcDbEntity
  8
M0
 62
   253
100
AcDbLine
 10
242.618063
 20
179.537436
 11
398.764277
 21
179.537436
  0
LINE
  5
FA
100
AcDbEntity
  8
M0
 62
   253
100
AcDbLine
 10
279.328311
 20
164.912143
 11
398.764277
 21
164.912143
  0
TEXT
  5
FB
100
AcDbEntity
  8
M0
 62
   253
100
AcDbText
 10
243.823777
 20
170.408835
 40
3.250065
  1
運
 41
0.833333
  7
STANDARD
100
AcDbText
  0
TEXT
  5
FC
100
AcDbEntity
  8
M0
 62
   253
100
AcDbText
 10
243.823777
 20
167.12627
 40
3.250065
  1
転
 41
0.833333
  7
STANDARD
100
AcDbText
  0
TEXT
  5
FD
100
AcDbEntity
  8
M0
 62
   253
100
AcDbText
 10
243.823777
 20
163.843704
 40
3.250065
  1
圧
 41
0.833333
  7
STANDARD
100
AcDbText
  0
TEXT
  5
FE
100
AcDbEntity
  8
M0
 62
   253
100
AcDbText
 10
243.823777
 20
160.561138
 40
3.250065
  1
力
 41
0.833333
  7
STANDARD
100
AcDbText
  0
TEXT
  5
FF
100
AcDbEntity
  8
M0
 62
   253
100
AcDbText
 10
343.235574
 20
136.610718
 40
3.033394
  1
１２ｋｇ
 41
0.595238
  7
STANDARD
100
AcDbText
  0
LINE
  5
100
100
AcDbEntity
  8
M0
 62
   253
100
AcDbLine
 10
247.817571
 20
174.662338
 11
247.817571
 21
160.037046
  0
TEXT
  5
101
100
AcDbEntity
  8
M0
 62
   253
100
AcDbText
 10
261.380196
 20
233.983378
 40
3.250065
  1
型　　　式
 41
0.841667
  7
STANDARD
100
AcDbText
  0
TEXT
  5
102
100
AcDbEntity
  8
M0
 62
   253
100
AcDbText
 10
254.000374
 20
229.108187
 40
3.250065
  1
相・定格電圧
 41
1.346144
  7
STANDARD
100
AcDbText
  0
TEXT
  5
103
100
AcDbEntity
  8
M0
 62
   253
100
AcDbText
 10
251.764545
 20
185.232405
 40
3.250065
  1
揚水量
 41
1.666667
  7
STANDARD
100
AcDbText
  0
LINE
  5
104
100
AcDbEntity
  8
M0
 62
   253
100
AcDbLine
 10
242.618063
 20
238.043508
 11
398.764277
 21
238.043508
  0
TEXT
  5
105
100
AcDbEntity
  8
M0
 62
   253
100
AcDbText
 10
250.702074
 20
180.352404
 40
3.250065
  1
（全揚程）
 41
1.089738
  7
STANDARD
100
AcDbText
  0
LINE
  5
106
100
AcDbEntity
  8
M0
 62
   253
100
AcDbLine
 10
242.618063
 20
238.043508
 11
242.618063
 21
135.656656
  0
LINE
  5
107
100
AcDbEntity
  8
M0
 62
   253
100
AcDbLine
 10
398.764277
 20
238.043508
 11
398.764277
 21
135.656656
  0
TEXT
  5
108
100
AcDbEntity
  8
M0
 62
   253
100
AcDbText
 10
373.325837
 20
219.158178
 40
3.033394
  1
キャンド式水中
 41
0.595238
  7
STANDARD
100
AcDbText
  0
TEXT
  5
109
100
AcDbEntity
  8
M0
 62
   253
100
AcDbText
 10
312.088959
 20
219.158178
 40
3.033394
  1
キャンド式水中
 41
0.595238
  7
STANDARD
100
AcDbText
  0
TEXT
  5
10A
100
AcDbEntity
  8
M0
 62
   253
100
AcDbText
 10
308.98388
 20
210.087546
 40
3.033394
  1
４５０Ｗ
 41
0.595238
  7
STANDARD
100
AcDbText
  0
TEXT
  5
10B
100
AcDbEntity
  8
M0
 62
   253
100
AcDbText
 10
343.235574
 20
210.087546
 40
3.033394
  1
６００Ｗ
 41
0.595238
  7
STANDARD
100
AcDbText
  0
TEXT
  5
10C
100
AcDbEntity
  8
M0
 62
   253
100
AcDbText
 10
344.318925
 20
190.068424
 40
3.033394
  1
１５ｍ
 41
0.595238
  7
STANDARD
100
AcDbText
  0
LINE
  5
10D
100
AcDbEntity
  8
M0
 62
   253
100
AcDbLine
 10
242.618063
 20
189.287631
 11
398.764277
 21
189.287631
  0
LINE
  5
10E
100
AcDbEntity
  8
M0
 62
   253
100
AcDbLine
 10
242.618063
 20
194.162728
 11
398.764277
 21
194.162728
  0
LINE
  5
10F
100
AcDbEntity
  8
M0
 62
   253
100
AcDbLine
 10
279.328311
 20
203.917826
 11
398.764277
 21
203.917826
  0
LINE
  5
110
100
AcDbEntity
  8
M0
 62
   253
100
AcDbLine
 10
242.618063
 20
208.792923
 11
398.764277
 21
208.792923
  0
LINE
  5
111
100
AcDbEntity
  8
M0
 62
   253
100
AcDbLine
 10
242.618063
 20
213.668021
 11
398.764277
 21
213.668021
  0
LINE
  5
112
100
AcDbEntity
  8
M0
 62
   253
100
AcDbLine
 10
242.618063
 20
223.418216
 11
398.764277
 21
223.418216
  0
LINE
  5
113
100
AcDbEntity
  8
M0
 62
   253
100
AcDbLine
 10
242.618063
 20
233.168411
 11
398.764277
 21
233.168411
  0
LINE
  5
114
100
AcDbEntity
  8
M0
 62
   253
100
AcDbLine
 10
279.328311
 20
150.286851
 11
279.328311
 21
140.536656
  0
LINE
  5
115
100
AcDbEntity
  8
M0
 62
   253
100
AcDbLine
 10
330.262587
 20
238.043508
 11
330.262587
 21
233.168411
  0
LINE
  5
116
100
AcDbEntity
  8
M0
 62
   253
100
AcDbLine
 10
364.513432
 20
238.043508
 11
364.513432
 21
228.293216
  0
LINE
  5
117
100
AcDbEntity
  8
M0
 62
   253
100
AcDbLine
 10
364.513432
 20
150.286851
 11
364.513432
 21
140.536656
  0
LINE
  5
118
100
AcDbEntity
  8
M0
 62
   253
100
AcDbLine
 10
330.262587
 20
150.286851
 11
330.262587
 21
140.536656
  0
TEXT
  5
119
100
AcDbEntity
  8
M0
 62
   253
100
AcDbText
 10
373.430512
 20
215.279547
 40
3.033394
  1
３相誘導モーター
 41
0.595238
  7
STANDARD
100
AcDbText
  0
TEXT
  5
11A
100
AcDbEntity
  8
M0
 62
   253
100
AcDbText
 10
377.48642
 20
210.087546
 40
3.033394
  1
７５０Ｗ
 41
0.595238
  7
STANDARD
100
AcDbText
  0
TEXT
  5
11B
100
AcDbEntity
  8
M0
 62
   253
100
AcDbText
 10
339.985505
 20
195.042387
 40
3.033394
  1
１２ｍ～４０ｍ
 41
0.595238
  7
STANDARD
100
AcDbText
  0
TEXT
  5
11C
100
AcDbEntity
  8
M0
 62
   253
100
AcDbText
 10
374.236344
 20
195.042387
 40
3.033394
  1
２４ｍ～４２ｍ
 41
0.595238
  7
STANDARD
100
AcDbText
  0
LINE
  5
11D
100
AcDbEntity
  8
M0
 62
   253
100
AcDbLine
 10
330.262587
 20
213.668021
 11
330.262587
 21
194.162728
  0
LINE
  5
11E
100
AcDbEntity
  8
M0
 62
   253
100
AcDbLine
 10
330.262587
 20
189.287631
 11
330.262587
 21
179.537436
  0
LINE
  5
11F
100
AcDbEntity
  8
M0
 62
   253
100
AcDbLine
 10
364.513432
 20
189.287631
 11
364.513432
 21
179.537436
  0
TEXT
  5
120
100
AcDbEntity
  8
M0
 62
   253
100
AcDbText
 10
306.81717
 20
195.042387
 40
3.033394
  1
４ｍ～３０ｍ
 41
0.595238
  7
STANDARD
100
AcDbText
  0
TEXT
  5
121
100
AcDbEntity
  8
M0
 62
   253
100
AcDbText
 10
302.48375
 20
234.170031
 40
3.033394
  1
ＳＦＭ－Ｐ４５０Ｖ１
 41
0.595238
  7
STANDARD
100
AcDbText
  0
TEXT
  5
122
100
AcDbEntity
  8
M0
 62
   253
100
AcDbText
 10
336.735444
 20
234.170031
 40
3.033394
  1
ＳＦＭ－Ｐ６００Ｖ１
 41
0.595238
  7
STANDARD
100
AcDbText
  0
TEXT
  5
123
100
AcDbEntity
  8
M0
 62
   253
100
AcDbText
 10
370.075776
 20
234.170031
 40
3.033394
  1
ＳＦＭ－Ｋ７５０Ｖ１
 41
0.595238
  7
STANDARD
100
AcDbText
  0
LINE
  5
124
100
AcDbEntity
  8
M0
 62
   253
100
AcDbLine
 10
242.618063
 20
228.293216
 11
398.764277
 21
228.293216
  0
LINE
  5
125
100
AcDbEntity
  8
M0
 62
   253
100
AcDbLine
 10
364.513432
 20
223.418216
 11
364.513432
 21
194.162728
  0
TEXT
  5
126
100
AcDbEntity
  8
M0
 62
   253
100
AcDbText
 10
253.000407
 20
224.233187
 40
3.250065
  1
定格周波数
 41
1.730751
  7
STANDARD
100
AcDbText
  0
TEXT
  5
127
100
AcDbEntity
  8
M0
 62
   253
100
AcDbText
 10
252.65648
 20
216.922987
 40
3.250065
  1
モーターの種類
 41
1.25
  7
STANDARD
100
AcDbText
  0
TEXT
  5
128
100
AcDbEntity
  8
M0
 62
   253
100
AcDbText
 10
252.666976
 20
209.607889
 40
3.250065
  1
モーター定格出力
 41
1.089738
  7
STANDARD
100
AcDbText
  0
TEXT
  5
129
100
AcDbEntity
  8
M0
 62
   253
100
AcDbText
 10
244.202041
 20
202.292795
 40
3.250065
  1
定格消費電力
 41
1.474346
  7
STANDARD
100
AcDbText
  0
TEXT
  5
12A
100
AcDbEntity
  8
M0
 62
   253
100
AcDbText
 10
258.375372
 20
194.977694
 40
3.250065
  1
吸上高さ範囲
 41
0.961536
  7
STANDARD
100
AcDbText
  0
TEXT
  5
12B
100
AcDbEntity
  8
M0
 62
   253
100
AcDbText
 10
257.333771
 20
190.1026
 40
3.250065
  1
押上高さ
 41
1.602549
  7
STANDARD
100
AcDbText
  0
TEXT
  5
12C
100
AcDbEntity
  8
M0
 62
   253
100
AcDbText
 10
254.681479
 20
153.536916
 40
3.250065
  1
配管口径
 41
0.841667
  7
STANDARD
100
AcDbText
  0
TEXT
  5
12D
100
AcDbEntity
  8
M0
 62
   253
100
AcDbText
 10
283.018007
 20
155.976916
 40
3.250065
  1
吐出管
 41
0.841667
  7
STANDARD
100
AcDbText
  0
TEXT
  5
12E
100
AcDbEntity
  8
M0
 62
   253
100
AcDbText
 10
283.018007
 20
151.101818
 40
3.250065
  1
吸込管
 41
0.841667
  7
STANDARD
100
AcDbText
  0
TEXT
  5
12F
100
AcDbEntity
  8
M0
 62
   253
100
AcDbText
 10
281.376726
 20
141.351624
 40
3.250065
  1
６０Ｈｚ
 41
0.841667
  7
STANDARD
100
AcDbText
  0
TEXT
  5
130
100
AcDbEntity
  8
M0
 62
   253
100
AcDbText
 10
281.376726
 20
146.226721
 40
3.250065
  1
５０Ｈｚ
 41
0.841667
  7
STANDARD
100
AcDbText
  0
TEXT
  5
131
100
AcDbEntity
  8
M0
 62
   253
100
AcDbText
 10
343.235551
 20
156.051235
 40
3.033394
  1
２５ｍｍ
 41
0.595238
  7
STANDARD
100
AcDbText
  0
TEXT
  5
132
100
AcDbEntity
  8
M0
 62
   253
100
AcDbText
 10
343.341927
 20
151.635526
 40
3.033394
  1
２５ｍｍ
 41
0.595238
  7
STANDARD
100
AcDbText
  0
LINE
  5
133
100
AcDbEntity
  8
M0
 62
   253
100
AcDbLine
 10
296.011742
 20
238.043508
 11
296.011742
 21
135.656656
  0
LINE
  5
134
100
AcDbEntity
  8
M0
 62
   253
100
AcDbLine
 10
262.64488
 20
140.536656
 11
398.764277
 21
140.536656
  0
LINE
  5
135
100
AcDbEntity
  8
M0
 62
   253
100
AcDbLine
 10
242.618063
 20
199.037826
 11
398.764277
 21
199.037826
  0
TEXT
  5
136
100
AcDbEntity
  8
M0
 62
   253
100
AcDbText
 10
281.376726
 20
204.727892
 40
3.250065
  1
５０Ｈｚ
 41
0.841667
  7
STANDARD
100
AcDbText
  0
TEXT
  5
137
100
AcDbEntity
  8
M0
 62
   253
100
AcDbText
 10
281.376726
 20
199.852793
 40
3.250065
  1
６０Ｈｚ
 41
0.841667
  7
STANDARD
100
AcDbText
  0
LINE
  5
138
100
AcDbEntity
  8
M0
 62
   253
100
AcDbLine
 10
279.328311
 20
208.788021
 11
279.328311
 21
199.037826
  0
TEXT
  5
139
100
AcDbEntity
  8
M0
 62
   253
100
AcDbText
 10
308.98388
 20
205.05924
 40
3.033394
  1
６５０Ｗ
 41
0.595238
  7
STANDARD
100
AcDbText
  0
TEXT
  5
13A
100
AcDbEntity
  8
M0
 62
   253
100
AcDbText
 10
343.235574
 20
205.05924
 40
3.033394
  1
８１０Ｗ
 41
0.595238
  7
STANDARD
100
AcDbText
  0
TEXT
  5
13B
100
AcDbEntity
  8
M0
 62
   253
100
AcDbText
 10
376.403062
 20
205.05924
 40
3.033394
  1
１００５Ｗ
 41
0.595238
  7
STANDARD
100
AcDbText
  0
TEXT
  5
13C
100
AcDbEntity
  8
M0
 62
   253
100
AcDbText
 10
308.98388
 20
200.179239
 40
3.033394
  1
７１０Ｗ
 41
0.595238
  7
STANDARD
100
AcDbText
  0
TEXT
  5
13D
100
AcDbEntity
  8
M0
 62
   253
100
AcDbText
 10
376.403062
 20
200.179239
 40
3.033394
  1
１００５Ｗ
 41
0.595238
  7
STANDARD
100
AcDbText
  0
TEXT
  5
13E
100
AcDbEntity
  8
M0
 62
   253
100
AcDbText
 10
281.376726
 20
185.227503
 40
3.250065
  1
５０Ｈｚ
 41
0.841667
  7
STANDARD
100
AcDbText
  0
TEXT
  5
13F
100
AcDbEntity
  8
M0
 62
   253
100
AcDbText
 10
281.376726
 20
180.352404
 40
3.250065
  1
６０Ｈｚ
 41
0.841667
  7
STANDARD
100
AcDbText
  0
LINE
  5
140
100
AcDbEntity
  8
M0
 62
   253
100
AcDbLine
 10
279.328311
 20
184.417436
 11
398.764277
 21
184.417436
  0
LINE
  5
141
100
AcDbEntity
  8
M0
 62
   253
100
AcDbLine
 10
279.328311
 20
189.287631
 11
279.328311
 21
179.537436
  0
TEXT
  5
142
100
AcDbEntity
  8
M0
 62
   253
100
AcDbText
 10
302.48375
 20
180.460739
 40
3.033394
  1
３９Ｌ／分（３４ｍ）
 41
0.595238
  7
STANDARD
100
AcDbText
  0
TEXT
  5
143
100
AcDbEntity
  8
M0
 62
   253
100
AcDbText
 10
302.48375
 20
185.310234
 40
3.033394
  1
３２Ｌ／分（３４ｍ）
 41
0.595238
  7
STANDARD
100
AcDbText
  0
TEXT
  5
144
100
AcDbEntity
  8
M0
 62
   253
100
AcDbText
 10
336.735436
 20
180.483891
 40
3.033394
  1
３０Ｌ／分（４７ｍ）
 41
0.595238
  7
STANDARD
100
AcDbText
  0
TEXT
  5
145
100
AcDbEntity
  8
M0
 62
   253
100
AcDbText
 10
336.735444
 20
185.333386
 40
3.033394
  1
２６Ｌ／分（４７ｍ）
 41
0.595238
  7
STANDARD
100
AcDbText
  0
TEXT
  5
146
100
AcDbEntity
  8
M0
 62
   253
100
AcDbText
 10
370.986283
 20
180.460739
 40
3.033394
  1
４１Ｌ／分（４７ｍ）
 41
0.595238
  7
STANDARD
100
AcDbText
  0
TEXT
  5
147
100
AcDbEntity
  8
M0
 62
   253
100
AcDbText
 10
370.986283
 20
185.310234
 40
3.033394
  1
３９Ｌ／分（４７ｍ）
 41
0.595238
  7
STANDARD
100
AcDbText
  0
LINE
  5
148
100
AcDbEntity
  8
M0
 62
   253
100
AcDbLine
 10
279.328311
 20
169.787241
 11
279.328311
 21
150.286851
  0
TEXT
  5
149
100
AcDbEntity
  8
M0
 62
   253
100
AcDbText
 10
323.943017
 20
229.216517
 40
3.033394
  1
単相１００Ｖ
 41
0.595238
  7
STANDARD
100
AcDbText
  0
TEXT
  5
14A
100
AcDbEntity
  8
M0
 62
   253
100
AcDbText
 10
374.409196
 20
229.440638
 40
3.033394
  1
３相２００Ｖ
 41
0.595238
  7
STANDARD
100
AcDbText
  0
TEXT
  5
14B
100
AcDbEntity
  8
M0
 62
   253
100
AcDbText
 10
333.485368
 20
175.62665
 40
3.033394
  1
１７０ｋＰａ～６００ｋＰａ
 41
0.595238
  7
STANDARD
100
AcDbText
  0
TEXT
  5
14C
100
AcDbEntity
  8
M0
 62
   253
100
AcDbText
 10
333.485375
 20
165.870892
 40
3.033394
  1
１５０ｋＰａ～３５０ｋＰａ
 41
0.595238
  7
STANDARD
100
AcDbText
  0
TEXT
  5
14D
100
AcDbEntity
  8
M0
 62
   253
100
AcDbText
 10
333.48536
 20
161.184879
 40
3.033394
  1
１７０ｋＰａ～３７０ｋＰａ
 41
0.595238
  7
STANDARD
100
AcDbText
  0
TEXT
  5
14E
100
AcDbEntity
  8
M0
 62
   253
100
AcDbText
 10
329.151955
 20
224.336519
 40
3.033394
  1
５０Ｈｚまたは６０Ｈｚいずれか専用
 41
0.595238
  7
STANDARD
100
AcDbText
  0
TEXT
  5
14F
100
AcDbEntity
  8
M0
 62
   253
100
AcDbText
 10
341.068864
 20
146.464185
 40
3.033394
  1
２０．０ｋｇ
 41
0.595238
  7
STANDARD
100
AcDbText
  0
TEXT
  5
150
100
AcDbEntity
  8
M0
 62
   253
100
AcDbText
 10
341.068864
 20
141.589089
 40
3.033394
  1
１９．０ｋｇ
 41
0.595238
  7
STANDARD
100
AcDbText
  0
TEXT
  5
151
100
AcDbEntity
  8
M0
 62
   253
100
AcDbText
 10
306.81717
 20
146.464185
 40
3.033394
  1
１９．０ｋｇ
 41
0.595238
  7
STANDARD
100
AcDbText
  0
TEXT
  5
152
100
AcDbEntity
  8
M0
 62
   253
100
AcDbText
 10
306.81717
 20
141.589089
 40
3.033394
  1
１８．０ｋｇ
 41
0.595238
  7
STANDARD
100
AcDbText
  0
TEXT
  5
153
100
AcDbEntity
  8
M0
 62
   253
100
AcDbText
 10
375.319703
 20
146.464185
 40
3.033394
  1
２０．５ｋｇ
 41
0.595238
  7
STANDARD
100
AcDbText
  0
TEXT
  5
154
100
AcDbEntity
  8
M0
 62
   253
100
AcDbText
 10
375.319703
 20
141.589089
 40
3.033394
  1
１９．５ｋｇ
 41
0.595238
  7
STANDARD
100
AcDbText
  0
TEXT
  5
155
100
AcDbEntity
  8
M0
 62
   253
100
AcDbText
 10
281.52933
 20
165.727111
 40
3.250065
  1
ＯＮ圧
 41
1.111105
  7
STANDARD
100
AcDbText
  0
TEXT
  5
156
100
AcDbEntity
  8
M0
 62
   253
100
AcDbText
 10
281.439016
 20
160.852013
 40
3.250065
  1
ＯＦＦ圧
 41
0.833333
  7
STANDARD
100
AcDbText
  0
TEXT
  5
157
100
AcDbEntity
  8
M0
 62
   253
100
AcDbText
 10
254.648434
 20
163.28711
 40
3.250065
  1
固定モード
 41
0.841667
  7
STANDARD
100
AcDbText
  0
TEXT
  5
158
100
AcDbEntity
  8
M0
 62
   253
100
AcDbText
 10
343.235574
 20
200.050814
 40
3.033394
  1
７５０Ｗ
 41
0.595238
  7
STANDARD
100
AcDbText
  0
TEXT
  5
159
100
AcDbEntity
  8
M0
 62
   253
100
AcDbText
 10
312.193627
 20
215.279547
 40
3.033394
  1
コンデンサ始動誘導モーター
 41
0.595238
  7
STANDARD
100
AcDbText
  0
LINE
  5
15A
100
AcDbEntity
  8
M0
100
AcDbLine
 10
242.563786
 20
278.303351
 11
278.207543
 21
278.303351
  0
LINE
  5
15B
100
AcDbEntity
  8
M0
100
AcDbLine
 10
242.563786
 20
278.303351
 11
242.563786
 21
263.604894
  0
LINE
  5
15C
100
AcDbEntity
  8
M0
100
AcDbLine
 10
278.207543
 20
278.303351
 11
278.207543
 21
263.604894
  0
LINE
  5
15D
100
AcDbEntity
  8
M0
100
AcDbLine
 10
242.563786
 20
263.604894
 11
278.207543
 21
263.604894
  0
TEXT
  5
15E
100
AcDbEntity
  8
M0
100
AcDbText
 10
248.713168
 20
266.815581
 40
8.3335
  1
仕　様
 41
0.836667
  7
STANDARD
100
AcDbText
  0
LINE
  5
15F
100
AcDbEntity
  8
M0
 62
    74
100
AcDbLine
 10
29.7286
 20
263.604894
 11
63.16692
 21
263.604894
  0
LINE
  5
160
100
AcDbEntity
  8
M0
 62
    74
100
AcDbLine
 10
29.7286
 20
263.604894
 11
63.16692
 21
263.604894
  0
LINE
  5
161
100
AcDbEntity
  8
M0
 62
    74
100
AcDbLine
 10
29.7286
 20
263.604894
 11
62.432012
 21
263.604894
  0
LINE
  5
162
100
AcDbEntity
  8
M0
 62
    74
100
AcDbLine
 10
29.7286
 20
263.604894
 11
33.770595
 21
263.604894
  0
LINE
  5
163
100
AcDbEntity
  8
M0
 62
    74
100
AcDbLine
 10
33.770595
 20
263.604894
 11
29.7286
 21
263.604894
  0
LINE
  5
164
100
AcDbEntity
  8
M0
 62
    74
100
AcDbLine
 10
29.7286
 20
263.604894
 11
29.7286
 21
278.303351
  0
LINE
  5
165
100
AcDbEntity
  8
M0
 62
    74
100
AcDbLine
 10
63.16692
 20
263.604894
 11
63.16692
 21
278.303351
  0
LINE
  5
166
100
AcDbEntity
  8
M0
 62
    74
100
AcDbLine
 10
63.16692
 20
278.303351
 11
29.7286
 21
278.303351
  0
TEXT
  5
167
100
AcDbEntity
  8
M0
 62
    74
100
AcDbText
 10
34.270594
 20
266.544821
 40
10.0
  1
揚水性能
 41
0.5
  7
STANDARD
100
AcDbText
  0
SPLINE
  5
168
100
AcDbEntity
  8
M0
 62
     5
100
AcDbSpline
210
0.0
220
0.0
230
-1.0
 70
     8
 71
     3
 72
    26
 73
    22
 43
0.0000001
 40
0.0
 40
0.0
 40
0.0
 40
0.0
 40
1.0
 40
1.0
 40
1.0
 40
2.0
 40
2.0
 40
2.0
 40
3.0
 40
3.0
 40
3.0
 40
4.0
 40
4.0
 40
4.0
 40
5.0
 40
5.0
 40
5.0
 40
6.0
 40
6.0
 40
6.0
 40
7.0
 40
7.0
 40
7.0
 40
7.0
 10
44.035687
 20
96.041684
 10
45.803717
 20
95.159296
 10
47.571747
 20
94.276911
 10
49.885687
 20
93.206684
 10
54.118952
 20
91.248745
 10
60.179316
 20
88.662138
 10
66.085687
 20
85.736684
 10
71.992057
 20
82.81123
 10
77.744438
 20
79.546935
 10
83.635687
 20
74.936684
 10
89.526935
 20
70.326433
 10
95.557048
 20
64.370235
 10
99.835687
 20
59.861684
 10
103.347372
 20
56.161299
 10
105.679226
 20
53.436088
 10
107.935687
 20
50.861684
 10
110.192148
 20
48.287281
 10
112.373222
 20
45.863685
 10
114.235687
 20
43.526684
 10
114.259607
 20
43.49667
 10
114.283474
 20
43.466669
 10
114.307289
 20
43.436684
  0
SPLINE
  5
169
100
AcDbEntity
  8
M0
 62
     5
100
AcDbSpline
210
0.0
220
0.0
230
-1.0
 70
     8
 71
     3
 72
    14
 73
    10
 43
0.0000001
 40
0.0
 40
0.0
 40
0.0
 40
0.0
 40
1.0
 40
1.0
 40
1.0
 40
2.0
 40
2.0
 40
2.0
 40
3.0
 40
3.0
 40
3.0
 40
3.0
 10
148.783718
 20
211.943508
 10
160.403141
 20
206.81638
 10
172.022561
 20
201.689261
 10
179.372167
 20
197.495615
 10
184.66919
 20
194.473162
 10
187.748307
 20
191.935597
 10
192.517491
 20
187.935379
 10
198.606928
 20
182.827782
 10
207.451665
 20
175.335647
 10
216.296398
 20
167.843508
  0
SPLINE
  5
16A
100
AcDbEntity
  8
M0
 62
     1
100
AcDbSpline
210
0.0
220
0.0
230
-1.0
 70
     8
 71
     3
 72
    17
 73
    13
 43
0.0000001
 40
0.0
 40
0.0
 40
0.0
 40
0.0
 40
1.0
 40
1.0
 40
1.0
 40
2.0
 40
2.0
 40
2.0
 40
3.0
 40
3.0
 40
3.0
 40
4.0
 40
4.0
 40
4.0
 40
4.0
 10
44.035687
 20
102.161684
 10
58.080818
 20
92.45972
 10
72.125946
 20
82.757759
 10
81.385687
 20
74.936684
 10
87.650663
 20
69.645084
 10
91.72506
 20
65.214487
 10
95.785687
 20
59.861684
 10
99.846314
 20
54.508881
 10
103.893165
 20
48.233876
 10
106.585687
 20
43.526684
 10
106.602883
 20
43.49662
 10
106.620025
 20
43.46662
 10
106.637111
 20
43.436684
  0
SPLINE
  5
16B
100
AcDbEntity
  8
M0
 62
     1
100
AcDbSpline
210
0.0
220
0.0
230
-1.0
 70
     8
 71
     3
 72
    17
 73
    13
 43
0.0000001
 40
0.0
 40
0.0
 40
0.0
 40
0.0
 40
1.0
 40
1.0
 40
1.0
 40
2.0
 40
2.0
 40
2.0
 40
3.0
 40
3.0
 40
3.0
 40
4.0
 40
4.0
 40
4.0
 40
4.0
 10
44.059309
 20
203.618508
 10
54.618141
 20
198.06667
 10
65.176967
 20
192.514832
 10
73.309309
 20
187.643508
 10
81.440584
 20
182.772824
 10
87.146002
 20
178.582477
 10
91.759309
 20
175.268508
 10
95.375818
 20
172.67059
 10
98.321167
 20
170.611246
 10
100.759309
 20
167.933508
 10
100.786554
 20
167.903585
 10
100.813737
 20
167.873585
 10
100.840856
 20
167.843508
  0
SPLINE
  5
16C
100
AcDbEntity
  8
M0
 62
     1
100
AcDbSpline
210
0.0
220
0.0
230
-1.0
 70
     8
 71
     3
 72
    20
 73
    16
 43
0.0000001
 40
0.0
 40
0.0
 40
0.0
 40
0.0
 40
1.0
 40
1.0
 40
1.0
 40
2.0
 40
2.0
 40
2.0
 40
3.0
 40
3.0
 40
3.0
 40
4.0
 40
4.0
 40
4.0
 40
5.0
 40
5.0
 40
5.0
 40
5.0
 10
148.783718
 20
214.463508
 10
152.122866
 20
212.549128
 10
155.462013
 20
210.634741
 10
159.583718
 20
208.343508
 10
163.705424
 20
206.052276
 10
168.609681
 20
203.384186
 10
174.433718
 20
199.343508
 10
180.257755
 20
195.302831
 10
187.001569
 20
189.889556
 10
193.333718
 20
184.268508
 10
199.665867
 20
178.647461
 10
205.586342
 20
172.818632
 10
209.083718
 20
167.933508
 10
209.105221
 20
167.903473
 10
209.126633
 20
167.873473
 10
209.147954
 20
167.843508
  0
SPLINE
  5
16D
100
AcDbEntity
  8
M0
 62
     5
100
AcDbSpline
210
0.0
220
0.0
230
-1.0
 70
     8
 71
     3
 72
    20
 73
    16
 43
0.0000001
 40
0.0
 40
0.0
 40
0.0
 40
0.0
 40
1.0
 40
1.0
 40
1.0
 40
2.0
 40
2.0
 40
2.0
 40
3.0
 40
3.0
 40
3.0
 40
4.0
 40
4.0
 40
4.0
 40
5.0
 40
5.0
 40
5.0
 40
5.0
 10
112.547925
 20
167.843508
 10
112.518587
 20
167.873529
 10
112.489049
 20
167.90353
 10
112.459309
 20
167.933508
 10
110.134328
 20
170.277139
 10
106.571886
 20
172.491216
 10
102.109309
 20
175.268508
 10
96.453344
 20
178.788508
 10
89.351451
 20
183.213233
 10
81.409309
 20
187.643508
 10
73.467166
 20
192.073784
 10
64.684786
 20
196.50961
 10
58.009309
 20
199.343508
 10
52.349667
 20
201.74616
 10
48.20449
 20
202.997335
 10
44.059309
 20
204.248508
  0
ENDSEC
  0
SECTION
  2
OBJECTS
  0
DICTIONARY
  5
C
100
AcDbDictionary
  3
ACAD_GROUP
350
D
  3
ACAD_MLINESTYLE
350
E
  0
DICTIONARY
  5
D
102
{ACAD_REACTORS
330
C
102
}
100
AcDbDictionary
  0
DICTIONARY
  5
E
102
{ACAD_REACTORS
330
C
102
}
100
AcDbDictionary
  3
STANDARD
350
13
  0
MLINESTYLE
  5
13
102
{ACAD_REACTORS
330
E
102
}
100
AcDbMlineStyle
  2
STANDARD
 70
     0
  3

 62
     0
 51
90.0
 52
90.0
 71
     2
 49
0.5
 62
   256
  6
BYLAYER
 49
-0.5
 62
   256
  6
BYLAYER
  0
ENDSEC
  0
EOF
