  0
SECTION
  2
HEADER
  9
$ACADVER
  1
AC1012
  9
$INSBASE
 10
0.000000
 20
0.000000
 30
0.0
  9
$VIEWCTR
 10
7.531722
 20
4.5
  9
$VIEWSIZE
 40
9.0
  9
$SNAPMODE
 70
     0
  9
$SNAPUNIT
 10
1.0
 20
1.0
  9
$SNAPBASE
 10
0.0
 20
0.0
  9
$SNAPANG
 50
0.0
  9
$SNAPSTYLE
 70
     0
  9
$SNAPISOPAIR
 70
     0
  9
$GRIDMODE
 70
     0
  9
$GRIDUNIT
 10
0.0
 20
0.0
  9
$ORTHOMODE
 70
     0
  9
$REGENMODE
 70
     1
  9
$FILLMODE
 70
     1
  9
$QTEXTMODE
 70
     0
  9
$DRAGMODE
 70
     2
  9
$LTSCALE
  40
     1.000000
  9
$OSMODE
 70
     0
  9
$ATTMODE
 70
     1
  9
$TEXTSIZE
 40
0.2
  9
$TRACEWID
 40
0.05
  9
$TEXTSTYLE
  7
STANDARD
  9
$CELTYPE
  6
BYLAYER
  9
$CECOLOR
 62
   256
  9
$DIMSCALE
 40
1.0
  9
$DIMASZ
 40
0.18
  9
$DIMEXO
 40
0.0625
  9
$DIMDLI
 40
0.38
  9
$DIMRND
 40
0.0
  9
$DIMDLE
 40
0.0
  9
$DIMEXE
 40
0.18
  9
$DIMTP
 40
0.0
  9
$DIMTM
 40
0.0
  9
$DIMTXT
 40
0.18
  9
$DIMCEN
 40
0.09
  9
$DIMTSZ
 40
0.0
  9
$DIMTOL
 70
     0
  9
$DIMLIM
 70
     0
  9
$DIMTIH
 70
     1
  9
$DIMTOH
 70
     1
  9
$DIMSE1
 70
     0
  9
$DIMSE2
 70
     0
  9
$DIMTAD
 70
     0
  9
$DIMZIN
 70
     0
  9
$DIMBLK
  1

  9
$LUNITS
 70
     2
  9
$LUPREC
 70
     4
  9
$AXISMODE
 70
     0
  9
$AXISUNIT
 10
0.0
 20
0.0
  9
$SKETCHINC
 40
0.1
  9
$FILLETRAD
 40
0.0
  9
$AUNITS
 70
     0
  9
$AUPREC
 70
     0
  9
$MENU
  1
ACAD
  9
$ELEVATION
 40
0.0
  9
$THICKNESS
 40
0.0
  9
$VIEWDIR
 10
0.0
 20
0.0
 30
1.0
  9
$LIMCHECK
 70
     0
  9
$BLIPMODE
 70
     1
  9
$CHAMFERA
 40
0.0
  9
$CHAMFERB
 40
0.0
  9
$FASTZOOM
 70
     1
  9
$SKPOLY
 70
     0
  9
$TDCREATE
 40
0000000.0000000000
  9
$TDUPDATE
 40
0000000.0000000000
  9
$TDINDWG
 40
0.0000000000
  9
$TDUSRTIMER
 40
0.0000000000
  9
$USRTIMER
 70
     1
  9
$ANGBASE
 50
0.0
  9
$ANGDIR
 70
     0
  9
$PDMODE
 70
     0
  9
$PDSIZE
 40
0.0
  9
$PLINEWID
 40
0.0
  9
$COORDS
 70
     0
  9
$USERI1
 70
     0
  9
$USERI2
 70
     0
  9
$USERI3
 70
     0
  9
$USERI4
 70
     0
  9
$USERI5
 70
     0
  9
$USERR1
 40
0.0
  9
$USERR2
 40
0.0
  9
$USERR3
 40
0.0
  9
$USERR4
 40
0.0
  9
$USERR5
 40
0.0
  9
$CLAYER
  8
M0
  9
$EXTMIN
 10
0.0
 20
0.0
  9
$EXTMAX
 10
420.0
 20
297.0
  9
$LIMMIN
 10
0.0
 20
0.0
  9
$LIMMAX
 10
420.0
 20
297.0
  9
$HANDSEED
  5
149
  0
ENDSEC
  0
SECTION
  2
CLASSES
  0
ENDSEC
  0
SECTION
  2
TABLES
  0
TABLE
  2
VPORT
  5
8
100
AcDbSymbolTable
 70
     2
  0
VPORT
  5
14
100
AcDbSymbolTableRecord
100
AcDbViewportTableRecord
  2
*ACTIVE
 70
     0
 10
0.0
 20
0.0
 11
1.0
 21
1.0
 12
484.0
 22
297.0
 13
0.0
 23
0.0
 14
1.0
 24
1.0
 15
0.0
 25
0.0
 16
0.0
 26
0.0
 36
1.0
 17
0.0
 27
0.0
 37
0.0
 40
594.0
 41
2.0
 42
50.0
 43
0.0
 44
0.0
 50
0.0
 51
0.0
 71
     0
 72
   100
 73
     1
 74
     1
 75
     0
 76
     0
 77
     0
 78
     0
  0
ENDTAB
  0
TABLE
  2
LTYPE
  5
5
100
AcDbSymbolTable
 70
     5
  0
LTYPE
  5
15
100
AcDbSymbolTableRecord
100
AcDbLinetypeTableRecord
  2
BYBLOCK
 70
     0
  3

 72
    65
 73
     0
 40
0.0
  0
LTYPE
  5
16
100
AcDbSymbolTableRecord
100
AcDbLinetypeTableRecord
  2
BYLAYER
 70
     0
  3

 72
    65
 73
     0
 40
0.0
  0
LTYPE
  5
17
100
AcDbSymbolTableRecord
100
AcDbLinetypeTableRecord
  2
CONTINUOUS
 70
    64
  3
Solid line
 72
    65
 73
     0
 40
0.0
  0
LTYPE
  5
18
100
AcDbSymbolTableRecord
100
AcDbLinetypeTableRecord
  2
DASHED
 70
    64
  3
__ __ __ __ __ __ __ __ __ __ __ __ __ __ __ __
 72
    65
 73
     2
 40
0.75
 49
0.5
 74
     0
 49
-0.25
 74
     0
  0
LTYPE
  5
19
100
AcDbSymbolTableRecord
100
AcDbLinetypeTableRecord
  2
DASHDOT
 70
    64
  3
__ . __ . __ . __ . __ . __ . __ . __ . __ . __
 72
    65
 73
     4
 40
1.0
 49
0.5
 74
     0
 49
-0.25
 74
     0
 49
0.0
 74
     0
 49
-0.25
 74
     0
  0
LTYPE
  5
1A
100
AcDbSymbolTableRecord
100
AcDbLinetypeTableRecord
  2
DIVIDE
 70
    64
  3
____ . . ____ . . ____ . . ____ . . ____ . . __
 72
    65
 73
     6
 40
1.25
 49
0.5
 74
     0
 49
-0.25
 74
     0
 49
0.0
 74
     0
 49
-0.25
 74
     0
 49
0.0
 74
     0
 49
-0.25
 74
     0
  0
LTYPE
  5
1B
100
AcDbSymbolTableRecord
100
AcDbLinetypeTableRecord
  2
DOT
 70
    64
  3
. . . . . . . . . . . . . . . . . . . . . . . .
 72
    65
 73
     2
 40
0.25
 49
0.0
 74
     0
 49
-0.25
 74
     0
  0
ENDTAB
  0
TABLE
  2
LAYER
  5
2
100
AcDbSymbolTable
 70
   102
  0
LAYER
  5
F
100
AcDbSymbolTableRecord
100
AcDbLayerTableRecord
  2
0
 70
     0
 62
     7
  6
CONTINUOUS
  0
LAYER
  5
1C
100
AcDbSymbolTableRecord
100
AcDbLayerTableRecord
  2
DEFPOINTS
 70
     0
 62
     7
  6
CONTINUOUS
  0
LAYER
  5
1D
100
AcDbSymbolTableRecord
100
AcDbLayerTableRecord
  2
M0
 70
     0
 62
     3
  6
CONTINUOUS
  0
LAYER
  5
1E
100
AcDbSymbolTableRecord
100
AcDbLayerTableRecord
  2
DD0
 70
     0
 62
     4
  6
CONTINUOUS
  0
ENDTAB
  0
TABLE
  2
STYLE
  5
3
100
AcDbSymbolTable
 70
     2
  0
STYLE
  5
10
100
AcDbSymbolTableRecord
100
AcDbTextStyleTableRecord
  2
STANDARD
 70
     0
 40
0.0
 41
1.0
 50
0.0
 71
     0
 42
0.2
  3
txt
  4
BIGFONT
  0
ENDTAB
  0
TABLE
  2
VIEW
  5
6
100
AcDbSymbolTable
 70
     0
  0
ENDTAB
  0
TABLE
  2
UCS
  5
7
100
AcDbSymbolTable
 70
     0
  0
ENDTAB
  0
TABLE
  2
APPID
  5
9
100
AcDbSymbolTable
 70
     1
  0
APPID
  5
11
100
AcDbSymbolTableRecord
100
AcDbRegAppTableRecord
  2
ACAD
 70
     0
  0
ENDTAB
  0
TABLE
  2
DIMSTYLE
  5
A
100
AcDbSymbolTable
 70
     2
  0
DIMSTYLE
105
25
100
AcDbSymbolTableRecord
100
AcDbDimStyleTableRecord
  2
STANDARD
 70
     0
  3

  4

  5

  6
_OPEN
  7
_OPEN
 40
1.0
 41
3.0
 42
0.0
 43
8.0
 44
1.5
 45
0.0
 46
0.0
 47
0.0
 48
0.0
140
3.5
141
0.09
142
0.0
143
0.03937
144
1.0
145
0.0
146
1.0
147
1.0
 71
     0
 72
     0
 73
     1
 74
     1
 75
     0
 76
     0
 77
     3
 78
     8
170
     0
171
     2
172
     0
173
     1
174
     0
175
     0
176
     0
177
     0
178
     0
270
     2
271
     2
272
     4
273
     2
274
     2
340
10
275
     0
280
     0
281
     0
282
     0
283
     1
284
     0
285
     0
286
     0
287
     3
288
     0
  0
DIMSTYLE
105
26
100
AcDbSymbolTableRecord
100
AcDbDimStyleTableRecord
  2
LEADSTYL
 70
     0
  3

  4

  5

  6
_OPEN
  7
_OPEN
 40
1.0
 41
3.0
 42
0.0625
 43
0.38
 44
0.18
 45
0.0
 46
0.0
 47
0.0
 48
0.0
140
3.2
141
0.09
142
0.0
143
25.4
144
1.0
145
0.0
146
1.0
147
1.0
 71
     0
 72
     0
 73
     1
 74
     1
 75
     0
 76
     0
 77
     0
 78
     0
170
     0
171
     2
172
     0
173
     1
174
     0
175
     0
176
     0
177
     0
178
     0
270
     2
271
     4
272
     4
273
     2
274
     2
340
10
275
     0
280
     0
281
     0
282
     0
283
     1
284
     0
285
     0
286
     0
287
     3
288
     0
  0
ENDTAB
  0
TABLE
  2
BLOCK_RECORD
  5
1
100
AcDbSymbolTable
 70
     8
  0
BLOCK_RECORD
  5
1F
100
AcDbSymbolTableRecord
100
AcDbBlockTableRecord
  2
*MODEL_SPACE
  0
BLOCK_RECORD
  5
22
100
AcDbSymbolTableRecord
100
AcDbBlockTableRecord
  2
*PAPER_SPACE
  0
BLOCK_RECORD
  5
27
100
AcDbSymbolTableRecord
100
AcDbBlockTableRecord
  2
_NONE
  0
BLOCK_RECORD
  5
2B
100
AcDbSymbolTableRecord
100
AcDbBlockTableRecord
  2
_OPEN
  0
BLOCK_RECORD
  5
31
100
AcDbSymbolTableRecord
100
AcDbBlockTableRecord
  2
_CLOSED
  0
BLOCK_RECORD
  5
38
100
AcDbSymbolTableRecord
100
AcDbBlockTableRecord
  2
_ORIGIN
  0
BLOCK_RECORD
  5
3D
100
AcDbSymbolTableRecord
100
AcDbBlockTableRecord
  2
_DOT
  0
BLOCK_RECORD
  5
45
100
AcDbSymbolTableRecord
100
AcDbBlockTableRecord
  2
_OBLIQUE
  0
BLOCK_RECORD
  5
49
100
AcDbSymbolTableRecord
100
AcDbBlockTableRecord
  2
DIMS0
  0
BLOCK_RECORD
  5
51
100
AcDbSymbolTableRecord
100
AcDbBlockTableRecord
  2
DIMS1
  0
ENDTAB
  0
ENDSEC
  0
SECTION
  2
BLOCKS
  0
BLOCK
  5
20
100
AcDbEntity
  8
0
100
AcDbBlockBegin
  2
*MODEL_SPACE
 70
     0
 10
0.0
 20
0.0
 30
0.0
  3
*MODEL_SPACE
  1

  0
ENDBLK
  5
21
100
AcDbEntity
  8
0
100
AcDbBlockEnd
  0
BLOCK
  5
23
100
AcDbEntity
 67
     1
  8
0
100
AcDbBlockBegin
  2
*PAPER_SPACE
 70
     0
 10
0.0
 20
0.0
 30
0.0
  3
*PAPER_SPACE
  1

  0
ENDBLK
  5
24
100
AcDbEntity
 67
     1
  8
0
100
AcDbBlockEnd
  0
BLOCK
  5
28
100
AcDbEntity
  8
0
100
AcDbBlockBegin
  2
_NONE
 70
     0
 10
0.0
 20
0.0
  0
CIRCLE
  5
29
100
AcDbEntity
  8
0
 62
     0
100
AcDbCircle
 10
0.0
 20
0.0
 40
0.25
  0
ENDBLK
  5
2A
100
AcDbEntity
  8
0
100
AcDbBlockEnd
  0
BLOCK
  5
2C
100
AcDbEntity
  8
0
100
AcDbBlockBegin
  2
_OPEN
 70
     0
 10
0.0
 20
0.0
  0
LINE
  5
2D
100
AcDbEntity
  8
0
 62
     0
100
AcDbLine
 10
-0.965926
 20
0.258819
 11
0.0
 21
0.0
  0
LINE
  5
2E
100
AcDbEntity
  8
0
 62
     0
100
AcDbLine
 10
0.0
 20
0.0
 11
-0.965926
 21
-0.258819
  0
LINE
  5
2F
100
AcDbEntity
  8
0
 62
     0
100
AcDbLine
 10
0.0
 20
0.0
 11
-1.0
 21
0.0
  0
ENDBLK
  5
30
100
AcDbEntity
  8
0
100
AcDbBlockEnd
  0
BLOCK
  5
32
100
AcDbEntity
  8
0
100
AcDbBlockBegin
  2
_CLOSED
 70
     0
 10
0.0
 20
0.0
  0
LINE
  5
33
100
AcDbEntity
  8
0
 62
     0
100
AcDbLine
 10
-0.965926
 20
0.258819
 11
0.0
 21
0.0
  0
LINE
  5
34
100
AcDbEntity
  8
0
 62
     0
100
AcDbLine
 10
0.0
 20
0.0
 11
-0.965926
 21
-0.258819
  0
LINE
  5
35
100
AcDbEntity
  8
0
 62
     0
100
AcDbLine
 10
-0.965926
 20
0.258819
 11
-0.965926
 21
-0.258819
  0
LINE
  5
36
100
AcDbEntity
  8
0
 62
     0
100
AcDbLine
 10
0.0
 20
0.0
 11
-1.0
 21
0.0
  0
ENDBLK
  5
37
100
AcDbEntity
  8
0
100
AcDbBlockEnd
  0
BLOCK
  5
39
100
AcDbEntity
  8
0
100
AcDbBlockBegin
  2
_ORIGIN
 70
     0
 10
0.0
 20
0.0
  0
CIRCLE
  5
3A
100
AcDbEntity
  8
0
 62
     0
100
AcDbCircle
 10
0.0
 20
0.0
 40
0.5
  0
LINE
  5
3B
100
AcDbEntity
  8
0
 62
     0
100
AcDbLine
 10
0.0
 20
0.0
 11
-1.0
 21
0.0
  0
ENDBLK
  5
3C
100
AcDbEntity
  8
0
100
AcDbBlockEnd
  0
BLOCK
  5
3E
100
AcDbEntity
  8
0
100
AcDbBlockBegin
  2
_DOT
 70
     0
 10
0.0
 20
0.0
  0
POLYLINE
  5
3F
100
AcDbEntity
  8
0
 62
     0
100
AcDb2dPolyline
 66
     1
 70
     1
 40
0.5
 41
0.5
  0
VERTEX
  5
40
100
AcDbEntity
  8
0
 62
     0
100
AcDbVertex
100
AcDb2dVertex
 10
-0.25
 20
0.0
 42
1.0
  0
VERTEX
  5
41
100
AcDbEntity
  8
0
 62
     0
100
AcDbVertex
100
AcDb2dVertex
 10
0.25
 20
0.0
 42
1.0
  0
SEQEND
  5
42
100
AcDbEntity
  8
0
 62
     0
  0
LINE
  5
43
100
AcDbEntity
  8
0
 62
     0
100
AcDbLine
 10
-0.5
 20
0.0
 11
-1.0
 21
0.0
  0
ENDBLK
  5
44
100
AcDbEntity
  8
0
100
AcDbBlockEnd
  0
BLOCK
  5
46
100
AcDbEntity
  8
0
100
AcDbBlockBegin
  2
_OBLIQUE
 70
     0
 10
0.0
 20
0.0
  0
LINE
  5
47
100
AcDbEntity
  8
0
 62
     0
100
AcDbLine
 10
-0.353553
 20
-0.353553
 11
0.353553
 21
0.353553
  0
ENDBLK
  5
48
100
AcDbEntity
  8
0
100
AcDbBlockEnd
  0
BLOCK
  5
4A
100
AcDbEntity
  8
DD0
100
AcDbBlockBegin
  2
DIMS0
 70
     0
 10
0.0
 20
0.0
  0
LINE
  5
4B
100
AcDbEntity
  8
DD0
100
AcDbLine
 10
125.504036
 20
270.648193
 11
127.504036
 21
274.648193
  0
LINE
  5
4C
100
AcDbEntity
  8
DD0
100
AcDbLine
 10
127.504036
 20
274.648193
 11
129.504036
 21
270.648193
  0
LINE
  5
4D
100
AcDbEntity
  8
DD0
100
AcDbLine
 10
129.504036
 20
270.648193
 11
125.504036
 21
270.648193
  0
TEXT
  5
4E
100
AcDbEntity
  8
DD0
100
AcDbText
 10
126.787369
 20
270.968195
 40
1.8
  1
Ａ
 41
0.796296
  7
STANDARD
100
AcDbText
  0
ENDBLK
  5
4F
100
AcDbEntity
  8
DD0
100
AcDbBlockEnd
  0
BLOCK
  5
52
100
AcDbEntity
  8
DD0
100
AcDbBlockBegin
  2
DIMS1
 70
     0
 10
0.0
 20
0.0
  0
LINE
  5
53
100
AcDbEntity
  8
DD0
100
AcDbLine
 10
127.051407
 20
152.428436
 11
129.051407
 21
156.428436
  0
LINE
  5
54
100
AcDbEntity
  8
DD0
100
AcDbLine
 10
129.051407
 20
156.428436
 11
131.051407
 21
152.428436
  0
LINE
  5
55
100
AcDbEntity
  8
DD0
100
AcDbLine
 10
131.051407
 20
152.428436
 11
127.051407
 21
152.428436
  0
TEXT
  5
56
100
AcDbEntity
  8
DD0
100
AcDbText
 10
128.33474
 20
152.748438
 40
1.8
  1
Ａ
 41
0.796296
  7
STANDARD
100
AcDbText
  0
ENDBLK
  5
57
100
AcDbEntity
  8
DD0
100
AcDbBlockEnd
  0
ENDSEC
  0
SECTION
  2
ENTITIES
  0
INSERT
  5
50
100
AcDbEntity
  8
DD0
100
AcDbBlockReference
  2
DIMS0
 10
0.0
 20
0.0
  0
INSERT
  5
58
100
AcDbEntity
  8
DD0
100
AcDbBlockReference
  2
DIMS1
 10
0.0
 20
0.0
  0
LINE
  5
59
100
AcDbEntity
  8
M0
 62
     4
100
AcDbLine
 10
49.783576
 20
252.546593
 11
49.783576
 21
180.546593
  0
LINE
  5
5A
100
AcDbEntity
  8
M0
 62
     4
100
AcDbLine
 10
49.783576
 20
180.546593
 11
160.783576
 21
180.546593
  0
LINE
  5
5B
100
AcDbEntity
  8
M0
 62
     4
100
AcDbLine
 10
81.783576
 20
180.546593
 11
81.783576
 21
228.546593
  0
LINE
  5
5C
100
AcDbEntity
  8
M0
 62
     4
100
AcDbLine
 10
113.783576
 20
180.546593
 11
113.783576
 21
252.546593
  0
LINE
  5
5D
100
AcDbEntity
  8
M0
 62
     4
100
AcDbLine
 10
145.783576
 20
180.546593
 11
145.783576
 21
252.546593
  0
LINE
  5
5E
100
AcDbEntity
  8
M0
 62
     4
100
AcDbLine
 10
81.783576
 20
228.546593
 11
81.783576
 21
252.546593
  0
LINE
  5
5F
100
AcDbEntity
  8
M0
 62
     4
100
AcDbLine
 10
65.783576
 20
180.546593
 11
65.783576
 21
252.546593
  0
LINE
  5
60
100
AcDbEntity
  8
M0
 62
     4
100
AcDbLine
 10
97.783576
 20
180.546593
 11
97.783576
 21
252.546593
  0
LINE
  5
61
100
AcDbEntity
  8
M0
 62
     4
100
AcDbLine
 10
129.783576
 20
180.546593
 11
129.783576
 21
252.546593
  0
LINE
  5
62
100
AcDbEntity
  8
M0
 62
     4
100
AcDbLine
 10
113.783576
 20
238.095439
 11
113.783576
 21
252.546593
  0
TEXT
  5
63
100
AcDbEntity
  8
M0
 62
     4
100
AcDbText
 10
89.413232
 20
166.097456
 40
5.376
  1
揚水量（Ｌ／分）
 41
0.611111
  7
STANDARD
100
AcDbText
  0
TEXT
  5
64
100
AcDbEntity
  8
M0
 62
     4
100
AcDbText
 10
142.663368
 20
172.504549
 40
4.8
  1
６０
 41
0.611111
  7
STANDARD
100
AcDbText
  0
TEXT
  5
65
100
AcDbEntity
  8
M0
 62
     4
100
AcDbText
 10
126.663367
 20
172.504549
 40
4.8
  1
５０
 41
0.611111
  7
STANDARD
100
AcDbText
  0
TEXT
  5
66
100
AcDbEntity
  8
M0
 62
     4
100
AcDbText
 10
110.663376
 20
172.504549
 40
4.8
  1
４０
 41
0.611111
  7
STANDARD
100
AcDbText
  0
TEXT
  5
67
100
AcDbEntity
  8
M0
 62
     4
100
AcDbText
 10
94.663376
 20
172.504549
 40
4.8
  1
３０
 41
0.611111
  7
STANDARD
100
AcDbText
  0
TEXT
  5
68
100
AcDbEntity
  8
M0
 62
     4
100
AcDbText
 10
78.663369
 20
172.504549
 40
4.8
  1
２０
 41
0.611111
  7
STANDARD
100
AcDbText
  0
TEXT
  5
69
100
AcDbEntity
  8
M0
 62
     4
100
AcDbText
 10
62.663369
 20
172.504549
 40
4.8
  1
１０
 41
0.611111
  7
STANDARD
100
AcDbText
  0
TEXT
  5
6A
100
AcDbEntity
  8
M0
 62
     4
100
AcDbText
 10
46.663369
 20
172.504549
 40
4.8
  1
０
 41
0.611111
  7
STANDARD
100
AcDbText
  0
TEXT
  5
6B
100
AcDbEntity
  8
M0
 62
     4
100
AcDbText
 10
43.463372
 20
178.266558
 40
4.8
  1
０
 41
0.611111
  7
STANDARD
100
AcDbText
  0
TEXT
  5
6C
100
AcDbEntity
  8
M0
 62
     4
100
AcDbText
 10
40.263375
 20
194.266565
 40
4.8
  1
２０
 41
0.611111
  7
STANDARD
100
AcDbText
  0
TEXT
  5
6D
100
AcDbEntity
  8
M0
 62
     4
100
AcDbText
 10
40.263375
 20
210.26656
 40
4.8
  1
４０
 41
0.611111
  7
STANDARD
100
AcDbText
  0
ARC
  5
6E
100
AcDbEntity
  8
M0
 62
     4
100
AcDbCircle
 10
34.449628
 20
201.404265
 40
5.376
100
AcDbArc
 50
52.58592
 51
127.41408
  0
ARC
  5
6F
100
AcDbEntity
  8
M0
 62
     4
100
AcDbCircle
 10
34.449628
 20
204.778235
 40
5.376
100
AcDbArc
 50
232.58592
 51
307.41408
  0
TEXT
  5
70
100
AcDbEntity
  8
M0
 62
     4
100
AcDbText
 10
32.209629
 20
217.472529
 40
3.584
  1
全
 41
1.25
  7
STANDARD
100
AcDbText
  0
TEXT
  5
71
100
AcDbEntity
  8
M0
 62
     4
100
AcDbText
 10
32.209629
 20
213.530129
 40
3.584
  1
揚
 41
1.25
  7
STANDARD
100
AcDbText
  0
TEXT
  5
72
100
AcDbEntity
  8
M0
 62
     4
100
AcDbText
 10
32.209629
 20
209.587729
 40
3.584
  1
程
 41
1.25
  7
STANDARD
100
AcDbText
  0
TEXT
  5
73
100
AcDbEntity
  8
M0
 62
     4
100
AcDbText
 10
32.209629
 20
205.64533
 40
3.584
  1
　
 41
1.25
  7
STANDARD
100
AcDbText
  0
TEXT
  5
74
100
AcDbEntity
  8
M0
 62
     4
100
AcDbText
 10
32.209629
 20
201.70293
 40
3.584
  1
ｍ
 41
1.25
  7
STANDARD
100
AcDbText
  0
TEXT
  5
75
100
AcDbEntity
  8
M0
 62
     4
100
AcDbText
 10
60.968854
 20
265.194593
 40
4.8
  1
【標準ジェットＪ７５－７Ｙ組合わせ時】
 41
0.590278
  7
STANDARD
100
AcDbText
  0
TEXT
  5
76
100
AcDbEntity
  8
M0
 62
     4
100
AcDbText
 10
60.968854
 20
260.094593
 40
4.8
  1
　吸上高さ６ｍ
 41
0.590278
  7
STANDARD
100
AcDbText
  0
LINE
  5
77
100
AcDbEntity
  8
M0
 62
     4
100
AcDbLine
 10
49.783576
 20
196.546593
 11
160.783576
 21
196.546593
  0
LINE
  5
78
100
AcDbEntity
  8
M0
 62
     4
100
AcDbLine
 10
49.783576
 20
212.546593
 11
160.783576
 21
212.546593
  0
LINE
  5
79
100
AcDbEntity
  8
M0
 62
     4
100
AcDbLine
 10
160.783576
 20
228.546593
 11
49.783576
 21
228.546593
  0
LINE
  5
7A
100
AcDbEntity
  8
M0
 62
     4
100
AcDbLine
 10
49.783576
 20
188.546593
 11
160.783576
 21
188.546593
  0
LINE
  5
7B
100
AcDbEntity
  8
M0
 62
     4
100
AcDbLine
 10
49.783576
 20
196.546593
 11
160.783576
 21
196.546593
  0
LINE
  5
7C
100
AcDbEntity
  8
M0
 62
     4
100
AcDbLine
 10
49.783576
 20
204.546593
 11
160.783576
 21
204.546593
  0
LINE
  5
7D
100
AcDbEntity
  8
M0
 62
     4
100
AcDbLine
 10
49.783576
 20
212.546593
 11
160.783576
 21
212.546593
  0
LINE
  5
7E
100
AcDbEntity
  8
M0
 62
     4
100
AcDbLine
 10
49.783576
 20
220.546593
 11
160.783576
 21
220.546593
  0
LINE
  5
7F
100
AcDbEntity
  8
M0
 62
     4
100
AcDbLine
 10
49.783576
 20
228.546593
 11
160.783576
 21
228.546593
  0
LINE
  5
80
100
AcDbEntity
  8
M0
 62
     4
100
AcDbLine
 10
49.783576
 20
236.546593
 11
160.783576
 21
236.546593
  0
LINE
  5
81
100
AcDbEntity
  8
M0
 62
     4
100
AcDbLine
 10
49.783576
 20
244.546593
 11
160.783576
 21
244.546593
  0
TEXT
  5
82
100
AcDbEntity
  8
M0
 62
     4
100
AcDbText
 10
40.263375
 20
226.26656
 40
4.8
  1
６０
 41
0.611111
  7
STANDARD
100
AcDbText
  0
TEXT
  5
83
100
AcDbEntity
  8
M0
 62
     4
100
AcDbText
 10
40.263375
 20
242.146593
 40
4.8
  1
８０
 41
0.611111
  7
STANDARD
100
AcDbText
  0
LINE
  5
84
100
AcDbEntity
  8
M0
100
AcDbLine
 10
198.949755
 20
180.546593
 11
270.949755
 21
180.546593
  0
LINE
  5
85
100
AcDbEntity
  8
M0
100
AcDbLine
 10
198.949755
 20
252.845028
 11
198.949755
 21
180.546593
  0
LINE
  5
86
100
AcDbEntity
  8
M0
100
AcDbLine
 10
230.949755
 20
180.546593
 11
230.949755
 21
228.546593
  0
LINE
  5
87
100
AcDbEntity
  8
M0
100
AcDbLine
 10
262.949755
 20
180.546593
 11
262.949755
 21
253.202316
  0
LINE
  5
88
100
AcDbEntity
  8
M0
100
AcDbLine
 10
230.949755
 20
228.546593
 11
230.949755
 21
252.845028
  0
LINE
  5
89
100
AcDbEntity
  8
M0
100
AcDbLine
 10
214.949755
 20
180.546593
 11
214.949755
 21
252.845028
  0
LINE
  5
8A
100
AcDbEntity
  8
M0
100
AcDbLine
 10
246.949755
 20
180.546593
 11
246.949755
 21
253.202316
  0
LINE
  5
8B
100
AcDbEntity
  8
M0
100
AcDbLine
 10
198.949755
 20
244.546593
 11
262.949755
 21
244.546593
  0
ARC
  5
8C
100
AcDbEntity
  8
M0
100
AcDbCircle
 10
183.297815
 20
210.746301
 40
5.376
100
AcDbArc
 50
52.58592
 51
127.41408
  0
ARC
  5
8D
100
AcDbEntity
  8
M0
100
AcDbCircle
 10
183.297815
 20
214.120271
 40
5.376
100
AcDbArc
 50
232.58592
 51
307.41408
  0
TEXT
  5
8E
100
AcDbEntity
  8
M0
100
AcDbText
 10
181.057808
 20
226.814564
 40
3.584
  1
全
 41
1.25
  7
STANDARD
100
AcDbText
  0
TEXT
  5
8F
100
AcDbEntity
  8
M0
100
AcDbText
 10
181.057808
 20
222.872164
 40
3.584
  1
揚
 41
1.25
  7
STANDARD
100
AcDbText
  0
TEXT
  5
90
100
AcDbEntity
  8
M0
100
AcDbText
 10
181.057808
 20
218.929764
 40
3.584
  1
程
 41
1.25
  7
STANDARD
100
AcDbText
  0
TEXT
  5
91
100
AcDbEntity
  8
M0
100
AcDbText
 10
181.057808
 20
214.987364
 40
3.584
  1
　
 41
1.25
  7
STANDARD
100
AcDbText
  0
TEXT
  5
92
100
AcDbEntity
  8
M0
100
AcDbText
 10
181.057808
 20
211.044964
 40
3.584
  1
ｍ
 41
1.25
  7
STANDARD
100
AcDbText
  0
TEXT
  5
93
100
AcDbEntity
  8
M0
100
AcDbText
 10
189.429555
 20
226.26656
 40
4.8
  1
６０
 41
0.611111
  7
STANDARD
100
AcDbText
  0
TEXT
  5
94
100
AcDbEntity
  8
M0
100
AcDbText
 10
189.429555
 20
210.266564
 40
4.8
  1
４０
 41
0.611111
  7
STANDARD
100
AcDbText
  0
TEXT
  5
95
100
AcDbEntity
  8
M0
100
AcDbText
 10
189.429555
 20
194.26656
 40
4.8
  1
２０
 41
0.611111
  7
STANDARD
100
AcDbText
  0
TEXT
  5
96
100
AcDbEntity
  8
M0
100
AcDbText
 10
192.629552
 20
178.266561
 40
4.8
  1
０
 41
0.611111
  7
STANDARD
100
AcDbText
  0
TEXT
  5
97
100
AcDbEntity
  8
M0
100
AcDbText
 10
195.829549
 20
172.504552
 40
4.8
  1
０
 41
0.611111
  7
STANDARD
100
AcDbText
  0
TEXT
  5
98
100
AcDbEntity
  8
M0
100
AcDbText
 10
227.829549
 20
172.504552
 40
4.8
  1
２０
 41
0.611111
  7
STANDARD
100
AcDbText
  0
TEXT
  5
99
100
AcDbEntity
  8
M0
100
AcDbText
 10
259.829565
 20
172.504552
 40
4.8
  1
４０
 41
0.611111
  7
STANDARD
100
AcDbText
  0
TEXT
  5
9A
100
AcDbEntity
  8
M0
100
AcDbText
 10
223.712713
 20
166.251856
 40
5.376
  1
揚水量（Ｌ／分）
 41
0.611111
  7
STANDARD
100
AcDbText
  0
TEXT
  5
9B
100
AcDbEntity
  8
M0
100
AcDbText
 10
211.829549
 20
172.504552
 40
4.8
  1
１０
 41
0.611111
  7
STANDARD
100
AcDbText
  0
TEXT
  5
9C
100
AcDbEntity
  8
M0
100
AcDbText
 10
243.829564
 20
172.504552
 40
4.8
  1
３０
 41
0.611111
  7
STANDARD
100
AcDbText
  0
TEXT
  5
9D
100
AcDbEntity
  8
M0
100
AcDbText
 10
189.429555
 20
242.266564
 40
4.8
  1
８０
 41
0.611111
  7
STANDARD
100
AcDbText
  0
LINE
  5
9E
100
AcDbEntity
  8
M0
100
AcDbLine
 10
246.949755
 20
250.055388
 11
246.949755
 21
252.845028
  0
TEXT
  5
9F
100
AcDbEntity
  8
M0
100
AcDbText
 10
193.296236
 20
265.194595
 40
4.8
  1
【深井戸ジェットＪ７５－２４Ｘ組合わせ時】
 41
0.590278
  7
STANDARD
100
AcDbText
  0
TEXT
  5
A0
100
AcDbEntity
  8
M0
100
AcDbText
 10
193.296236
 20
260.094597
 40
4.8
  1
　吸上高さ２４ｍ
 41
0.590278
  7
STANDARD
100
AcDbText
  0
LINE
  5
A1
100
AcDbEntity
  8
M0
100
AcDbLine
 10
198.949755
 20
188.546593
 11
270.949755
 21
188.546593
  0
LINE
  5
A2
100
AcDbEntity
  8
M0
100
AcDbLine
 10
198.949755
 20
196.546593
 11
270.949755
 21
196.546593
  0
LINE
  5
A3
100
AcDbEntity
  8
M0
100
AcDbLine
 10
198.949755
 20
204.546593
 11
270.949755
 21
204.546593
  0
LINE
  5
A4
100
AcDbEntity
  8
M0
100
AcDbLine
 10
198.949755
 20
212.546593
 11
270.949755
 21
212.546593
  0
LINE
  5
A5
100
AcDbEntity
  8
M0
100
AcDbLine
 10
198.949755
 20
220.546593
 11
270.949755
 21
220.546593
  0
LINE
  5
A6
100
AcDbEntity
  8
M0
100
AcDbLine
 10
198.949755
 20
228.546593
 11
270.949755
 21
228.546593
  0
LINE
  5
A7
100
AcDbEntity
  8
M0
100
AcDbLine
 10
198.949755
 20
236.546593
 11
270.949755
 21
236.546593
  0
LINE
  5
A8
100
AcDbEntity
  8
M0
100
AcDbLine
 10
198.949755
 20
244.546593
 11
270.949755
 21
244.546593
  0
LINE
  5
A9
100
AcDbEntity
  8
M0
100
AcDbLine
 10
198.949755
 20
196.546593
 11
270.949755
 21
196.546593
  0
LINE
  5
AA
100
AcDbEntity
  8
M0
100
AcDbLine
 10
198.949755
 20
212.546593
 11
270.949755
 21
212.546593
  0
LINE
  5
AB
100
AcDbEntity
  8
M0
100
AcDbLine
 10
198.949755
 20
228.546593
 11
270.949755
 21
228.546593
  0
LINE
  5
AC
100
AcDbEntity
  8
M0
100
AcDbLine
 10
262.949755
 20
244.546593
 11
270.949755
 21
244.546593
  0
LINE
  5
AD
100
AcDbEntity
  8
M0
 62
     2
100
AcDbLine
 10
49.783576
 20
67.871236
 11
160.783576
 21
67.871236
  0
LINE
  5
AE
100
AcDbEntity
  8
M0
 62
     2
100
AcDbLine
 10
49.783576
 20
138.171913
 11
49.783576
 21
67.871236
  0
LINE
  5
AF
100
AcDbEntity
  8
M0
 62
     2
100
AcDbLine
 10
81.783576
 20
67.871236
 11
81.783576
 21
115.871236
  0
LINE
  5
B0
100
AcDbEntity
  8
M0
 62
     2
100
AcDbLine
 10
113.783576
 20
67.871236
 11
113.783576
 21
137.450867
  0
LINE
  5
B1
100
AcDbEntity
  8
M0
 62
     2
100
AcDbLine
 10
145.783576
 20
67.871236
 11
145.783576
 21
138.321268
  0
LINE
  5
B2
100
AcDbEntity
  8
M0
 62
     2
100
AcDbLine
 10
81.783576
 20
115.871236
 11
81.783576
 21
138.171913
  0
LINE
  5
B3
100
AcDbEntity
  8
M0
 62
     2
100
AcDbLine
 10
65.783576
 20
67.871236
 11
65.783576
 21
138.171913
  0
LINE
  5
B4
100
AcDbEntity
  8
M0
 62
     2
100
AcDbLine
 10
97.783576
 20
67.871236
 11
97.783576
 21
138.171913
  0
LINE
  5
B5
100
AcDbEntity
  8
M0
 62
     2
100
AcDbLine
 10
129.783576
 20
67.871236
 11
129.783576
 21
138.171913
  0
LINE
  5
B6
100
AcDbEntity
  8
M0
 62
     2
100
AcDbLine
 10
49.783576
 20
131.871236
 11
129.783576
 21
131.871236
  0
ARC
  5
B7
100
AcDbEntity
  8
M0
 62
     2
100
AcDbCircle
 10
33.120153
 20
101.514782
 40
5.376
100
AcDbArc
 50
52.58592
 51
127.41408
  0
ARC
  5
B8
100
AcDbEntity
  8
M0
 62
     2
100
AcDbCircle
 10
33.120153
 20
104.888752
 40
5.376
100
AcDbArc
 50
232.58592
 51
307.41408
  0
TEXT
  5
B9
100
AcDbEntity
  8
M0
 62
     2
100
AcDbText
 10
30.880139
 20
117.583055
 40
3.584
  1
全
 41
1.25
  7
STANDARD
100
AcDbText
  0
TEXT
  5
BA
100
AcDbEntity
  8
M0
 62
     2
100
AcDbText
 10
30.880139
 20
113.640655
 40
3.584
  1
揚
 41
1.25
  7
STANDARD
100
AcDbText
  0
TEXT
  5
BB
100
AcDbEntity
  8
M0
 62
     2
100
AcDbText
 10
30.880139
 20
109.698255
 40
3.584
  1
程
 41
1.25
  7
STANDARD
100
AcDbText
  0
TEXT
  5
BC
100
AcDbEntity
  8
M0
 62
     2
100
AcDbText
 10
30.880139
 20
105.755855
 40
3.584
  1
　
 41
1.25
  7
STANDARD
100
AcDbText
  0
TEXT
  5
BD
100
AcDbEntity
  8
M0
 62
     2
100
AcDbText
 10
30.880139
 20
101.813455
 40
3.584
  1
ｍ
 41
1.25
  7
STANDARD
100
AcDbText
  0
TEXT
  5
BE
100
AcDbEntity
  8
M0
 62
     2
100
AcDbText
 10
40.263376
 20
113.591207
 40
4.8
  1
６０
 41
0.611111
  7
STANDARD
100
AcDbText
  0
TEXT
  5
BF
100
AcDbEntity
  8
M0
 62
     2
100
AcDbText
 10
40.263376
 20
97.591205
 40
4.8
  1
４０
 41
0.611111
  7
STANDARD
100
AcDbText
  0
TEXT
  5
C0
100
AcDbEntity
  8
M0
 62
     2
100
AcDbText
 10
40.263376
 20
81.591205
 40
4.8
  1
２０
 41
0.611111
  7
STANDARD
100
AcDbText
  0
TEXT
  5
C1
100
AcDbEntity
  8
M0
 62
     2
100
AcDbText
 10
43.463373
 20
65.591205
 40
4.8
  1
０
 41
0.611111
  7
STANDARD
100
AcDbText
  0
TEXT
  5
C2
100
AcDbEntity
  8
M0
 62
     2
100
AcDbText
 10
46.663369
 20
59.829196
 40
4.8
  1
０
 41
0.611111
  7
STANDARD
100
AcDbText
  0
TEXT
  5
C3
100
AcDbEntity
  8
M0
 62
     2
100
AcDbText
 10
78.663369
 20
59.829196
 40
4.8
  1
２０
 41
0.611111
  7
STANDARD
100
AcDbText
  0
TEXT
  5
C4
100
AcDbEntity
  8
M0
 62
     2
100
AcDbText
 10
110.663377
 20
59.829196
 40
4.8
  1
４０
 41
0.611111
  7
STANDARD
100
AcDbText
  0
TEXT
  5
C5
100
AcDbEntity
  8
M0
 62
     2
100
AcDbText
 10
89.413233
 20
52.506126
 40
5.376
  1
揚水量（Ｌ／分）
 41
0.611111
  7
STANDARD
100
AcDbText
  0
TEXT
  5
C6
100
AcDbEntity
  8
M0
 62
     2
100
AcDbText
 10
142.663373
 20
59.829196
 40
4.8
  1
６０
 41
0.611111
  7
STANDARD
100
AcDbText
  0
TEXT
  5
C7
100
AcDbEntity
  8
M0
 62
     2
100
AcDbText
 10
62.663369
 20
59.829196
 40
4.8
  1
１０
 41
0.611111
  7
STANDARD
100
AcDbText
  0
TEXT
  5
C8
100
AcDbEntity
  8
M0
 62
     2
100
AcDbText
 10
94.663377
 20
59.829196
 40
4.8
  1
３０
 41
0.611111
  7
STANDARD
100
AcDbText
  0
TEXT
  5
C9
100
AcDbEntity
  8
M0
 62
     2
100
AcDbText
 10
126.663369
 20
59.829196
 40
4.8
  1
５０
 41
0.611111
  7
STANDARD
100
AcDbText
  0
TEXT
  5
CA
100
AcDbEntity
  8
M0
 62
     2
100
AcDbText
 10
40.263376
 20
129.591207
 40
4.8
  1
８０
 41
0.611111
  7
STANDARD
100
AcDbText
  0
LINE
  5
CB
100
AcDbEntity
  8
M0
 62
     2
100
AcDbLine
 10
113.783576
 20
136.915164
 11
113.783576
 21
138.171913
  0
LINE
  5
CC
100
AcDbEntity
  8
M0
 62
     2
100
AcDbLine
 10
49.783576
 20
75.871236
 11
160.783576
 21
75.871236
  0
LINE
  5
CD
100
AcDbEntity
  8
M0
 62
     2
100
AcDbLine
 10
49.783576
 20
83.871236
 11
160.783576
 21
83.871236
  0
LINE
  5
CE
100
AcDbEntity
  8
M0
 62
     2
100
AcDbLine
 10
49.783576
 20
91.871236
 11
160.783576
 21
91.871236
  0
LINE
  5
CF
100
AcDbEntity
  8
M0
 62
     2
100
AcDbLine
 10
49.783576
 20
99.871236
 11
160.783576
 21
99.871236
  0
LINE
  5
D0
100
AcDbEntity
  8
M0
 62
     2
100
AcDbLine
 10
49.783576
 20
107.871236
 11
160.783576
 21
107.871236
  0
LINE
  5
D1
100
AcDbEntity
  8
M0
 62
     2
100
AcDbLine
 10
49.783576
 20
115.871236
 11
160.783576
 21
115.871236
  0
LINE
  5
D2
100
AcDbEntity
  8
M0
 62
     2
100
AcDbLine
 10
49.783576
 20
123.871236
 11
160.783576
 21
123.871236
  0
LINE
  5
D3
100
AcDbEntity
  8
M0
 62
     2
100
AcDbLine
 10
49.783576
 20
131.871236
 11
160.783576
 21
131.871236
  0
LINE
  5
D4
100
AcDbEntity
  8
M0
 62
     2
100
AcDbLine
 10
49.783576
 20
83.871236
 11
160.783576
 21
83.871236
  0
LINE
  5
D5
100
AcDbEntity
  8
M0
 62
     2
100
AcDbLine
 10
49.783576
 20
99.871236
 11
160.783576
 21
99.871236
  0
LINE
  5
D6
100
AcDbEntity
  8
M0
 62
     2
100
AcDbLine
 10
49.783576
 20
115.871236
 11
160.783576
 21
115.871236
  0
LINE
  5
D7
100
AcDbEntity
  8
M0
 62
     2
100
AcDbLine
 10
129.783576
 20
131.871236
 11
160.783576
 21
131.871236
  0
TEXT
  5
D8
100
AcDbEntity
  8
M0
 62
     2
100
AcDbText
 10
61.923834
 20
147.474271
 40
4.8
  1
【標準ジェットＪ７５－７Ｙ組合わせ時】
 41
0.590278
  7
STANDARD
100
AcDbText
  0
TEXT
  5
D9
100
AcDbEntity
  8
M0
 62
     2
100
AcDbText
 10
61.923834
 20
142.374273
 40
4.8
  1
　吸上高さ１２ｍ
 41
0.590278
  7
STANDARD
100
AcDbText
  0
LINE
  5
DA
100
AcDbEntity
  8
M0
 62
   114
100
AcDbLine
 10
198.949755
 20
67.871236
 11
270.949755
 21
67.871236
  0
LINE
  5
DB
100
AcDbEntity
  8
M0
 62
   114
100
AcDbLine
 10
230.949755
 20
67.871236
 11
230.949755
 21
131.871236
  0
LINE
  5
DC
100
AcDbEntity
  8
M0
 62
   114
100
AcDbLine
 10
262.949755
 20
67.871236
 11
262.949755
 21
138.321268
  0
LINE
  5
DD
100
AcDbEntity
  8
M0
 62
   114
100
AcDbLine
 10
230.949755
 20
131.871236
 11
230.949755
 21
138.321268
  0
LINE
  5
DE
100
AcDbEntity
  8
M0
 62
   114
100
AcDbLine
 10
214.949755
 20
67.871236
 11
214.949755
 21
138.321268
  0
LINE
  5
DF
100
AcDbEntity
  8
M0
 62
   114
100
AcDbLine
 10
246.949755
 20
67.871236
 11
246.949755
 21
131.871236
  0
LINE
  5
E0
100
AcDbEntity
  8
M0
 62
   114
100
AcDbLine
 10
198.949755
 20
138.321268
 11
198.949755
 21
67.871236
  0
ARC
  5
E1
100
AcDbEntity
  8
M0
 62
   114
100
AcDbCircle
 10
182.229156
 20
99.754494
 40
5.376
100
AcDbArc
 50
52.58592
 51
127.41408
  0
ARC
  5
E2
100
AcDbEntity
  8
M0
 62
   114
100
AcDbCircle
 10
182.229156
 20
103.128465
 40
5.376
100
AcDbArc
 50
232.58592
 51
307.41408
  0
TEXT
  5
E3
100
AcDbEntity
  8
M0
 62
   114
100
AcDbText
 10
179.989159
 20
115.822755
 40
3.584
  1
全
 41
1.25
  7
STANDARD
100
AcDbText
  0
TEXT
  5
E4
100
AcDbEntity
  8
M0
 62
   114
100
AcDbText
 10
179.989159
 20
111.880355
 40
3.584
  1
揚
 41
1.25
  7
STANDARD
100
AcDbText
  0
TEXT
  5
E5
100
AcDbEntity
  8
M0
 62
   114
100
AcDbText
 10
179.989159
 20
107.937955
 40
3.584
  1
程
 41
1.25
  7
STANDARD
100
AcDbText
  0
TEXT
  5
E6
100
AcDbEntity
  8
M0
 62
   114
100
AcDbText
 10
179.989159
 20
103.995556
 40
3.584
  1
　
 41
1.25
  7
STANDARD
100
AcDbText
  0
TEXT
  5
E7
100
AcDbEntity
  8
M0
 62
   114
100
AcDbText
 10
179.989159
 20
100.053156
 40
3.584
  1
ｍ
 41
1.25
  7
STANDARD
100
AcDbText
  0
TEXT
  5
E8
100
AcDbEntity
  8
M0
 62
   114
100
AcDbText
 10
189.429555
 20
113.591207
 40
4.8
  1
６０
 41
0.611111
  7
STANDARD
100
AcDbText
  0
TEXT
  5
E9
100
AcDbEntity
  8
M0
 62
   114
100
AcDbText
 10
189.429555
 20
97.591207
 40
4.8
  1
４０
 41
0.611111
  7
STANDARD
100
AcDbText
  0
TEXT
  5
EA
100
AcDbEntity
  8
M0
 62
   114
100
AcDbText
 10
189.429555
 20
81.591207
 40
4.8
  1
２０
 41
0.611111
  7
STANDARD
100
AcDbText
  0
TEXT
  5
EB
100
AcDbEntity
  8
M0
 62
   114
100
AcDbText
 10
192.629552
 20
65.591207
 40
4.8
  1
０
 41
0.611111
  7
STANDARD
100
AcDbText
  0
TEXT
  5
EC
100
AcDbEntity
  8
M0
 62
   114
100
AcDbText
 10
195.829556
 20
59.829198
 40
4.8
  1
０
 41
0.611111
  7
STANDARD
100
AcDbText
  0
TEXT
  5
ED
100
AcDbEntity
  8
M0
 62
   114
100
AcDbText
 10
227.829541
 20
59.829198
 40
4.8
  1
２０
 41
0.611111
  7
STANDARD
100
AcDbText
  0
TEXT
  5
EE
100
AcDbEntity
  8
M0
 62
   114
100
AcDbText
 10
259.829556
 20
59.829198
 40
4.8
  1
４０
 41
0.611111
  7
STANDARD
100
AcDbText
  0
TEXT
  5
EF
100
AcDbEntity
  8
M0
 62
   114
100
AcDbText
 10
222.885172
 20
52.506124
 40
5.376
  1
揚水量（Ｌ／分）
 41
0.611111
  7
STANDARD
100
AcDbText
  0
TEXT
  5
F0
100
AcDbEntity
  8
M0
 62
   114
100
AcDbText
 10
211.829556
 20
59.829198
 40
4.8
  1
１０
 41
0.611111
  7
STANDARD
100
AcDbText
  0
TEXT
  5
F1
100
AcDbEntity
  8
M0
 62
   114
100
AcDbText
 10
243.829556
 20
59.829198
 40
4.8
  1
３０
 41
0.611111
  7
STANDARD
100
AcDbText
  0
TEXT
  5
F2
100
AcDbEntity
  8
M0
 62
   114
100
AcDbText
 10
189.429555
 20
129.591207
 40
4.8
  1
８０
 41
0.611111
  7
STANDARD
100
AcDbText
  0
LINE
  5
F3
100
AcDbEntity
  8
M0
 62
   114
100
AcDbLine
 10
246.949755
 20
131.871236
 11
246.949755
 21
138.321268
  0
TEXT
  5
F4
100
AcDbEntity
  8
M0
 62
   114
100
AcDbText
 10
193.683118
 20
147.474271
 40
4.8
  1
【深井戸ジェットＪ７５－３５Ｘ組合わせ時】
 41
0.590278
  7
STANDARD
100
AcDbText
  0
TEXT
  5
F5
100
AcDbEntity
  8
M0
 62
   114
100
AcDbText
 10
193.683118
 20
142.374271
 40
4.8
  1
　吸上高さ３５ｍ
 41
0.590278
  7
STANDARD
100
AcDbText
  0
LINE
  5
F6
100
AcDbEntity
  8
M0
 62
   114
100
AcDbLine
 10
198.949755
 20
75.871236
 11
270.949755
 21
75.871236
  0
LINE
  5
F7
100
AcDbEntity
  8
M0
 62
   114
100
AcDbLine
 10
198.949755
 20
83.871236
 11
270.949755
 21
83.871236
  0
LINE
  5
F8
100
AcDbEntity
  8
M0
 62
   114
100
AcDbLine
 10
198.949755
 20
91.871236
 11
270.949755
 21
91.871236
  0
LINE
  5
F9
100
AcDbEntity
  8
M0
 62
   114
100
AcDbLine
 10
198.949755
 20
99.871236
 11
270.949755
 21
99.871236
  0
LINE
  5
FA
100
AcDbEntity
  8
M0
 62
   114
100
AcDbLine
 10
198.949755
 20
107.871236
 11
270.949755
 21
107.871236
  0
LINE
  5
FB
100
AcDbEntity
  8
M0
 62
   114
100
AcDbLine
 10
198.949755
 20
115.871236
 11
270.949755
 21
115.871236
  0
LINE
  5
FC
100
AcDbEntity
  8
M0
 62
   114
100
AcDbLine
 10
198.949755
 20
123.871236
 11
270.949755
 21
123.871236
  0
LINE
  5
FD
100
AcDbEntity
  8
M0
 62
   114
100
AcDbLine
 10
198.949755
 20
131.871236
 11
270.949755
 21
131.871236
  0
LINE
  5
FE
100
AcDbEntity
  8
M0
 62
   114
100
AcDbLine
 10
198.949755
 20
83.871236
 11
270.949755
 21
83.871236
  0
LINE
  5
FF
100
AcDbEntity
  8
M0
 62
   114
100
AcDbLine
 10
198.949755
 20
99.871236
 11
270.949755
 21
99.871236
  0
LINE
  5
100
100
AcDbEntity
  8
M0
 62
   114
100
AcDbLine
 10
198.949755
 20
131.871236
 11
270.949755
 21
131.871236
  0
LINE
  5
101
100
AcDbEntity
  8
M0
 62
   114
100
AcDbLine
 10
198.949755
 20
115.871236
 11
270.949755
 21
115.871236
  0
LINE
  5
102
100
AcDbEntity
  8
M0
 62
     6
100
AcDbLine
 10
314.211547
 20
138.321268
 11
314.211547
 21
67.871236
  0
LINE
  5
103
100
AcDbEntity
  8
M0
 62
     6
100
AcDbLine
 10
346.211547
 20
67.871236
 11
346.211547
 21
115.871236
  0
LINE
  5
104
100
AcDbEntity
  8
M0
 62
     6
100
AcDbLine
 10
378.211547
 20
67.871236
 11
378.211547
 21
115.871236
  0
LINE
  5
105
100
AcDbEntity
  8
M0
 62
     6
100
AcDbLine
 10
346.211547
 20
115.871236
 11
346.211547
 21
138.385554
  0
LINE
  5
106
100
AcDbEntity
  8
M0
 62
     6
100
AcDbLine
 10
330.211547
 20
67.871236
 11
330.211547
 21
138.321268
  0
LINE
  5
107
100
AcDbEntity
  8
M0
 62
     6
100
AcDbLine
 10
362.211547
 20
67.871236
 11
362.211547
 21
115.871236
  0
ARC
  5
108
100
AcDbEntity
  8
M0
 62
     6
100
AcDbCircle
 10
298.655724
 20
96.149735
 40
5.376
100
AcDbArc
 50
52.58592
 51
127.41408
  0
ARC
  5
109
100
AcDbEntity
  8
M0
 62
     6
100
AcDbCircle
 10
298.655724
 20
99.523706
 40
5.376
100
AcDbArc
 50
232.58592
 51
307.41408
  0
TEXT
  5
10A
100
AcDbEntity
  8
M0
 62
     6
100
AcDbText
 10
296.415726
 20
112.218002
 40
3.584
  1
全
 41
1.25
  7
STANDARD
100
AcDbText
  0
TEXT
  5
10B
100
AcDbEntity
  8
M0
 62
     6
100
AcDbText
 10
296.415726
 20
108.275602
 40
3.584
  1
揚
 41
1.25
  7
STANDARD
100
AcDbText
  0
TEXT
  5
10C
100
AcDbEntity
  8
M0
 62
     6
100
AcDbText
 10
296.415726
 20
104.333202
 40
3.584
  1
程
 41
1.25
  7
STANDARD
100
AcDbText
  0
TEXT
  5
10D
100
AcDbEntity
  8
M0
 62
     6
100
AcDbText
 10
296.415726
 20
100.390802
 40
3.584
  1
　
 41
1.25
  7
STANDARD
100
AcDbText
  0
TEXT
  5
10E
100
AcDbEntity
  8
M0
 62
     6
100
AcDbText
 10
296.415726
 20
96.448403
 40
3.584
  1
ｍ
 41
1.25
  7
STANDARD
100
AcDbText
  0
TEXT
  5
10F
100
AcDbEntity
  8
M0
 62
     6
100
AcDbText
 10
304.691343
 20
113.591202
 40
4.8
  1
６０
 41
0.611111
  7
STANDARD
100
AcDbText
  0
TEXT
  5
110
100
AcDbEntity
  8
M0
 62
     6
100
AcDbText
 10
304.691343
 20
97.591202
 40
4.8
  1
４０
 41
0.611111
  7
STANDARD
100
AcDbText
  0
TEXT
  5
111
100
AcDbEntity
  8
M0
 62
     6
100
AcDbText
 10
304.691343
 20
81.591209
 40
4.8
  1
２０
 41
0.611111
  7
STANDARD
100
AcDbText
  0
TEXT
  5
112
100
AcDbEntity
  8
M0
 62
     6
100
AcDbText
 10
307.89134
 20
65.591209
 40
4.8
  1
０
 41
0.611111
  7
STANDARD
100
AcDbText
  0
TEXT
  5
113
100
AcDbEntity
  8
M0
 62
     6
100
AcDbText
 10
311.091352
 20
59.829201
 40
4.8
  1
０
 41
0.611111
  7
STANDARD
100
AcDbText
  0
TEXT
  5
114
100
AcDbEntity
  8
M0
 62
     6
100
AcDbText
 10
343.091321
 20
59.829201
 40
4.8
  1
２０
 41
0.611111
  7
STANDARD
100
AcDbText
  0
TEXT
  5
115
100
AcDbEntity
  8
M0
 62
     6
100
AcDbText
 10
375.091354
 20
59.829201
 40
4.8
  1
４０
 41
0.611111
  7
STANDARD
100
AcDbText
  0
TEXT
  5
116
100
AcDbEntity
  8
M0
 62
     6
100
AcDbText
 10
337.47689
 20
52.506126
 40
5.376
  1
揚水量（Ｌ／分）
 41
0.611111
  7
STANDARD
100
AcDbText
  0
TEXT
  5
117
100
AcDbEntity
  8
M0
 62
     6
100
AcDbText
 10
327.091352
 20
59.829201
 40
4.8
  1
１０
 41
0.611111
  7
STANDARD
100
AcDbText
  0
TEXT
  5
118
100
AcDbEntity
  8
M0
 62
     6
100
AcDbText
 10
359.091352
 20
59.829201
 40
4.8
  1
３０
 41
0.611111
  7
STANDARD
100
AcDbText
  0
TEXT
  5
119
100
AcDbEntity
  8
M0
 62
     6
100
AcDbText
 10
304.691343
 20
129.591209
 40
4.8
  1
８０
 41
0.611111
  7
STANDARD
100
AcDbText
  0
LINE
  5
11A
100
AcDbEntity
  8
M0
 62
     6
100
AcDbLine
 10
346.211547
 20
131.871236
 11
346.211547
 21
138.321268
  0
LINE
  5
11B
100
AcDbEntity
  8
M0
 62
     6
100
AcDbLine
 10
362.211547
 20
115.871236
 11
362.211547
 21
138.321268
  0
LINE
  5
11C
100
AcDbEntity
  8
M0
 62
     6
100
AcDbLine
 10
378.211547
 20
115.871236
 11
378.211547
 21
138.321268
  0
LINE
  5
11D
100
AcDbEntity
  8
M0
 62
     6
100
AcDbLine
 10
314.211547
 20
75.871236
 11
386.211547
 21
75.871236
  0
LINE
  5
11E
100
AcDbEntity
  8
M0
 62
     6
100
AcDbLine
 10
314.211547
 20
83.871236
 11
386.211547
 21
83.871236
  0
LINE
  5
11F
100
AcDbEntity
  8
M0
 62
     6
100
AcDbLine
 10
314.211547
 20
91.871236
 11
386.211547
 21
91.871236
  0
LINE
  5
120
100
AcDbEntity
  8
M0
 62
     6
100
AcDbLine
 10
314.211547
 20
99.871236
 11
386.211547
 21
99.871236
  0
LINE
  5
121
100
AcDbEntity
  8
M0
 62
     6
100
AcDbLine
 10
314.211547
 20
107.871236
 11
386.211547
 21
107.871236
  0
LINE
  5
122
100
AcDbEntity
  8
M0
 62
     6
100
AcDbLine
 10
314.211547
 20
115.871236
 11
386.211547
 21
115.871236
  0
LINE
  5
123
100
AcDbEntity
  8
M0
 62
     6
100
AcDbLine
 10
314.211547
 20
123.871236
 11
386.211547
 21
123.871236
  0
LINE
  5
124
100
AcDbEntity
  8
M0
 62
     6
100
AcDbLine
 10
314.211547
 20
131.871236
 11
386.211547
 21
131.871236
  0
LINE
  5
125
100
AcDbEntity
  8
M0
 62
     6
100
AcDbLine
 10
314.211547
 20
67.871236
 11
386.211547
 21
67.871236
  0
LINE
  5
126
100
AcDbEntity
  8
M0
 62
     6
100
AcDbLine
 10
314.211547
 20
83.871236
 11
386.211547
 21
83.871236
  0
LINE
  5
127
100
AcDbEntity
  8
M0
 62
     6
100
AcDbLine
 10
314.211547
 20
99.871236
 11
386.211547
 21
99.871236
  0
LINE
  5
128
100
AcDbEntity
  8
M0
 62
     6
100
AcDbLine
 10
314.211547
 20
131.871236
 11
386.211547
 21
131.871236
  0
LINE
  5
129
100
AcDbEntity
  8
M0
 62
     6
100
AcDbLine
 10
314.211547
 20
115.871236
 11
386.211547
 21
115.871236
  0
TEXT
  5
12A
100
AcDbEntity
  8
M0
 62
     6
100
AcDbText
 10
308.421236
 20
147.474274
 40
4.8
  1
【深井戸用特殊ジェットＪ４０－２４ＳＸ組合わせ時】
 41
0.590278
  7
STANDARD
100
AcDbText
  0
TEXT
  5
12B
100
AcDbEntity
  8
M0
 62
     6
100
AcDbText
 10
308.421234
 20
142.374275
 40
4.8
  1
　吸上高さ２４ｍ
 41
0.590278
  7
STANDARD
100
AcDbText
  0
LINE
  5
12C
100
AcDbEntity
  8
M0
 62
     4
100
AcDbLine
 10
49.783576
 20
214.543133
 11
111.72783
 21
205.674235
  0
SPLINE
  5
12D
100
AcDbEntity
  8
M0
 62
     4
100
AcDbSpline
210
0.0
220
0.0
230
-1.0
 70
     8
 71
     3
 72
    11
 73
     7
 43
0.0000001
 40
0.0
 40
0.0
 40
0.0
 40
0.0
 40
1.0
 40
1.0
 40
1.0
 40
2.0
 40
2.0
 40
2.0
 40
2.0
 10
49.783576
 20
105.784752
 10
60.349538
 20
103.254617
 10
70.915491
 20
100.724479
 10
81.783576
 20
97.794183
 10
89.583807
 20
95.691054
 10
97.539664
 20
93.381795
 10
105.05162
 20
92.188991
  0
LINE
  5
12E
100
AcDbEntity
  8
M0
 62
     4
100
AcDbLine
 10
105.05162
 20
92.188991
 11
129.119589
 21
89.808959
  0
SPLINE
  5
12F
100
AcDbEntity
  8
M0
 62
     4
100
AcDbSpline
210
0.0
220
0.0
230
-1.0
 70
     8
 71
     3
 72
    11
 73
     7
 43
0.0000001
 40
0.0
 40
0.0
 40
0.0
 40
0.0
 40
1.0
 40
1.0
 40
1.0
 40
2.0
 40
2.0
 40
2.0
 40
2.0
 10
129.119589
 20
89.808959
 10
129.259714
 20
89.730107
 10
129.399837
 20
89.651251
 10
129.501593
 20
89.490622
 10
129.649981
 20
89.256382
 10
129.716777
 20
88.848243
 10
129.783576
 20
88.44011
  0
LINE
  5
130
100
AcDbEntity
  8
M0
 62
     4
100
AcDbLine
 10
129.783576
 20
88.44011
 11
129.783576
 21
80.559604
  0
LINE
  5
131
100
AcDbEntity
  8
M0
 62
     4
100
AcDbLine
 10
198.949755
 20
230.087657
 11
214.949755
 21
218.533087
  0
LINE
  5
132
100
AcDbEntity
  8
M0
 62
     4
100
AcDbLine
 10
214.949755
 20
218.533087
 11
230.949755
 21
211.189081
  0
LINE
  5
133
100
AcDbEntity
  8
M0
 62
     4
100
AcDbLine
 10
230.949755
 20
211.189081
 11
239.320525
 21
209.850301
  0
LINE
  5
134
100
AcDbEntity
  8
M0
 62
     4
100
AcDbLine
 10
239.320525
 20
209.850301
 11
239.320525
 21
200.515793
  0
LINE
  5
135
100
AcDbEntity
  8
M0
 62
     4
100
AcDbLine
 10
199.937581
 20
122.58104
 11
214.949755
 21
109.422389
  0
LINE
  5
136
100
AcDbEntity
  8
M0
 62
     4
100
AcDbLine
 10
214.949755
 20
109.422389
 11
217.230907
 21
107.085553
  0
LINE
  5
137
100
AcDbEntity
  8
M0
 62
     4
100
AcDbLine
 10
217.603687
 20
105.752562
 11
217.603687
 21
95.828806
  0
SPLINE
  5
138
100
AcDbEntity
  8
M0
 62
     4
100
AcDbSpline
210
0.0
220
0.0
230
-1.0
 70
     8
 71
     3
 72
     8
 73
     4
 43
0.0000001
 40
0.0
 40
0.0
 40
0.0
 40
0.0
 40
1.0
 40
1.0
 40
1.0
 40
1.0
 10
198.949755
 20
125.544504
 10
199.227068
 20
124.41373
 10
199.504379
 20
123.282952
 10
199.937581
 20
122.58104
  0
SPLINE
  5
139
100
AcDbEntity
  8
M0
 62
     4
100
AcDbSpline
210
0.0
220
0.0
230
-1.0
 70
     8
 71
     3
 72
    11
 73
     7
 43
0.0000001
 40
0.0
 40
0.0
 40
0.0
 40
0.0
 40
1.0
 40
1.0
 40
1.0
 40
2.0
 40
2.0
 40
2.0
 40
2.0
 10
217.110731
 20
107.208662
 10
217.246801
 20
107.073889
 10
217.382869
 20
106.939111
 10
217.464863
 20
106.703673
 10
217.550048
 20
106.45907
 10
217.576866
 20
106.105814
 10
217.603687
 20
105.752562
  0
LINE
  5
13A
100
AcDbEntity
  8
M0
 62
     4
100
AcDbLine
 10
314.211547
 20
110.156951
 11
317.411547
 21
107.871236
  0
LINE
  5
13B
100
AcDbEntity
  8
M0
 62
     4
100
AcDbLine
 10
330.211547
 20
93.802145
 11
330.211547
 21
87.878262
  0
LINE
  5
13C
100
AcDbEntity
  8
M0
 62
     4
100
AcDbLine
 10
317.411547
 20
107.871236
 11
327.056375
 21
101.991397
  0
LINE
  5
13D
100
AcDbEntity
  8
M0
 62
     4
100
AcDbLine
 10
328.179671
 20
100.470199
 11
330.03499
 21
95.022159
  0
SPLINE
  5
13E
100
AcDbEntity
  8
M0
 62
     4
100
AcDbSpline
210
0.0
220
0.0
230
-1.0
 70
     8
 71
     3
 72
    11
 73
     7
 43
0.0000001
 40
0.0
 40
0.0
 40
0.0
 40
0.0
 40
1.0
 40
1.0
 40
1.0
 40
2.0
 40
2.0
 40
2.0
 40
2.0
 10
327.056375
 20
101.991397
 10
327.268176
 20
101.840729
 10
327.479978
 20
101.690065
 10
327.667193
 20
101.436528
 10
327.854408
 20
101.18299
 10
328.01704
 20
100.826597
 10
328.179671
 20
100.470199
  0
SPLINE
  5
13F
100
AcDbEntity
  8
M0
 62
     4
100
AcDbSpline
210
0.0
220
0.0
230
-1.0
 70
     8
 71
     3
 72
    11
 73
     7
 43
0.0000001
 40
0.0
 40
0.0
 40
0.0
 40
0.0
 40
1.0
 40
1.0
 40
1.0
 40
2.0
 40
2.0
 40
2.0
 40
2.0
 10
330.03499
 20
95.022159
 10
330.077644
 20
94.862243
 10
330.120295
 20
94.70232
 10
330.149721
 20
94.498985
 10
330.179148
 20
94.295649
 10
330.195346
 20
94.048894
 10
330.211547
 20
93.802145
  0
SPLINE
  5
140
100
AcDbEntity
  8
M0
 62
     4
100
AcDbSpline
210
0.0
220
0.0
230
-1.0
 70
     8
 71
     3
 72
    14
 73
    10
 43
0.0000001
 40
0.0
 40
0.0
 40
0.0
 40
0.0
 40
1.0
 40
1.0
 40
1.0
 40
2.0
 40
2.0
 40
2.0
 40
3.0
 40
3.0
 40
3.0
 40
3.0
 10
111.72783
 20
205.674235
 10
113.258296
 20
205.393822
 10
114.788765
 20
205.113405
 10
116.986255
 20
204.546593
 10
120.668336
 20
203.59685
 10
126.223128
 20
201.843017
 10
129.783576
 20
200.195183
 10
130.085006
 20
200.055677
 10
130.372142
 20
199.91693
 10
130.646569
 20
199.778858
  0
SPLINE
  5
141
100
AcDbEntity
  8
M0
 62
     4
100
AcDbSpline
210
0.0
220
0.0
230
-1.0
 70
     8
 71
     3
 72
    11
 73
     7
 43
0.0000001
 40
0.0
 40
0.0
 40
0.0
 40
0.0
 40
1.0
 40
1.0
 40
1.0
 40
2.0
 40
2.0
 40
2.0
 40
2.0
 10
129.783576
 20
200.195183
 10
131.719121
 20
199.26313
 10
133.654667
 20
198.331068
 10
135.611473
 20
197.158896
 10
137.56828
 20
195.986724
 10
139.546348
 20
194.574432
 10
141.524414
 20
193.16215
  0
SPLINE
  5
142
100
AcDbEntity
  8
M0
 62
     4
100
AcDbSpline
210
0.0
220
0.0
230
-1.0
 70
     8
 71
     3
 72
    11
 73
     7
 43
0.0000001
 40
0.0
 40
0.0
 40
0.0
 40
0.0
 40
1.0
 40
1.0
 40
1.0
 40
2.0
 40
2.0
 40
2.0
 40
2.0
 10
141.503906
 20
193.176792
 10
143.195606
 20
192.053099
 10
144.664554
 20
190.907104
 10
145.783576
 20
189.810714
 10
146.961601
 20
188.656515
 10
147.751827
 20
187.557291
 10
148.542052
 20
186.458066
  0
LINE
  5
143
100
AcDbEntity
  8
M0
100
AcDbLine
 10
32.574776
 20
270.323738
 11
55.959183
 21
270.323738
  0
TEXT
  5
144
100
AcDbEntity
  8
M0
100
AcDbText
 10
35.016526
 20
272.338342
 40
5.4
  1
揚水性能
 41
0.740741
  7
STANDARD
100
AcDbText
  0
LINE
  5
145
100
AcDbEntity
  8
M0
100
AcDbLine
 10
55.959183
 20
279.855668
 11
55.959183
 21
270.323738
  0
LINE
  5
146
100
AcDbEntity
  8
M0
100
AcDbLine
 10
55.959183
 20
279.855668
 11
32.574776
 21
279.855668
  0
LINE
  5
147
100
AcDbEntity
  8
M0
100
AcDbLine
 10
32.574776
 20
279.855668
 11
32.574776
 21
270.323738
  0
ENDSEC
  0
SECTION
  2
OBJECTS
  0
DICTIONARY
  5
C
100
AcDbDictionary
  3
ACAD_GROUP
350
D
  3
ACAD_MLINESTYLE
350
E
  0
DICTIONARY
  5
D
102
{ACAD_REACTORS
330
C
102
}
100
AcDbDictionary
  0
DICTIONARY
  5
E
102
{ACAD_REACTORS
330
C
102
}
100
AcDbDictionary
  3
STANDARD
350
13
  0
MLINESTYLE
  5
13
102
{ACAD_REACTORS
330
E
102
}
100
AcDbMlineStyle
  2
STANDARD
 70
     0
  3

 62
     0
 51
90.0
 52
90.0
 71
     2
 49
0.5
 62
   256
  6
BYLAYER
 49
-0.5
 62
   256
  6
BYLAYER
  0
ENDSEC
  0
EOF
