  0
SECTION
  2
HEADER
  9
$ACADVER
  1
AC1012
  9
$INSBASE
 10
0.000000
 20
0.000000
 30
0.0
  9
$VIEWCTR
 10
7.531722
 20
4.5
  9
$VIEWSIZE
 40
9.0
  9
$SNAPMODE
 70
     0
  9
$SNAPUNIT
 10
1.0
 20
1.0
  9
$SNAPBASE
 10
0.0
 20
0.0
  9
$SNAPANG
 50
0.0
  9
$SNAPSTYLE
 70
     0
  9
$SNAPISOPAIR
 70
     0
  9
$GRIDMODE
 70
     0
  9
$GRIDUNIT
 10
0.0
 20
0.0
  9
$ORTHOMODE
 70
     0
  9
$REGENMODE
 70
     1
  9
$FILLMODE
 70
     1
  9
$QTEXTMODE
 70
     0
  9
$DRAGMODE
 70
     2
  9
$LTSCALE
  40
     1.000000
  9
$OSMODE
 70
     0
  9
$ATTMODE
 70
     1
  9
$TEXTSIZE
 40
0.2
  9
$TRACEWID
 40
0.05
  9
$TEXTSTYLE
  7
STANDARD
  9
$CELTYPE
  6
BYLAYER
  9
$CECOLOR
 62
   256
  9
$DIMSCALE
 40
1.0
  9
$DIMASZ
 40
0.18
  9
$DIMEXO
 40
0.0625
  9
$DIMDLI
 40
0.38
  9
$DIMRND
 40
0.0
  9
$DIMDLE
 40
0.0
  9
$DIMEXE
 40
0.18
  9
$DIMTP
 40
0.0
  9
$DIMTM
 40
0.0
  9
$DIMTXT
 40
0.18
  9
$DIMCEN
 40
0.09
  9
$DIMTSZ
 40
0.0
  9
$DIMTOL
 70
     0
  9
$DIMLIM
 70
     0
  9
$DIMTIH
 70
     1
  9
$DIMTOH
 70
     1
  9
$DIMSE1
 70
     0
  9
$DIMSE2
 70
     0
  9
$DIMTAD
 70
     0
  9
$DIMZIN
 70
     0
  9
$DIMBLK
  1

  9
$LUNITS
 70
     2
  9
$LUPREC
 70
     4
  9
$AXISMODE
 70
     0
  9
$AXISUNIT
 10
0.0
 20
0.0
  9
$SKETCHINC
 40
0.1
  9
$FILLETRAD
 40
0.0
  9
$AUNITS
 70
     0
  9
$AUPREC
 70
     0
  9
$MENU
  1
ACAD
  9
$ELEVATION
 40
0.0
  9
$THICKNESS
 40
0.0
  9
$VIEWDIR
 10
0.0
 20
0.0
 30
1.0
  9
$LIMCHECK
 70
     0
  9
$BLIPMODE
 70
     1
  9
$CHAMFERA
 40
0.0
  9
$CHAMFERB
 40
0.0
  9
$FASTZOOM
 70
     1
  9
$SKPOLY
 70
     0
  9
$TDCREATE
 40
0000000.0000000000
  9
$TDUPDATE
 40
0000000.0000000000
  9
$TDINDWG
 40
0.0000000000
  9
$TDUSRTIMER
 40
0.0000000000
  9
$USRTIMER
 70
     1
  9
$ANGBASE
 50
0.0
  9
$ANGDIR
 70
     0
  9
$PDMODE
 70
     0
  9
$PDSIZE
 40
0.0
  9
$PLINEWID
 40
0.0
  9
$COORDS
 70
     0
  9
$USERI1
 70
     0
  9
$USERI2
 70
     0
  9
$USERI3
 70
     0
  9
$USERI4
 70
     0
  9
$USERI5
 70
     0
  9
$USERR1
 40
0.0
  9
$USERR2
 40
0.0
  9
$USERR3
 40
0.0
  9
$USERR4
 40
0.0
  9
$USERR5
 40
0.0
  9
$CLAYER
  8
M0
  9
$EXTMIN
 10
0.0
 20
0.0
  9
$EXTMAX
 10
420.0
 20
297.0
  9
$LIMMIN
 10
0.0
 20
0.0
  9
$LIMMAX
 10
420.0
 20
297.0
  9
$HANDSEED
  5
145
  0
ENDSEC
  0
SECTION
  2
CLASSES
  0
ENDSEC
  0
SECTION
  2
TABLES
  0
TABLE
  2
VPORT
  5
8
100
AcDbSymbolTable
 70
     2
  0
VPORT
  5
14
100
AcDbSymbolTableRecord
100
AcDbViewportTableRecord
  2
*ACTIVE
 70
     0
 10
0.0
 20
0.0
 11
1.0
 21
1.0
 12
484.0
 22
297.0
 13
0.0
 23
0.0
 14
1.0
 24
1.0
 15
0.0
 25
0.0
 16
0.0
 26
0.0
 36
1.0
 17
0.0
 27
0.0
 37
0.0
 40
594.0
 41
2.0
 42
50.0
 43
0.0
 44
0.0
 50
0.0
 51
0.0
 71
     0
 72
   100
 73
     1
 74
     1
 75
     0
 76
     0
 77
     0
 78
     0
  0
ENDTAB
  0
TABLE
  2
LTYPE
  5
5
100
AcDbSymbolTable
 70
     5
  0
LTYPE
  5
15
100
AcDbSymbolTableRecord
100
AcDbLinetypeTableRecord
  2
BYBLOCK
 70
     0
  3

 72
    65
 73
     0
 40
0.0
  0
LTYPE
  5
16
100
AcDbSymbolTableRecord
100
AcDbLinetypeTableRecord
  2
BYLAYER
 70
     0
  3

 72
    65
 73
     0
 40
0.0
  0
LTYPE
  5
17
100
AcDbSymbolTableRecord
100
AcDbLinetypeTableRecord
  2
CONTINUOUS
 70
    64
  3
Solid line
 72
    65
 73
     0
 40
0.0
  0
LTYPE
  5
18
100
AcDbSymbolTableRecord
100
AcDbLinetypeTableRecord
  2
DASHED
 70
    64
  3
__ __ __ __ __ __ __ __ __ __ __ __ __ __ __ __
 72
    65
 73
     2
 40
0.75
 49
0.5
 74
     0
 49
-0.25
 74
     0
  0
LTYPE
  5
19
100
AcDbSymbolTableRecord
100
AcDbLinetypeTableRecord
  2
DASHDOT
 70
    64
  3
__ . __ . __ . __ . __ . __ . __ . __ . __ . __
 72
    65
 73
     4
 40
1.0
 49
0.5
 74
     0
 49
-0.25
 74
     0
 49
0.0
 74
     0
 49
-0.25
 74
     0
  0
LTYPE
  5
1A
100
AcDbSymbolTableRecord
100
AcDbLinetypeTableRecord
  2
DIVIDE
 70
    64
  3
____ . . ____ . . ____ . . ____ . . ____ . . __
 72
    65
 73
     6
 40
1.25
 49
0.5
 74
     0
 49
-0.25
 74
     0
 49
0.0
 74
     0
 49
-0.25
 74
     0
 49
0.0
 74
     0
 49
-0.25
 74
     0
  0
LTYPE
  5
1B
100
AcDbSymbolTableRecord
100
AcDbLinetypeTableRecord
  2
DOT
 70
    64
  3
. . . . . . . . . . . . . . . . . . . . . . . .
 72
    65
 73
     2
 40
0.25
 49
0.0
 74
     0
 49
-0.25
 74
     0
  0
ENDTAB
  0
TABLE
  2
LAYER
  5
2
100
AcDbSymbolTable
 70
   102
  0
LAYER
  5
F
100
AcDbSymbolTableRecord
100
AcDbLayerTableRecord
  2
0
 70
     0
 62
     7
  6
CONTINUOUS
  0
LAYER
  5
1C
100
AcDbSymbolTableRecord
100
AcDbLayerTableRecord
  2
DEFPOINTS
 70
     0
 62
     7
  6
CONTINUOUS
  0
LAYER
  5
1D
100
AcDbSymbolTableRecord
100
AcDbLayerTableRecord
  2
M0
 70
     0
 62
     3
  6
CONTINUOUS
  0
LAYER
  5
1E
100
AcDbSymbolTableRecord
100
AcDbLayerTableRecord
  2
DD0
 70
     0
 62
     4
  6
CONTINUOUS
  0
ENDTAB
  0
TABLE
  2
STYLE
  5
3
100
AcDbSymbolTable
 70
     2
  0
STYLE
  5
10
100
AcDbSymbolTableRecord
100
AcDbTextStyleTableRecord
  2
STANDARD
 70
     0
 40
0.0
 41
1.0
 50
0.0
 71
     0
 42
0.2
  3
txt
  4
BIGFONT
  0
ENDTAB
  0
TABLE
  2
VIEW
  5
6
100
AcDbSymbolTable
 70
     0
  0
ENDTAB
  0
TABLE
  2
UCS
  5
7
100
AcDbSymbolTable
 70
     0
  0
ENDTAB
  0
TABLE
  2
APPID
  5
9
100
AcDbSymbolTable
 70
     1
  0
APPID
  5
11
100
AcDbSymbolTableRecord
100
AcDbRegAppTableRecord
  2
ACAD
 70
     0
  0
ENDTAB
  0
TABLE
  2
DIMSTYLE
  5
A
100
AcDbSymbolTable
 70
     2
  0
DIMSTYLE
105
25
100
AcDbSymbolTableRecord
100
AcDbDimStyleTableRecord
  2
STANDARD
 70
     0
  3

  4

  5

  6
_OPEN
  7
_OPEN
 40
1.0
 41
3.0
 42
0.0
 43
8.0
 44
1.5
 45
0.0
 46
0.0
 47
0.0
 48
0.0
140
3.5
141
0.09
142
0.0
143
0.03937
144
1.0
145
0.0
146
1.0
147
1.0
 71
     0
 72
     0
 73
     1
 74
     1
 75
     0
 76
     0
 77
     3
 78
     8
170
     0
171
     2
172
     0
173
     1
174
     0
175
     0
176
     0
177
     0
178
     0
270
     2
271
     2
272
     4
273
     2
274
     2
340
10
275
     0
280
     0
281
     0
282
     0
283
     1
284
     0
285
     0
286
     0
287
     3
288
     0
  0
DIMSTYLE
105
26
100
AcDbSymbolTableRecord
100
AcDbDimStyleTableRecord
  2
LEADSTYL
 70
     0
  3

  4

  5

  6
_OPEN
  7
_OPEN
 40
1.0
 41
3.0
 42
0.0625
 43
0.38
 44
0.18
 45
0.0
 46
0.0
 47
0.0
 48
0.0
140
3.2
141
0.09
142
0.0
143
25.4
144
1.0
145
0.0
146
1.0
147
1.0
 71
     0
 72
     0
 73
     1
 74
     1
 75
     0
 76
     0
 77
     0
 78
     0
170
     0
171
     2
172
     0
173
     1
174
     0
175
     0
176
     0
177
     0
178
     0
270
     2
271
     4
272
     4
273
     2
274
     2
340
10
275
     0
280
     0
281
     0
282
     0
283
     1
284
     0
285
     0
286
     0
287
     3
288
     0
  0
ENDTAB
  0
TABLE
  2
BLOCK_RECORD
  5
1
100
AcDbSymbolTable
 70
     8
  0
BLOCK_RECORD
  5
1F
100
AcDbSymbolTableRecord
100
AcDbBlockTableRecord
  2
*MODEL_SPACE
  0
BLOCK_RECORD
  5
22
100
AcDbSymbolTableRecord
100
AcDbBlockTableRecord
  2
*PAPER_SPACE
  0
BLOCK_RECORD
  5
27
100
AcDbSymbolTableRecord
100
AcDbBlockTableRecord
  2
_NONE
  0
BLOCK_RECORD
  5
2B
100
AcDbSymbolTableRecord
100
AcDbBlockTableRecord
  2
_OPEN
  0
BLOCK_RECORD
  5
31
100
AcDbSymbolTableRecord
100
AcDbBlockTableRecord
  2
_CLOSED
  0
BLOCK_RECORD
  5
38
100
AcDbSymbolTableRecord
100
AcDbBlockTableRecord
  2
_ORIGIN
  0
BLOCK_RECORD
  5
3D
100
AcDbSymbolTableRecord
100
AcDbBlockTableRecord
  2
_DOT
  0
BLOCK_RECORD
  5
45
100
AcDbSymbolTableRecord
100
AcDbBlockTableRecord
  2
_OBLIQUE
  0
BLOCK_RECORD
  5
49
100
AcDbSymbolTableRecord
100
AcDbBlockTableRecord
  2
DIMS0
  0
BLOCK_RECORD
  5
51
100
AcDbSymbolTableRecord
100
AcDbBlockTableRecord
  2
DIMS1
  0
ENDTAB
  0
ENDSEC
  0
SECTION
  2
BLOCKS
  0
BLOCK
  5
20
100
AcDbEntity
  8
0
100
AcDbBlockBegin
  2
*MODEL_SPACE
 70
     0
 10
0.0
 20
0.0
 30
0.0
  3
*MODEL_SPACE
  1

  0
ENDBLK
  5
21
100
AcDbEntity
  8
0
100
AcDbBlockEnd
  0
BLOCK
  5
23
100
AcDbEntity
 67
     1
  8
0
100
AcDbBlockBegin
  2
*PAPER_SPACE
 70
     0
 10
0.0
 20
0.0
 30
0.0
  3
*PAPER_SPACE
  1

  0
ENDBLK
  5
24
100
AcDbEntity
 67
     1
  8
0
100
AcDbBlockEnd
  0
BLOCK
  5
28
100
AcDbEntity
  8
0
100
AcDbBlockBegin
  2
_NONE
 70
     0
 10
0.0
 20
0.0
  0
CIRCLE
  5
29
100
AcDbEntity
  8
0
 62
     0
100
AcDbCircle
 10
0.0
 20
0.0
 40
0.25
  0
ENDBLK
  5
2A
100
AcDbEntity
  8
0
100
AcDbBlockEnd
  0
BLOCK
  5
2C
100
AcDbEntity
  8
0
100
AcDbBlockBegin
  2
_OPEN
 70
     0
 10
0.0
 20
0.0
  0
LINE
  5
2D
100
AcDbEntity
  8
0
 62
     0
100
AcDbLine
 10
-0.965926
 20
0.258819
 11
0.0
 21
0.0
  0
LINE
  5
2E
100
AcDbEntity
  8
0
 62
     0
100
AcDbLine
 10
0.0
 20
0.0
 11
-0.965926
 21
-0.258819
  0
LINE
  5
2F
100
AcDbEntity
  8
0
 62
     0
100
AcDbLine
 10
0.0
 20
0.0
 11
-1.0
 21
0.0
  0
ENDBLK
  5
30
100
AcDbEntity
  8
0
100
AcDbBlockEnd
  0
BLOCK
  5
32
100
AcDbEntity
  8
0
100
AcDbBlockBegin
  2
_CLOSED
 70
     0
 10
0.0
 20
0.0
  0
LINE
  5
33
100
AcDbEntity
  8
0
 62
     0
100
AcDbLine
 10
-0.965926
 20
0.258819
 11
0.0
 21
0.0
  0
LINE
  5
34
100
AcDbEntity
  8
0
 62
     0
100
AcDbLine
 10
0.0
 20
0.0
 11
-0.965926
 21
-0.258819
  0
LINE
  5
35
100
AcDbEntity
  8
0
 62
     0
100
AcDbLine
 10
-0.965926
 20
0.258819
 11
-0.965926
 21
-0.258819
  0
LINE
  5
36
100
AcDbEntity
  8
0
 62
     0
100
AcDbLine
 10
0.0
 20
0.0
 11
-1.0
 21
0.0
  0
ENDBLK
  5
37
100
AcDbEntity
  8
0
100
AcDbBlockEnd
  0
BLOCK
  5
39
100
AcDbEntity
  8
0
100
AcDbBlockBegin
  2
_ORIGIN
 70
     0
 10
0.0
 20
0.0
  0
CIRCLE
  5
3A
100
AcDbEntity
  8
0
 62
     0
100
AcDbCircle
 10
0.0
 20
0.0
 40
0.5
  0
LINE
  5
3B
100
AcDbEntity
  8
0
 62
     0
100
AcDbLine
 10
0.0
 20
0.0
 11
-1.0
 21
0.0
  0
ENDBLK
  5
3C
100
AcDbEntity
  8
0
100
AcDbBlockEnd
  0
BLOCK
  5
3E
100
AcDbEntity
  8
0
100
AcDbBlockBegin
  2
_DOT
 70
     0
 10
0.0
 20
0.0
  0
POLYLINE
  5
3F
100
AcDbEntity
  8
0
 62
     0
100
AcDb2dPolyline
 66
     1
 70
     1
 40
0.5
 41
0.5
  0
VERTEX
  5
40
100
AcDbEntity
  8
0
 62
     0
100
AcDbVertex
100
AcDb2dVertex
 10
-0.25
 20
0.0
 42
1.0
  0
VERTEX
  5
41
100
AcDbEntity
  8
0
 62
     0
100
AcDbVertex
100
AcDb2dVertex
 10
0.25
 20
0.0
 42
1.0
  0
SEQEND
  5
42
100
AcDbEntity
  8
0
 62
     0
  0
LINE
  5
43
100
AcDbEntity
  8
0
 62
     0
100
AcDbLine
 10
-0.5
 20
0.0
 11
-1.0
 21
0.0
  0
ENDBLK
  5
44
100
AcDbEntity
  8
0
100
AcDbBlockEnd
  0
BLOCK
  5
46
100
AcDbEntity
  8
0
100
AcDbBlockBegin
  2
_OBLIQUE
 70
     0
 10
0.0
 20
0.0
  0
LINE
  5
47
100
AcDbEntity
  8
0
 62
     0
100
AcDbLine
 10
-0.353553
 20
-0.353553
 11
0.353553
 21
0.353553
  0
ENDBLK
  5
48
100
AcDbEntity
  8
0
100
AcDbBlockEnd
  0
BLOCK
  5
4A
100
AcDbEntity
  8
DD0
100
AcDbBlockBegin
  2
DIMS0
 70
     0
 10
0.0
 20
0.0
  0
LINE
  5
4B
100
AcDbEntity
  8
DD0
100
AcDbLine
 10
125.774826
 20
153.527283
 11
127.774826
 21
157.527283
  0
LINE
  5
4C
100
AcDbEntity
  8
DD0
100
AcDbLine
 10
127.774826
 20
157.527283
 11
129.774826
 21
153.527283
  0
LINE
  5
4D
100
AcDbEntity
  8
DD0
100
AcDbLine
 10
129.774826
 20
153.527283
 11
125.774826
 21
153.527283
  0
TEXT
  5
4E
100
AcDbEntity
  8
DD0
100
AcDbText
 10
127.058159
 20
153.847284
 40
1.8
  1
Ａ
 41
0.796296
  7
STANDARD
100
AcDbText
  0
ENDBLK
  5
4F
100
AcDbEntity
  8
DD0
100
AcDbBlockEnd
  0
BLOCK
  5
52
100
AcDbEntity
  8
DD0
100
AcDbBlockBegin
  2
DIMS1
 70
     0
 10
0.0
 20
0.0
  0
LINE
  5
53
100
AcDbEntity
  8
DD0
100
AcDbLine
 10
124.904419
 20
271.031372
 11
126.904419
 21
275.031372
  0
LINE
  5
54
100
AcDbEntity
  8
DD0
100
AcDbLine
 10
126.904419
 20
275.031372
 11
128.904419
 21
271.031372
  0
LINE
  5
55
100
AcDbEntity
  8
DD0
100
AcDbLine
 10
128.904419
 20
271.031372
 11
124.904419
 21
271.031372
  0
TEXT
  5
56
100
AcDbEntity
  8
DD0
100
AcDbText
 10
126.187752
 20
271.351373
 40
1.8
  1
Ａ
 41
0.796296
  7
STANDARD
100
AcDbText
  0
ENDBLK
  5
57
100
AcDbEntity
  8
DD0
100
AcDbBlockEnd
  0
ENDSEC
  0
SECTION
  2
ENTITIES
  0
INSERT
  5
50
100
AcDbEntity
  8
DD0
100
AcDbBlockReference
  2
DIMS0
 10
0.0
 20
0.0
  0
INSERT
  5
58
100
AcDbEntity
  8
DD0
100
AcDbBlockReference
  2
DIMS1
 10
0.0
 20
0.0
  0
LINE
  5
59
100
AcDbEntity
  8
M0
100
AcDbLine
 10
199.298619
 20
181.24432
 11
271.298619
 21
181.24432
  0
LINE
  5
5A
100
AcDbEntity
  8
M0
100
AcDbLine
 10
199.298619
 20
253.542755
 11
199.298619
 21
181.24432
  0
LINE
  5
5B
100
AcDbEntity
  8
M0
100
AcDbLine
 10
231.298619
 20
181.24432
 11
231.298619
 21
229.24432
  0
LINE
  5
5C
100
AcDbEntity
  8
M0
100
AcDbLine
 10
263.298619
 20
181.24432
 11
263.298619
 21
253.900044
  0
LINE
  5
5D
100
AcDbEntity
  8
M0
100
AcDbLine
 10
231.298619
 20
229.24432
 11
231.298619
 21
253.542755
  0
LINE
  5
5E
100
AcDbEntity
  8
M0
100
AcDbLine
 10
215.298619
 20
181.24432
 11
215.298619
 21
253.542755
  0
LINE
  5
5F
100
AcDbEntity
  8
M0
100
AcDbLine
 10
247.298619
 20
181.24432
 11
247.298619
 21
253.900044
  0
LINE
  5
60
100
AcDbEntity
  8
M0
100
AcDbLine
 10
199.298619
 20
245.24432
 11
263.298619
 21
245.24432
  0
ARC
  5
61
100
AcDbEntity
  8
M0
100
AcDbCircle
 10
183.646678
 20
211.444028
 40
5.376
100
AcDbArc
 50
52.58592
 51
127.41408
  0
ARC
  5
62
100
AcDbEntity
  8
M0
100
AcDbCircle
 10
183.646678
 20
214.817998
 40
5.376
100
AcDbArc
 50
232.58592
 51
307.41408
  0
TEXT
  5
63
100
AcDbEntity
  8
M0
100
AcDbText
 10
181.406672
 20
227.512291
 40
3.584
  1
全
 41
1.25
  7
STANDARD
100
AcDbText
  0
TEXT
  5
64
100
AcDbEntity
  8
M0
100
AcDbText
 10
181.406672
 20
223.569891
 40
3.584
  1
揚
 41
1.25
  7
STANDARD
100
AcDbText
  0
TEXT
  5
65
100
AcDbEntity
  8
M0
100
AcDbText
 10
181.406672
 20
219.627491
 40
3.584
  1
程
 41
1.25
  7
STANDARD
100
AcDbText
  0
TEXT
  5
66
100
AcDbEntity
  8
M0
100
AcDbText
 10
181.406672
 20
215.685091
 40
3.584
  1
　
 41
1.25
  7
STANDARD
100
AcDbText
  0
TEXT
  5
67
100
AcDbEntity
  8
M0
100
AcDbText
 10
181.406672
 20
211.742692
 40
3.584
  1
ｍ
 41
1.25
  7
STANDARD
100
AcDbText
  0
TEXT
  5
68
100
AcDbEntity
  8
M0
100
AcDbText
 10
189.778418
 20
226.964287
 40
4.8
  1
６０
 41
0.611111
  7
STANDARD
100
AcDbText
  0
TEXT
  5
69
100
AcDbEntity
  8
M0
100
AcDbText
 10
189.778418
 20
210.964291
 40
4.8
  1
４０
 41
0.611111
  7
STANDARD
100
AcDbText
  0
TEXT
  5
6A
100
AcDbEntity
  8
M0
100
AcDbText
 10
189.778418
 20
194.964287
 40
4.8
  1
２０
 41
0.611111
  7
STANDARD
100
AcDbText
  0
TEXT
  5
6B
100
AcDbEntity
  8
M0
100
AcDbText
 10
192.978415
 20
178.964288
 40
4.8
  1
０
 41
0.611111
  7
STANDARD
100
AcDbText
  0
TEXT
  5
6C
100
AcDbEntity
  8
M0
100
AcDbText
 10
196.178412
 20
173.202279
 40
4.8
  1
０
 41
0.611111
  7
STANDARD
100
AcDbText
  0
TEXT
  5
6D
100
AcDbEntity
  8
M0
100
AcDbText
 10
228.178412
 20
173.202279
 40
4.8
  1
２０
 41
0.611111
  7
STANDARD
100
AcDbText
  0
TEXT
  5
6E
100
AcDbEntity
  8
M0
100
AcDbText
 10
260.178428
 20
173.202279
 40
4.8
  1
４０
 41
0.611111
  7
STANDARD
100
AcDbText
  0
TEXT
  5
6F
100
AcDbEntity
  8
M0
100
AcDbText
 10
224.061577
 20
166.949583
 40
5.376
  1
揚水量（Ｌ／分）
 41
0.611111
  7
STANDARD
100
AcDbText
  0
TEXT
  5
70
100
AcDbEntity
  8
M0
100
AcDbText
 10
212.178412
 20
173.202279
 40
4.8
  1
１０
 41
0.611111
  7
STANDARD
100
AcDbText
  0
TEXT
  5
71
100
AcDbEntity
  8
M0
100
AcDbText
 10
244.178428
 20
173.202279
 40
4.8
  1
３０
 41
0.611111
  7
STANDARD
100
AcDbText
  0
TEXT
  5
72
100
AcDbEntity
  8
M0
100
AcDbText
 10
189.778418
 20
242.964291
 40
4.8
  1
８０
 41
0.611111
  7
STANDARD
100
AcDbText
  0
LINE
  5
73
100
AcDbEntity
  8
M0
100
AcDbLine
 10
247.298619
 20
250.753115
 11
247.298619
 21
253.542755
  0
TEXT
  5
74
100
AcDbEntity
  8
M0
100
AcDbText
 10
193.645099
 20
265.892323
 40
4.8
  1
【深井戸ジェットＪ７５－２４Ｘ組合わせ時】
 41
0.590278
  7
STANDARD
100
AcDbText
  0
TEXT
  5
75
100
AcDbEntity
  8
M0
100
AcDbText
 10
193.645099
 20
260.792324
 40
4.8
  1
　吸上高さ１８ｍ
 41
0.590278
  7
STANDARD
100
AcDbText
  0
LINE
  5
76
100
AcDbEntity
  8
M0
100
AcDbLine
 10
199.298619
 20
189.24432
 11
271.298619
 21
189.24432
  0
LINE
  5
77
100
AcDbEntity
  8
M0
100
AcDbLine
 10
199.298619
 20
197.24432
 11
271.298619
 21
197.24432
  0
LINE
  5
78
100
AcDbEntity
  8
M0
100
AcDbLine
 10
199.298619
 20
205.24432
 11
271.298619
 21
205.24432
  0
LINE
  5
79
100
AcDbEntity
  8
M0
100
AcDbLine
 10
199.298619
 20
213.24432
 11
271.298619
 21
213.24432
  0
LINE
  5
7A
100
AcDbEntity
  8
M0
100
AcDbLine
 10
199.298619
 20
221.24432
 11
271.298619
 21
221.24432
  0
LINE
  5
7B
100
AcDbEntity
  8
M0
100
AcDbLine
 10
199.298619
 20
229.24432
 11
271.298619
 21
229.24432
  0
LINE
  5
7C
100
AcDbEntity
  8
M0
100
AcDbLine
 10
199.298619
 20
237.24432
 11
271.298619
 21
237.24432
  0
LINE
  5
7D
100
AcDbEntity
  8
M0
100
AcDbLine
 10
199.298619
 20
245.24432
 11
271.298619
 21
245.24432
  0
LINE
  5
7E
100
AcDbEntity
  8
M0
100
AcDbLine
 10
199.298619
 20
197.24432
 11
271.298619
 21
197.24432
  0
LINE
  5
7F
100
AcDbEntity
  8
M0
100
AcDbLine
 10
199.298619
 20
213.24432
 11
271.298619
 21
213.24432
  0
LINE
  5
80
100
AcDbEntity
  8
M0
100
AcDbLine
 10
199.298619
 20
229.24432
 11
271.298619
 21
229.24432
  0
LINE
  5
81
100
AcDbEntity
  8
M0
100
AcDbLine
 10
263.298619
 20
245.24432
 11
271.298619
 21
245.24432
  0
LINE
  5
82
100
AcDbEntity
  8
M0
 62
     6
100
AcDbLine
 10
314.560411
 20
139.018995
 11
314.560411
 21
68.568964
  0
LINE
  5
83
100
AcDbEntity
  8
M0
 62
     6
100
AcDbLine
 10
346.560411
 20
68.568964
 11
346.560411
 21
116.568964
  0
LINE
  5
84
100
AcDbEntity
  8
M0
 62
     6
100
AcDbLine
 10
378.560411
 20
68.568964
 11
378.560411
 21
116.568964
  0
LINE
  5
85
100
AcDbEntity
  8
M0
 62
     6
100
AcDbLine
 10
346.560411
 20
116.568964
 11
346.560411
 21
139.083281
  0
LINE
  5
86
100
AcDbEntity
  8
M0
 62
     6
100
AcDbLine
 10
330.560411
 20
68.568964
 11
330.560411
 21
139.018995
  0
LINE
  5
87
100
AcDbEntity
  8
M0
 62
     6
100
AcDbLine
 10
362.560411
 20
68.568964
 11
362.560411
 21
116.568964
  0
ARC
  5
88
100
AcDbEntity
  8
M0
 62
     6
100
AcDbCircle
 10
299.004587
 20
96.847462
 40
5.376
100
AcDbArc
 50
52.58592
 51
127.41408
  0
ARC
  5
89
100
AcDbEntity
  8
M0
 62
     6
100
AcDbCircle
 10
299.004587
 20
100.221433
 40
5.376
100
AcDbArc
 50
232.58592
 51
307.41408
  0
TEXT
  5
8A
100
AcDbEntity
  8
M0
 62
     6
100
AcDbText
 10
296.76459
 20
112.91573
 40
3.584
  1
全
 41
1.25
  7
STANDARD
100
AcDbText
  0
TEXT
  5
8B
100
AcDbEntity
  8
M0
 62
     6
100
AcDbText
 10
296.76459
 20
108.97333
 40
3.584
  1
揚
 41
1.25
  7
STANDARD
100
AcDbText
  0
TEXT
  5
8C
100
AcDbEntity
  8
M0
 62
     6
100
AcDbText
 10
296.76459
 20
105.030931
 40
3.584
  1
程
 41
1.25
  7
STANDARD
100
AcDbText
  0
TEXT
  5
8D
100
AcDbEntity
  8
M0
 62
     6
100
AcDbText
 10
296.76459
 20
101.088531
 40
3.584
  1
　
 41
1.25
  7
STANDARD
100
AcDbText
  0
TEXT
  5
8E
100
AcDbEntity
  8
M0
 62
     6
100
AcDbText
 10
296.76459
 20
97.146131
 40
3.584
  1
ｍ
 41
1.25
  7
STANDARD
100
AcDbText
  0
TEXT
  5
8F
100
AcDbEntity
  8
M0
 62
     6
100
AcDbText
 10
305.040206
 20
114.28893
 40
4.8
  1
６０
 41
0.611111
  7
STANDARD
100
AcDbText
  0
TEXT
  5
90
100
AcDbEntity
  8
M0
 62
     6
100
AcDbText
 10
305.040206
 20
98.28893
 40
4.8
  1
４０
 41
0.611111
  7
STANDARD
100
AcDbText
  0
TEXT
  5
91
100
AcDbEntity
  8
M0
 62
     6
100
AcDbText
 10
305.040206
 20
82.288938
 40
4.8
  1
２０
 41
0.611111
  7
STANDARD
100
AcDbText
  0
TEXT
  5
92
100
AcDbEntity
  8
M0
 62
     6
100
AcDbText
 10
308.240203
 20
66.28893
 40
4.8
  1
０
 41
0.611111
  7
STANDARD
100
AcDbText
  0
TEXT
  5
93
100
AcDbEntity
  8
M0
 62
     6
100
AcDbText
 10
311.440215
 20
60.526921
 40
4.8
  1
０
 41
0.611111
  7
STANDARD
100
AcDbText
  0
TEXT
  5
94
100
AcDbEntity
  8
M0
 62
     6
100
AcDbText
 10
343.440185
 20
60.526921
 40
4.8
  1
２０
 41
0.611111
  7
STANDARD
100
AcDbText
  0
TEXT
  5
95
100
AcDbEntity
  8
M0
 62
     6
100
AcDbText
 10
375.440217
 20
60.526921
 40
4.8
  1
４０
 41
0.611111
  7
STANDARD
100
AcDbText
  0
TEXT
  5
96
100
AcDbEntity
  8
M0
 62
     6
100
AcDbText
 10
337.825754
 20
53.203855
 40
5.376
  1
揚水量（Ｌ／分）
 41
0.611111
  7
STANDARD
100
AcDbText
  0
TEXT
  5
97
100
AcDbEntity
  8
M0
 62
     6
100
AcDbText
 10
327.440216
 20
60.526921
 40
4.8
  1
１０
 41
0.611111
  7
STANDARD
100
AcDbText
  0
TEXT
  5
98
100
AcDbEntity
  8
M0
 62
     6
100
AcDbText
 10
359.440215
 20
60.526921
 40
4.8
  1
３０
 41
0.611111
  7
STANDARD
100
AcDbText
  0
TEXT
  5
99
100
AcDbEntity
  8
M0
 62
     6
100
AcDbText
 10
305.040206
 20
130.288934
 40
4.8
  1
８０
 41
0.611111
  7
STANDARD
100
AcDbText
  0
LINE
  5
9A
100
AcDbEntity
  8
M0
 62
     6
100
AcDbLine
 10
346.560411
 20
132.568964
 11
346.560411
 21
139.018995
  0
LINE
  5
9B
100
AcDbEntity
  8
M0
 62
     6
100
AcDbLine
 10
362.560411
 20
116.568964
 11
362.560411
 21
139.018995
  0
LINE
  5
9C
100
AcDbEntity
  8
M0
 62
     6
100
AcDbLine
 10
378.560411
 20
116.568964
 11
378.560411
 21
139.018995
  0
LINE
  5
9D
100
AcDbEntity
  8
M0
 62
     6
100
AcDbLine
 10
314.560411
 20
76.568964
 11
386.560411
 21
76.568964
  0
LINE
  5
9E
100
AcDbEntity
  8
M0
 62
     6
100
AcDbLine
 10
314.560411
 20
84.568964
 11
386.560411
 21
84.568964
  0
LINE
  5
9F
100
AcDbEntity
  8
M0
 62
     6
100
AcDbLine
 10
314.560411
 20
92.568964
 11
386.560411
 21
92.568964
  0
LINE
  5
A0
100
AcDbEntity
  8
M0
 62
     6
100
AcDbLine
 10
314.560411
 20
100.568964
 11
386.560411
 21
100.568964
  0
LINE
  5
A1
100
AcDbEntity
  8
M0
 62
     6
100
AcDbLine
 10
314.560411
 20
108.568964
 11
386.560411
 21
108.568964
  0
LINE
  5
A2
100
AcDbEntity
  8
M0
 62
     6
100
AcDbLine
 10
314.560411
 20
116.568964
 11
386.560411
 21
116.568964
  0
LINE
  5
A3
100
AcDbEntity
  8
M0
 62
     6
100
AcDbLine
 10
314.560411
 20
124.568964
 11
386.560411
 21
124.568964
  0
LINE
  5
A4
100
AcDbEntity
  8
M0
 62
     6
100
AcDbLine
 10
314.560411
 20
132.568964
 11
386.560411
 21
132.568964
  0
LINE
  5
A5
100
AcDbEntity
  8
M0
 62
     6
100
AcDbLine
 10
314.560411
 20
68.568964
 11
386.560411
 21
68.568964
  0
LINE
  5
A6
100
AcDbEntity
  8
M0
 62
     6
100
AcDbLine
 10
314.560411
 20
84.568964
 11
386.560411
 21
84.568964
  0
LINE
  5
A7
100
AcDbEntity
  8
M0
 62
     6
100
AcDbLine
 10
314.560411
 20
100.568964
 11
386.560411
 21
100.568964
  0
LINE
  5
A8
100
AcDbEntity
  8
M0
 62
     6
100
AcDbLine
 10
314.560411
 20
132.568964
 11
386.560411
 21
132.568964
  0
LINE
  5
A9
100
AcDbEntity
  8
M0
 62
     6
100
AcDbLine
 10
314.560411
 20
116.568964
 11
386.560411
 21
116.568964
  0
TEXT
  5
AA
100
AcDbEntity
  8
M0
 62
     6
100
AcDbText
 10
308.7701
 20
148.171998
 40
4.8
  1
【深井戸用特殊ジェットＪ４０－２４ＳＸ組合わせ時】
 41
0.590278
  7
STANDARD
100
AcDbText
  0
TEXT
  5
AB
100
AcDbEntity
  8
M0
 62
     6
100
AcDbText
 10
308.770098
 20
143.072
 40
4.8
  1
　吸上高さ２４ｍ
 41
0.590278
  7
STANDARD
100
AcDbText
  0
LINE
  5
AC
100
AcDbEntity
  8
M0
 62
     2
100
AcDbLine
 10
50.13244
 20
68.568964
 11
161.13244
 21
68.568964
  0
LINE
  5
AD
100
AcDbEntity
  8
M0
 62
     2
100
AcDbLine
 10
50.13244
 20
138.86964
 11
50.13244
 21
68.568964
  0
LINE
  5
AE
100
AcDbEntity
  8
M0
 62
     2
100
AcDbLine
 10
82.13244
 20
68.568964
 11
82.13244
 21
116.568964
  0
LINE
  5
AF
100
AcDbEntity
  8
M0
 62
     2
100
AcDbLine
 10
114.13244
 20
68.568964
 11
114.13244
 21
138.148594
  0
LINE
  5
B0
100
AcDbEntity
  8
M0
 62
     2
100
AcDbLine
 10
146.13244
 20
68.568964
 11
146.13244
 21
139.018995
  0
LINE
  5
B1
100
AcDbEntity
  8
M0
 62
     2
100
AcDbLine
 10
82.13244
 20
116.568964
 11
82.13244
 21
138.86964
  0
LINE
  5
B2
100
AcDbEntity
  8
M0
 62
     2
100
AcDbLine
 10
66.13244
 20
68.568964
 11
66.13244
 21
138.86964
  0
LINE
  5
B3
100
AcDbEntity
  8
M0
 62
     2
100
AcDbLine
 10
98.13244
 20
68.568964
 11
98.13244
 21
138.86964
  0
LINE
  5
B4
100
AcDbEntity
  8
M0
 62
     2
100
AcDbLine
 10
130.13244
 20
68.568964
 11
130.13244
 21
138.86964
  0
LINE
  5
B5
100
AcDbEntity
  8
M0
 62
     2
100
AcDbLine
 10
50.13244
 20
132.568964
 11
130.13244
 21
132.568964
  0
ARC
  5
B6
100
AcDbEntity
  8
M0
 62
     2
100
AcDbCircle
 10
33.469017
 20
102.212509
 40
5.376
100
AcDbArc
 50
52.58592
 51
127.41408
  0
ARC
  5
B7
100
AcDbEntity
  8
M0
 62
     2
100
AcDbCircle
 10
33.469017
 20
105.58648
 40
5.376
100
AcDbArc
 50
232.58592
 51
307.41408
  0
TEXT
  5
B8
100
AcDbEntity
  8
M0
 62
     2
100
AcDbText
 10
31.229003
 20
118.280782
 40
3.584
  1
全
 41
1.25
  7
STANDARD
100
AcDbText
  0
TEXT
  5
B9
100
AcDbEntity
  8
M0
 62
     2
100
AcDbText
 10
31.229003
 20
114.338382
 40
3.584
  1
揚
 41
1.25
  7
STANDARD
100
AcDbText
  0
TEXT
  5
BA
100
AcDbEntity
  8
M0
 62
     2
100
AcDbText
 10
31.229003
 20
110.395982
 40
3.584
  1
程
 41
1.25
  7
STANDARD
100
AcDbText
  0
TEXT
  5
BB
100
AcDbEntity
  8
M0
 62
     2
100
AcDbText
 10
31.229003
 20
106.453582
 40
3.584
  1
　
 41
1.25
  7
STANDARD
100
AcDbText
  0
TEXT
  5
BC
100
AcDbEntity
  8
M0
 62
     2
100
AcDbText
 10
31.229003
 20
102.511183
 40
3.584
  1
ｍ
 41
1.25
  7
STANDARD
100
AcDbText
  0
TEXT
  5
BD
100
AcDbEntity
  8
M0
 62
     2
100
AcDbText
 10
40.612239
 20
114.288934
 40
4.8
  1
６０
 41
0.611111
  7
STANDARD
100
AcDbText
  0
TEXT
  5
BE
100
AcDbEntity
  8
M0
 62
     2
100
AcDbText
 10
40.612239
 20
98.288932
 40
4.8
  1
４０
 41
0.611111
  7
STANDARD
100
AcDbText
  0
TEXT
  5
BF
100
AcDbEntity
  8
M0
 62
     2
100
AcDbText
 10
40.612239
 20
82.288932
 40
4.8
  1
２０
 41
0.611111
  7
STANDARD
100
AcDbText
  0
TEXT
  5
C0
100
AcDbEntity
  8
M0
 62
     2
100
AcDbText
 10
43.812236
 20
66.288932
 40
4.8
  1
０
 41
0.611111
  7
STANDARD
100
AcDbText
  0
TEXT
  5
C1
100
AcDbEntity
  8
M0
 62
     2
100
AcDbText
 10
47.012233
 20
60.526924
 40
4.8
  1
０
 41
0.611111
  7
STANDARD
100
AcDbText
  0
TEXT
  5
C2
100
AcDbEntity
  8
M0
 62
     2
100
AcDbText
 10
79.012233
 20
60.526924
 40
4.8
  1
２０
 41
0.611111
  7
STANDARD
100
AcDbText
  0
TEXT
  5
C3
100
AcDbEntity
  8
M0
 62
     2
100
AcDbText
 10
111.012241
 20
60.526924
 40
4.8
  1
４０
 41
0.611111
  7
STANDARD
100
AcDbText
  0
TEXT
  5
C4
100
AcDbEntity
  8
M0
 62
     2
100
AcDbText
 10
89.762097
 20
53.203855
 40
5.376
  1
揚水量（Ｌ／分）
 41
0.611111
  7
STANDARD
100
AcDbText
  0
TEXT
  5
C5
100
AcDbEntity
  8
M0
 62
     2
100
AcDbText
 10
143.012237
 20
60.526924
 40
4.8
  1
６０
 41
0.611111
  7
STANDARD
100
AcDbText
  0
TEXT
  5
C6
100
AcDbEntity
  8
M0
 62
     2
100
AcDbText
 10
63.012233
 20
60.526924
 40
4.8
  1
１０
 41
0.611111
  7
STANDARD
100
AcDbText
  0
TEXT
  5
C7
100
AcDbEntity
  8
M0
 62
     2
100
AcDbText
 10
95.012241
 20
60.526924
 40
4.8
  1
３０
 41
0.611111
  7
STANDARD
100
AcDbText
  0
TEXT
  5
C8
100
AcDbEntity
  8
M0
 62
     2
100
AcDbText
 10
127.012233
 20
60.526924
 40
4.8
  1
５０
 41
0.611111
  7
STANDARD
100
AcDbText
  0
TEXT
  5
C9
100
AcDbEntity
  8
M0
 62
     2
100
AcDbText
 10
40.612239
 20
130.288934
 40
4.8
  1
８０
 41
0.611111
  7
STANDARD
100
AcDbText
  0
LINE
  5
CA
100
AcDbEntity
  8
M0
 62
     2
100
AcDbLine
 10
114.13244
 20
137.612891
 11
114.13244
 21
138.86964
  0
LINE
  5
CB
100
AcDbEntity
  8
M0
 62
     2
100
AcDbLine
 10
50.13244
 20
76.568964
 11
161.13244
 21
76.568964
  0
LINE
  5
CC
100
AcDbEntity
  8
M0
 62
     2
100
AcDbLine
 10
50.13244
 20
84.568964
 11
161.13244
 21
84.568964
  0
LINE
  5
CD
100
AcDbEntity
  8
M0
 62
     2
100
AcDbLine
 10
50.13244
 20
92.568964
 11
161.13244
 21
92.568964
  0
LINE
  5
CE
100
AcDbEntity
  8
M0
 62
     2
100
AcDbLine
 10
50.13244
 20
100.568964
 11
161.13244
 21
100.568964
  0
LINE
  5
CF
100
AcDbEntity
  8
M0
 62
     2
100
AcDbLine
 10
50.13244
 20
108.568964
 11
161.13244
 21
108.568964
  0
LINE
  5
D0
100
AcDbEntity
  8
M0
 62
     2
100
AcDbLine
 10
50.13244
 20
116.568964
 11
161.13244
 21
116.568964
  0
LINE
  5
D1
100
AcDbEntity
  8
M0
 62
     2
100
AcDbLine
 10
50.13244
 20
124.568964
 11
161.13244
 21
124.568964
  0
LINE
  5
D2
100
AcDbEntity
  8
M0
 62
     2
100
AcDbLine
 10
50.13244
 20
132.568964
 11
161.13244
 21
132.568964
  0
LINE
  5
D3
100
AcDbEntity
  8
M0
 62
     2
100
AcDbLine
 10
50.13244
 20
84.568964
 11
161.13244
 21
84.568964
  0
LINE
  5
D4
100
AcDbEntity
  8
M0
 62
     2
100
AcDbLine
 10
50.13244
 20
100.568964
 11
161.13244
 21
100.568964
  0
LINE
  5
D5
100
AcDbEntity
  8
M0
 62
     2
100
AcDbLine
 10
50.13244
 20
116.568964
 11
161.13244
 21
116.568964
  0
LINE
  5
D6
100
AcDbEntity
  8
M0
 62
     2
100
AcDbLine
 10
130.13244
 20
132.568964
 11
161.13244
 21
132.568964
  0
TEXT
  5
D7
100
AcDbEntity
  8
M0
 62
     2
100
AcDbText
 10
62.272698
 20
148.171999
 40
4.8
  1
【標準ジェットＪ４０－７Ｙ組合わせ時】
 41
0.590278
  7
STANDARD
100
AcDbText
  0
TEXT
  5
D8
100
AcDbEntity
  8
M0
 62
     2
100
AcDbText
 10
62.272698
 20
143.072
 40
4.8
  1
　吸上高さ１２ｍ
 41
0.590278
  7
STANDARD
100
AcDbText
  0
LINE
  5
D9
100
AcDbEntity
  8
M0
 62
     4
100
AcDbLine
 10
50.13244
 20
253.24432
 11
50.13244
 21
181.24432
  0
LINE
  5
DA
100
AcDbEntity
  8
M0
 62
     4
100
AcDbLine
 10
50.13244
 20
181.24432
 11
161.13244
 21
181.24432
  0
LINE
  5
DB
100
AcDbEntity
  8
M0
 62
     4
100
AcDbLine
 10
82.13244
 20
181.24432
 11
82.13244
 21
229.24432
  0
LINE
  5
DC
100
AcDbEntity
  8
M0
 62
     4
100
AcDbLine
 10
114.13244
 20
181.24432
 11
114.13244
 21
253.24432
  0
LINE
  5
DD
100
AcDbEntity
  8
M0
 62
     4
100
AcDbLine
 10
146.13244
 20
181.24432
 11
146.13244
 21
253.24432
  0
LINE
  5
DE
100
AcDbEntity
  8
M0
 62
     4
100
AcDbLine
 10
82.13244
 20
229.24432
 11
82.13244
 21
253.24432
  0
LINE
  5
DF
100
AcDbEntity
  8
M0
 62
     4
100
AcDbLine
 10
66.13244
 20
181.24432
 11
66.13244
 21
253.24432
  0
LINE
  5
E0
100
AcDbEntity
  8
M0
 62
     4
100
AcDbLine
 10
98.13244
 20
181.24432
 11
98.13244
 21
253.24432
  0
LINE
  5
E1
100
AcDbEntity
  8
M0
 62
     4
100
AcDbLine
 10
130.13244
 20
181.24432
 11
130.13244
 21
253.24432
  0
LINE
  5
E2
100
AcDbEntity
  8
M0
 62
     4
100
AcDbLine
 10
114.13244
 20
238.793167
 11
114.13244
 21
253.24432
  0
TEXT
  5
E3
100
AcDbEntity
  8
M0
 62
     4
100
AcDbText
 10
89.762096
 20
166.795183
 40
5.376
  1
揚水量（Ｌ／分）
 41
0.611111
  7
STANDARD
100
AcDbText
  0
TEXT
  5
E4
100
AcDbEntity
  8
M0
 62
     4
100
AcDbText
 10
143.012231
 20
173.202276
 40
4.8
  1
６０
 41
0.611111
  7
STANDARD
100
AcDbText
  0
TEXT
  5
E5
100
AcDbEntity
  8
M0
 62
     4
100
AcDbText
 10
127.01223
 20
173.202276
 40
4.8
  1
５０
 41
0.611111
  7
STANDARD
100
AcDbText
  0
TEXT
  5
E6
100
AcDbEntity
  8
M0
 62
     4
100
AcDbText
 10
111.01224
 20
173.202276
 40
4.8
  1
４０
 41
0.611111
  7
STANDARD
100
AcDbText
  0
TEXT
  5
E7
100
AcDbEntity
  8
M0
 62
     4
100
AcDbText
 10
95.01224
 20
173.202276
 40
4.8
  1
３０
 41
0.611111
  7
STANDARD
100
AcDbText
  0
TEXT
  5
E8
100
AcDbEntity
  8
M0
 62
     4
100
AcDbText
 10
79.012232
 20
173.202276
 40
4.8
  1
２０
 41
0.611111
  7
STANDARD
100
AcDbText
  0
TEXT
  5
E9
100
AcDbEntity
  8
M0
 62
     4
100
AcDbText
 10
63.012232
 20
173.202276
 40
4.8
  1
１０
 41
0.611111
  7
STANDARD
100
AcDbText
  0
TEXT
  5
EA
100
AcDbEntity
  8
M0
 62
     4
100
AcDbText
 10
47.012232
 20
173.202276
 40
4.8
  1
０
 41
0.611111
  7
STANDARD
100
AcDbText
  0
TEXT
  5
EB
100
AcDbEntity
  8
M0
 62
     4
100
AcDbText
 10
43.812235
 20
178.964285
 40
4.8
  1
０
 41
0.611111
  7
STANDARD
100
AcDbText
  0
TEXT
  5
EC
100
AcDbEntity
  8
M0
 62
     4
100
AcDbText
 10
40.612238
 20
194.964293
 40
4.8
  1
２０
 41
0.611111
  7
STANDARD
100
AcDbText
  0
TEXT
  5
ED
100
AcDbEntity
  8
M0
 62
     4
100
AcDbText
 10
40.612238
 20
210.964287
 40
4.8
  1
４０
 41
0.611111
  7
STANDARD
100
AcDbText
  0
ARC
  5
EE
100
AcDbEntity
  8
M0
 62
     4
100
AcDbCircle
 10
34.798492
 20
202.101992
 40
5.376
100
AcDbArc
 50
52.58592
 51
127.41408
  0
ARC
  5
EF
100
AcDbEntity
  8
M0
 62
     4
100
AcDbCircle
 10
34.798492
 20
205.475962
 40
5.376
100
AcDbArc
 50
232.58592
 51
307.41408
  0
TEXT
  5
F0
100
AcDbEntity
  8
M0
 62
     4
100
AcDbText
 10
32.558493
 20
218.170256
 40
3.584
  1
全
 41
1.25
  7
STANDARD
100
AcDbText
  0
TEXT
  5
F1
100
AcDbEntity
  8
M0
 62
     4
100
AcDbText
 10
32.558493
 20
214.227857
 40
3.584
  1
揚
 41
1.25
  7
STANDARD
100
AcDbText
  0
TEXT
  5
F2
100
AcDbEntity
  8
M0
 62
     4
100
AcDbText
 10
32.558493
 20
210.285457
 40
3.584
  1
程
 41
1.25
  7
STANDARD
100
AcDbText
  0
TEXT
  5
F3
100
AcDbEntity
  8
M0
 62
     4
100
AcDbText
 10
32.558493
 20
206.343057
 40
3.584
  1
　
 41
1.25
  7
STANDARD
100
AcDbText
  0
TEXT
  5
F4
100
AcDbEntity
  8
M0
 62
     4
100
AcDbText
 10
32.558493
 20
202.400657
 40
3.584
  1
ｍ
 41
1.25
  7
STANDARD
100
AcDbText
  0
TEXT
  5
F5
100
AcDbEntity
  8
M0
 62
     4
100
AcDbText
 10
61.317718
 20
265.892321
 40
4.8
  1
【標準ジェットＪ４０－７Ｙ組合わせ時】
 41
0.590278
  7
STANDARD
100
AcDbText
  0
TEXT
  5
F6
100
AcDbEntity
  8
M0
 62
     4
100
AcDbText
 10
61.317718
 20
260.79232
 40
4.8
  1
　吸上高さ６ｍ
 41
0.590278
  7
STANDARD
100
AcDbText
  0
LINE
  5
F7
100
AcDbEntity
  8
M0
 62
     4
100
AcDbLine
 10
50.13244
 20
197.24432
 11
161.13244
 21
197.24432
  0
LINE
  5
F8
100
AcDbEntity
  8
M0
 62
     4
100
AcDbLine
 10
50.13244
 20
213.24432
 11
161.13244
 21
213.24432
  0
LINE
  5
F9
100
AcDbEntity
  8
M0
 62
     4
100
AcDbLine
 10
161.13244
 20
229.24432
 11
50.13244
 21
229.24432
  0
LINE
  5
FA
100
AcDbEntity
  8
M0
 62
     4
100
AcDbLine
 10
50.13244
 20
189.24432
 11
161.13244
 21
189.24432
  0
LINE
  5
FB
100
AcDbEntity
  8
M0
 62
     4
100
AcDbLine
 10
50.13244
 20
197.24432
 11
161.13244
 21
197.24432
  0
LINE
  5
FC
100
AcDbEntity
  8
M0
 62
     4
100
AcDbLine
 10
50.13244
 20
205.24432
 11
161.13244
 21
205.24432
  0
LINE
  5
FD
100
AcDbEntity
  8
M0
 62
     4
100
AcDbLine
 10
50.13244
 20
213.24432
 11
161.13244
 21
213.24432
  0
LINE
  5
FE
100
AcDbEntity
  8
M0
 62
     4
100
AcDbLine
 10
50.13244
 20
221.24432
 11
161.13244
 21
221.24432
  0
LINE
  5
FF
100
AcDbEntity
  8
M0
 62
     4
100
AcDbLine
 10
50.13244
 20
229.24432
 11
161.13244
 21
229.24432
  0
LINE
  5
100
100
AcDbEntity
  8
M0
 62
     4
100
AcDbLine
 10
50.13244
 20
237.24432
 11
161.13244
 21
237.24432
  0
LINE
  5
101
100
AcDbEntity
  8
M0
 62
     4
100
AcDbLine
 10
50.13244
 20
245.24432
 11
161.13244
 21
245.24432
  0
TEXT
  5
102
100
AcDbEntity
  8
M0
 62
     4
100
AcDbText
 10
40.612238
 20
226.964287
 40
4.8
  1
６０
 41
0.611111
  7
STANDARD
100
AcDbText
  0
TEXT
  5
103
100
AcDbEntity
  8
M0
 62
     4
100
AcDbText
 10
40.612238
 20
242.84432
 40
4.8
  1
８０
 41
0.611111
  7
STANDARD
100
AcDbText
  0
LINE
  5
104
100
AcDbEntity
  8
M0
 62
     4
100
AcDbLine
 10
49.860724
 20
212.095088
 11
81.97851
 21
204.392042
  0
SPLINE
  5
105
100
AcDbEntity
  8
M0
 62
     4
100
AcDbSpline
210
0.0
220
0.0
230
-1.0
 70
     8
 71
     3
 72
     8
 73
     4
 43
0.0000001
 40
0.0
 40
0.0
 40
0.0
 40
0.0
 40
1.0
 40
1.0
 40
1.0
 40
1.0
 10
82.13244
 20
204.355124
 10
85.359564
 20
203.675337
 10
88.586686
 20
202.995551
 10
91.149229
 20
202.655379
  0
SPLINE
  5
106
100
AcDbEntity
  8
M0
 62
     4
100
AcDbSpline
210
0.0
220
0.0
230
-1.0
 70
     8
 71
     3
 72
    11
 73
     7
 43
0.0000001
 40
0.0
 40
0.0
 40
0.0
 40
0.0
 40
1.0
 40
1.0
 40
1.0
 40
2.0
 40
2.0
 40
2.0
 40
2.0
 10
124.152775
 20
189.24432
 10
124.558275
 20
188.806168
 10
124.963768
 20
188.368018
 10
125.211918
 20
187.967136
 10
125.460068
 20
187.566255
 10
125.550867
 20
187.202643
 10
125.641673
 20
186.83903
  0
LINE
  5
107
100
AcDbEntity
  8
M0
 62
     4
100
AcDbLine
 10
50.13244
 20
102.219671
 11
104.30155
 21
88.910697
  0
LINE
  5
108
100
AcDbEntity
  8
M0
 62
     4
100
AcDbLine
 10
106.029671
 20
87.36435
 11
106.029671
 21
79.192922
  0
SPLINE
  5
109
100
AcDbEntity
  8
M0
 62
     4
100
AcDbSpline
210
0.0
220
0.0
230
-1.0
 70
     8
 71
     3
 72
    11
 73
     7
 43
0.0000001
 40
0.0
 40
0.0
 40
0.0
 40
0.0
 40
1.0
 40
1.0
 40
1.0
 40
2.0
 40
2.0
 40
2.0
 40
2.0
 10
104.30155
 20
88.910697
 10
104.873183
 20
88.714285
 10
105.444806
 20
88.517869
 10
105.728056
 20
88.23629
 10
105.976491
 20
87.989321
 10
106.003076
 20
87.676834
 10
106.029671
 20
87.36435
  0
LINE
  5
10A
100
AcDbEntity
  8
M0
 62
     4
100
AcDbLine
 10
199.298619
 20
220.304288
 11
219.87255
 21
210.177436
  0
LINE
  5
10B
100
AcDbEntity
  8
M0
 62
     4
100
AcDbLine
 10
223.722739
 20
208.786132
 11
239.278452
 21
205.24432
  0
LINE
  5
10C
100
AcDbEntity
  8
M0
 62
     4
100
AcDbLine
 10
239.278452
 20
205.24432
 11
239.278452
 21
195.30269
  0
SPLINE
  5
10D
100
AcDbEntity
  8
M0
 62
     4
100
AcDbSpline
210
0.0
220
0.0
230
-1.0
 70
     8
 71
     3
 72
    11
 73
     7
 43
0.0000001
 40
0.0
 40
0.0
 40
0.0
 40
0.0
 40
1.0
 40
1.0
 40
1.0
 40
2.0
 40
2.0
 40
2.0
 40
2.0
 10
219.87255
 20
210.177436
 10
220.521975
 20
209.878187
 10
221.1714
 20
209.578935
 10
221.813098
 20
209.347054
 10
222.454795
 20
209.115172
 10
223.088767
 20
208.950651
 10
223.722739
 20
208.786132
  0
LINE
  5
10E
100
AcDbEntity
  8
M0
 62
     4
100
AcDbLine
 10
199.298619
 20
112.802707
 11
214.396804
 21
100.568964
  0
LINE
  5
10F
100
AcDbEntity
  8
M0
 62
     4
100
AcDbLine
 10
214.396804
 20
100.568964
 11
214.396804
 21
92.568964
  0
LINE
  5
110
100
AcDbEntity
  8
M0
 62
     4
100
AcDbLine
 10
314.560411
 20
110.0789
 11
327.819258
 21
102.574137
  0
LINE
  5
111
100
AcDbEntity
  8
M0
 62
     4
100
AcDbLine
 10
328.791702
 20
101.179644
 11
330.560411
 21
95.951629
  0
LINE
  5
112
100
AcDbEntity
  8
M0
 62
     4
100
AcDbLine
 10
330.560411
 20
95.951629
 11
330.560411
 21
88.350532
  0
SPLINE
  5
113
100
AcDbEntity
  8
M0
 62
     4
100
AcDbSpline
210
0.0
220
0.0
230
-1.0
 70
     8
 71
     3
 72
    11
 73
     7
 43
0.0000001
 40
0.0
 40
0.0
 40
0.0
 40
0.0
 40
1.0
 40
1.0
 40
1.0
 40
2.0
 40
2.0
 40
2.0
 40
2.0
 10
327.504608
 20
102.752235
 10
327.80976
 20
102.585428
 10
328.114908
 20
102.418618
 10
328.329423
 20
102.156519
 10
328.543939
 20
101.894421
 10
328.667819
 20
101.53703
 10
328.791702
 20
101.179644
  0
SPLINE
  5
114
100
AcDbEntity
  8
M0
 62
     4
100
AcDbSpline
210
0.0
220
0.0
230
-1.0
 70
     8
 71
     3
 72
    11
 73
     7
 43
0.0000001
 40
0.0
 40
0.0
 40
0.0
 40
0.0
 40
1.0
 40
1.0
 40
1.0
 40
2.0
 40
2.0
 40
2.0
 40
2.0
 10
93.743436
 20
202.056387
 10
99.2021
 20
200.348045
 10
104.532278
 20
198.662275
 10
108.338046
 20
197.24432
 10
110.64195
 20
196.38593
 10
112.387192
 20
195.625689
 10
114.13244
 20
194.865447
  0
SPLINE
  5
115
100
AcDbEntity
  8
M0
 62
     4
100
AcDbSpline
210
0.0
220
0.0
230
-1.0
 70
     8
 71
     3
 72
     8
 73
     4
 43
0.0000001
 40
0.0
 40
0.0
 40
0.0
 40
0.0
 40
1.0
 40
1.0
 40
1.0
 40
1.0
 10
114.13244
 20
194.865447
 10
117.612052
 20
193.604165
 10
120.903742
 20
191.517871
 10
124.152775
 20
189.24432
  0
SPLINE
  5
116
100
AcDbEntity
  8
M0
 62
     4
100
AcDbSpline
210
0.0
220
0.0
230
-1.0
 70
     8
 71
     3
 72
    11
 73
     7
 43
0.0000001
 40
0.0
 40
0.0
 40
0.0
 40
0.0
 40
1.0
 40
1.0
 40
1.0
 40
2.0
 40
2.0
 40
2.0
 40
2.0
 10
91.149229
 20
202.655379
 10
91.517431
 20
202.596641
 10
91.881726
 20
202.533324
 10
92.234057
 20
202.455984
 10
92.75715
 20
202.341158
 10
93.253867
 20
202.195416
 10
93.750587
 20
202.049678
  0
LINE
  5
117
100
AcDbEntity
  8
M0
100
AcDbLine
 10
32.92364
 20
271.021465
 11
56.308047
 21
271.021465
  0
TEXT
  5
118
100
AcDbEntity
  8
M0
100
AcDbText
 10
35.365389
 20
273.03607
 40
5.4
  1
揚水性能
 41
0.740741
  7
STANDARD
100
AcDbText
  0
LINE
  5
119
100
AcDbEntity
  8
M0
100
AcDbLine
 10
56.308047
 20
280.553395
 11
56.308047
 21
271.021465
  0
LINE
  5
11A
100
AcDbEntity
  8
M0
100
AcDbLine
 10
56.308047
 20
280.553395
 11
32.92364
 21
280.553395
  0
LINE
  5
11B
100
AcDbEntity
  8
M0
100
AcDbLine
 10
32.92364
 20
280.553395
 11
32.92364
 21
271.021465
  0
LINE
  5
11C
100
AcDbEntity
  8
M0
 62
   114
100
AcDbLine
 10
199.298619
 20
68.568964
 11
271.298619
 21
68.568964
  0
LINE
  5
11D
100
AcDbEntity
  8
M0
 62
   114
100
AcDbLine
 10
231.298619
 20
68.568964
 11
231.298619
 21
132.568964
  0
LINE
  5
11E
100
AcDbEntity
  8
M0
 62
   114
100
AcDbLine
 10
263.298619
 20
68.568964
 11
263.298619
 21
139.018995
  0
LINE
  5
11F
100
AcDbEntity
  8
M0
 62
   114
100
AcDbLine
 10
231.298619
 20
132.568964
 11
231.298619
 21
139.018995
  0
LINE
  5
120
100
AcDbEntity
  8
M0
 62
   114
100
AcDbLine
 10
215.298619
 20
68.568964
 11
215.298619
 21
139.018995
  0
LINE
  5
121
100
AcDbEntity
  8
M0
 62
   114
100
AcDbLine
 10
247.298619
 20
68.568964
 11
247.298619
 21
132.568964
  0
LINE
  5
122
100
AcDbEntity
  8
M0
 62
   114
100
AcDbLine
 10
199.298619
 20
139.018995
 11
199.298619
 21
68.568964
  0
ARC
  5
123
100
AcDbEntity
  8
M0
 62
   114
100
AcDbCircle
 10
182.57802
 20
100.452221
 40
5.376
100
AcDbArc
 50
52.58592
 51
127.41408
  0
ARC
  5
124
100
AcDbEntity
  8
M0
 62
   114
100
AcDbCircle
 10
182.57802
 20
103.826192
 40
5.376
100
AcDbArc
 50
232.58592
 51
307.41408
  0
TEXT
  5
125
100
AcDbEntity
  8
M0
 62
   114
100
AcDbText
 10
180.338022
 20
116.520482
 40
3.584
  1
全
 41
1.25
  7
STANDARD
100
AcDbText
  0
TEXT
  5
126
100
AcDbEntity
  8
M0
 62
   114
100
AcDbText
 10
180.338022
 20
112.578083
 40
3.584
  1
揚
 41
1.25
  7
STANDARD
100
AcDbText
  0
TEXT
  5
127
100
AcDbEntity
  8
M0
 62
   114
100
AcDbText
 10
180.338022
 20
108.635683
 40
3.584
  1
程
 41
1.25
  7
STANDARD
100
AcDbText
  0
TEXT
  5
128
100
AcDbEntity
  8
M0
 62
   114
100
AcDbText
 10
180.338022
 20
104.693283
 40
3.584
  1
　
 41
1.25
  7
STANDARD
100
AcDbText
  0
TEXT
  5
129
100
AcDbEntity
  8
M0
 62
   114
100
AcDbText
 10
180.338022
 20
100.750883
 40
3.584
  1
ｍ
 41
1.25
  7
STANDARD
100
AcDbText
  0
TEXT
  5
12A
100
AcDbEntity
  8
M0
 62
   114
100
AcDbText
 10
189.778418
 20
114.288934
 40
4.8
  1
６０
 41
0.611111
  7
STANDARD
100
AcDbText
  0
TEXT
  5
12B
100
AcDbEntity
  8
M0
 62
   114
100
AcDbText
 10
189.778418
 20
98.288934
 40
4.8
  1
４０
 41
0.611111
  7
STANDARD
100
AcDbText
  0
TEXT
  5
12C
100
AcDbEntity
  8
M0
 62
   114
100
AcDbText
 10
189.778418
 20
82.288934
 40
4.8
  1
２０
 41
0.611111
  7
STANDARD
100
AcDbText
  0
TEXT
  5
12D
100
AcDbEntity
  8
M0
 62
   114
100
AcDbText
 10
192.978415
 20
66.288934
 40
4.8
  1
０
 41
0.611111
  7
STANDARD
100
AcDbText
  0
TEXT
  5
12E
100
AcDbEntity
  8
M0
 62
   114
100
AcDbText
 10
196.17842
 20
60.526926
 40
4.8
  1
０
 41
0.611111
  7
STANDARD
100
AcDbText
  0
TEXT
  5
12F
100
AcDbEntity
  8
M0
 62
   114
100
AcDbText
 10
228.178405
 20
60.526926
 40
4.8
  1
２０
 41
0.611111
  7
STANDARD
100
AcDbText
  0
TEXT
  5
130
100
AcDbEntity
  8
M0
 62
   114
100
AcDbText
 10
260.17842
 20
60.526926
 40
4.8
  1
４０
 41
0.611111
  7
STANDARD
100
AcDbText
  0
TEXT
  5
131
100
AcDbEntity
  8
M0
 62
   114
100
AcDbText
 10
223.234036
 20
53.203851
 40
5.376
  1
揚水量（Ｌ／分）
 41
0.611111
  7
STANDARD
100
AcDbText
  0
TEXT
  5
132
100
AcDbEntity
  8
M0
 62
   114
100
AcDbText
 10
212.17842
 20
60.526926
 40
4.8
  1
１０
 41
0.611111
  7
STANDARD
100
AcDbText
  0
TEXT
  5
133
100
AcDbEntity
  8
M0
 62
   114
100
AcDbText
 10
244.17842
 20
60.526926
 40
4.8
  1
３０
 41
0.611111
  7
STANDARD
100
AcDbText
  0
TEXT
  5
134
100
AcDbEntity
  8
M0
 62
   114
100
AcDbText
 10
189.778418
 20
130.288934
 40
4.8
  1
８０
 41
0.611111
  7
STANDARD
100
AcDbText
  0
LINE
  5
135
100
AcDbEntity
  8
M0
 62
   114
100
AcDbLine
 10
247.298619
 20
132.568964
 11
247.298619
 21
139.018995
  0
TEXT
  5
136
100
AcDbEntity
  8
M0
 62
   114
100
AcDbText
 10
194.031982
 20
148.171999
 40
4.8
  1
【深井戸ジェットＪ７５－３５Ｘ組合わせ時】
 41
0.590278
  7
STANDARD
100
AcDbText
  0
TEXT
  5
137
100
AcDbEntity
  8
M0
 62
   114
100
AcDbText
 10
194.031982
 20
143.071998
 40
4.8
  1
　吸上高さ３０ｍ
 41
0.590278
  7
STANDARD
100
AcDbText
  0
LINE
  5
138
100
AcDbEntity
  8
M0
 62
   114
100
AcDbLine
 10
199.298619
 20
76.568964
 11
271.298619
 21
76.568964
  0
LINE
  5
139
100
AcDbEntity
  8
M0
 62
   114
100
AcDbLine
 10
199.298619
 20
84.568964
 11
271.298619
 21
84.568964
  0
LINE
  5
13A
100
AcDbEntity
  8
M0
 62
   114
100
AcDbLine
 10
199.298619
 20
92.568964
 11
271.298619
 21
92.568964
  0
LINE
  5
13B
100
AcDbEntity
  8
M0
 62
   114
100
AcDbLine
 10
199.298619
 20
100.568964
 11
271.298619
 21
100.568964
  0
LINE
  5
13C
100
AcDbEntity
  8
M0
 62
   114
100
AcDbLine
 10
199.298619
 20
108.568964
 11
271.298619
 21
108.568964
  0
LINE
  5
13D
100
AcDbEntity
  8
M0
 62
   114
100
AcDbLine
 10
199.298619
 20
116.568964
 11
271.298619
 21
116.568964
  0
LINE
  5
13E
100
AcDbEntity
  8
M0
 62
   114
100
AcDbLine
 10
199.298619
 20
124.568964
 11
271.298619
 21
124.568964
  0
LINE
  5
13F
100
AcDbEntity
  8
M0
 62
   114
100
AcDbLine
 10
199.298619
 20
132.568964
 11
271.298619
 21
132.568964
  0
LINE
  5
140
100
AcDbEntity
  8
M0
 62
   114
100
AcDbLine
 10
199.298619
 20
84.568964
 11
271.298619
 21
84.568964
  0
LINE
  5
141
100
AcDbEntity
  8
M0
 62
   114
100
AcDbLine
 10
199.298619
 20
100.568964
 11
271.298619
 21
100.568964
  0
LINE
  5
142
100
AcDbEntity
  8
M0
 62
   114
100
AcDbLine
 10
199.298619
 20
132.568964
 11
271.298619
 21
132.568964
  0
LINE
  5
143
100
AcDbEntity
  8
M0
 62
   114
100
AcDbLine
 10
199.298619
 20
116.568964
 11
271.298619
 21
116.568964
  0
ENDSEC
  0
SECTION
  2
OBJECTS
  0
DICTIONARY
  5
C
100
AcDbDictionary
  3
ACAD_GROUP
350
D
  3
ACAD_MLINESTYLE
350
E
  0
DICTIONARY
  5
D
102
{ACAD_REACTORS
330
C
102
}
100
AcDbDictionary
  0
DICTIONARY
  5
E
102
{ACAD_REACTORS
330
C
102
}
100
AcDbDictionary
  3
STANDARD
350
13
  0
MLINESTYLE
  5
13
102
{ACAD_REACTORS
330
E
102
}
100
AcDbMlineStyle
  2
STANDARD
 70
     0
  3

 62
     0
 51
90.0
 52
90.0
 71
     2
 49
0.5
 62
   256
  6
BYLAYER
 49
-0.5
 62
   256
  6
BYLAYER
  0
ENDSEC
  0
EOF
