  0
SECTION
  2
HEADER
  9
$ACADVER
  1
AC1012
  9
$INSBASE
 10
0.000000
 20
0.000000
 30
0.0
  9
$VIEWCTR
 10
7.531722
 20
4.5
  9
$VIEWSIZE
 40
9.0
  9
$SNAPMODE
 70
     0
  9
$SNAPUNIT
 10
1.0
 20
1.0
  9
$SNAPBASE
 10
0.0
 20
0.0
  9
$SNAPANG
 50
0.0
  9
$SNAPSTYLE
 70
     0
  9
$SNAPISOPAIR
 70
     0
  9
$GRIDMODE
 70
     0
  9
$GRIDUNIT
 10
0.0
 20
0.0
  9
$ORTHOMODE
 70
     0
  9
$REGENMODE
 70
     1
  9
$FILLMODE
 70
     1
  9
$QTEXTMODE
 70
     0
  9
$DRAGMODE
 70
     2
  9
$LTSCALE
  40
     1.000000
  9
$OSMODE
 70
     0
  9
$ATTMODE
 70
     1
  9
$TEXTSIZE
 40
0.2
  9
$TRACEWID
 40
0.05
  9
$TEXTSTYLE
  7
STANDARD
  9
$CELTYPE
  6
BYLAYER
  9
$CECOLOR
 62
   256
  9
$DIMSCALE
 40
1.0
  9
$DIMASZ
 40
0.18
  9
$DIMEXO
 40
0.0625
  9
$DIMDLI
 40
0.38
  9
$DIMRND
 40
0.0
  9
$DIMDLE
 40
0.0
  9
$DIMEXE
 40
0.18
  9
$DIMTP
 40
0.0
  9
$DIMTM
 40
0.0
  9
$DIMTXT
 40
0.18
  9
$DIMCEN
 40
0.09
  9
$DIMTSZ
 40
0.0
  9
$DIMTOL
 70
     0
  9
$DIMLIM
 70
     0
  9
$DIMTIH
 70
     1
  9
$DIMTOH
 70
     1
  9
$DIMSE1
 70
     0
  9
$DIMSE2
 70
     0
  9
$DIMTAD
 70
     0
  9
$DIMZIN
 70
     0
  9
$DIMBLK
  1

  9
$LUNITS
 70
     2
  9
$LUPREC
 70
     4
  9
$AXISMODE
 70
     0
  9
$AXISUNIT
 10
0.0
 20
0.0
  9
$SKETCHINC
 40
0.1
  9
$FILLETRAD
 40
0.0
  9
$AUNITS
 70
     0
  9
$AUPREC
 70
     0
  9
$MENU
  1
ACAD
  9
$ELEVATION
 40
0.0
  9
$THICKNESS
 40
0.0
  9
$VIEWDIR
 10
0.0
 20
0.0
 30
1.0
  9
$LIMCHECK
 70
     0
  9
$BLIPMODE
 70
     1
  9
$CHAMFERA
 40
0.0
  9
$CHAMFERB
 40
0.0
  9
$FASTZOOM
 70
     1
  9
$SKPOLY
 70
     0
  9
$TDCREATE
 40
0000000.0000000000
  9
$TDUPDATE
 40
0000000.0000000000
  9
$TDINDWG
 40
0.0000000000
  9
$TDUSRTIMER
 40
0.0000000000
  9
$USRTIMER
 70
     1
  9
$ANGBASE
 50
0.0
  9
$ANGDIR
 70
     0
  9
$PDMODE
 70
     0
  9
$PDSIZE
 40
0.0
  9
$PLINEWID
 40
0.0
  9
$COORDS
 70
     0
  9
$USERI1
 70
     0
  9
$USERI2
 70
     0
  9
$USERI3
 70
     0
  9
$USERI4
 70
     0
  9
$USERI5
 70
     0
  9
$USERR1
 40
0.0
  9
$USERR2
 40
0.0
  9
$USERR3
 40
0.0
  9
$USERR4
 40
0.0
  9
$USERR5
 40
0.0
  9
$CLAYER
  8
M0
  9
$EXTMIN
 10
0.0
 20
0.0
  9
$EXTMAX
 10
420.0
 20
297.0
  9
$LIMMIN
 10
0.0
 20
0.0
  9
$LIMMAX
 10
420.0
 20
297.0
  9
$HANDSEED
  5
157
  0
ENDSEC
  0
SECTION
  2
CLASSES
  0
ENDSEC
  0
SECTION
  2
TABLES
  0
TABLE
  2
VPORT
  5
8
100
AcDbSymbolTable
 70
     2
  0
VPORT
  5
14
100
AcDbSymbolTableRecord
100
AcDbViewportTableRecord
  2
*ACTIVE
 70
     0
 10
0.0
 20
0.0
 11
1.0
 21
1.0
 12
484.0
 22
297.0
 13
0.0
 23
0.0
 14
1.0
 24
1.0
 15
0.0
 25
0.0
 16
0.0
 26
0.0
 36
1.0
 17
0.0
 27
0.0
 37
0.0
 40
594.0
 41
2.0
 42
50.0
 43
0.0
 44
0.0
 50
0.0
 51
0.0
 71
     0
 72
   100
 73
     1
 74
     1
 75
     0
 76
     0
 77
     0
 78
     0
  0
ENDTAB
  0
TABLE
  2
LTYPE
  5
5
100
AcDbSymbolTable
 70
     5
  0
LTYPE
  5
15
100
AcDbSymbolTableRecord
100
AcDbLinetypeTableRecord
  2
BYBLOCK
 70
     0
  3

 72
    65
 73
     0
 40
0.0
  0
LTYPE
  5
16
100
AcDbSymbolTableRecord
100
AcDbLinetypeTableRecord
  2
BYLAYER
 70
     0
  3

 72
    65
 73
     0
 40
0.0
  0
LTYPE
  5
17
100
AcDbSymbolTableRecord
100
AcDbLinetypeTableRecord
  2
CONTINUOUS
 70
    64
  3
Solid line
 72
    65
 73
     0
 40
0.0
  0
LTYPE
  5
18
100
AcDbSymbolTableRecord
100
AcDbLinetypeTableRecord
  2
DASHED
 70
    64
  3
__ __ __ __ __ __ __ __ __ __ __ __ __ __ __ __
 72
    65
 73
     2
 40
0.75
 49
0.5
 74
     0
 49
-0.25
 74
     0
  0
LTYPE
  5
19
100
AcDbSymbolTableRecord
100
AcDbLinetypeTableRecord
  2
DASHDOT
 70
    64
  3
__ . __ . __ . __ . __ . __ . __ . __ . __ . __
 72
    65
 73
     4
 40
1.0
 49
0.5
 74
     0
 49
-0.25
 74
     0
 49
0.0
 74
     0
 49
-0.25
 74
     0
  0
LTYPE
  5
1A
100
AcDbSymbolTableRecord
100
AcDbLinetypeTableRecord
  2
DIVIDE
 70
    64
  3
____ . . ____ . . ____ . . ____ . . ____ . . __
 72
    65
 73
     6
 40
1.25
 49
0.5
 74
     0
 49
-0.25
 74
     0
 49
0.0
 74
     0
 49
-0.25
 74
     0
 49
0.0
 74
     0
 49
-0.25
 74
     0
  0
LTYPE
  5
1B
100
AcDbSymbolTableRecord
100
AcDbLinetypeTableRecord
  2
DOT
 70
    64
  3
. . . . . . . . . . . . . . . . . . . . . . . .
 72
    65
 73
     2
 40
0.25
 49
0.0
 74
     0
 49
-0.25
 74
     0
  0
ENDTAB
  0
TABLE
  2
LAYER
  5
2
100
AcDbSymbolTable
 70
   102
  0
LAYER
  5
F
100
AcDbSymbolTableRecord
100
AcDbLayerTableRecord
  2
0
 70
     0
 62
     7
  6
CONTINUOUS
  0
LAYER
  5
1C
100
AcDbSymbolTableRecord
100
AcDbLayerTableRecord
  2
DEFPOINTS
 70
     0
 62
     7
  6
CONTINUOUS
  0
LAYER
  5
1D
100
AcDbSymbolTableRecord
100
AcDbLayerTableRecord
  2
M0
 70
     0
 62
     3
  6
CONTINUOUS
  0
LAYER
  5
1E
100
AcDbSymbolTableRecord
100
AcDbLayerTableRecord
  2
DD0
 70
     0
 62
     4
  6
CONTINUOUS
  0
ENDTAB
  0
TABLE
  2
STYLE
  5
3
100
AcDbSymbolTable
 70
     2
  0
STYLE
  5
10
100
AcDbSymbolTableRecord
100
AcDbTextStyleTableRecord
  2
STANDARD
 70
     0
 40
0.0
 41
1.0
 50
0.0
 71
     0
 42
0.2
  3
txt
  4
BIGFONT
  0
ENDTAB
  0
TABLE
  2
VIEW
  5
6
100
AcDbSymbolTable
 70
     0
  0
ENDTAB
  0
TABLE
  2
UCS
  5
7
100
AcDbSymbolTable
 70
     0
  0
ENDTAB
  0
TABLE
  2
APPID
  5
9
100
AcDbSymbolTable
 70
     1
  0
APPID
  5
11
100
AcDbSymbolTableRecord
100
AcDbRegAppTableRecord
  2
ACAD
 70
     0
  0
ENDTAB
  0
TABLE
  2
DIMSTYLE
  5
A
100
AcDbSymbolTable
 70
     2
  0
DIMSTYLE
105
25
100
AcDbSymbolTableRecord
100
AcDbDimStyleTableRecord
  2
STANDARD
 70
     0
  3

  4

  5

  6
_OPEN
  7
_OPEN
 40
1.0
 41
3.0
 42
0.0
 43
8.0
 44
1.5
 45
0.0
 46
0.0
 47
0.0
 48
0.0
140
3.5
141
0.09
142
0.0
143
0.03937
144
1.0
145
0.0
146
1.0
147
1.0
 71
     0
 72
     0
 73
     1
 74
     1
 75
     0
 76
     0
 77
     3
 78
     8
170
     0
171
     2
172
     0
173
     1
174
     0
175
     0
176
     0
177
     0
178
     0
270
     2
271
     2
272
     4
273
     2
274
     2
340
10
275
     0
280
     0
281
     0
282
     0
283
     1
284
     0
285
     0
286
     0
287
     3
288
     0
  0
DIMSTYLE
105
26
100
AcDbSymbolTableRecord
100
AcDbDimStyleTableRecord
  2
LEADSTYL
 70
     0
  3

  4

  5

  6
_OPEN
  7
_OPEN
 40
1.0
 41
3.0
 42
0.0625
 43
0.38
 44
0.18
 45
0.0
 46
0.0
 47
0.0
 48
0.0
140
3.2
141
0.09
142
0.0
143
25.4
144
1.0
145
0.0
146
1.0
147
1.0
 71
     0
 72
     0
 73
     1
 74
     1
 75
     0
 76
     0
 77
     0
 78
     0
170
     0
171
     2
172
     0
173
     1
174
     0
175
     0
176
     0
177
     0
178
     0
270
     2
271
     4
272
     4
273
     2
274
     2
340
10
275
     0
280
     0
281
     0
282
     0
283
     1
284
     0
285
     0
286
     0
287
     3
288
     0
  0
ENDTAB
  0
TABLE
  2
BLOCK_RECORD
  5
1
100
AcDbSymbolTable
 70
     8
  0
BLOCK_RECORD
  5
1F
100
AcDbSymbolTableRecord
100
AcDbBlockTableRecord
  2
*MODEL_SPACE
  0
BLOCK_RECORD
  5
22
100
AcDbSymbolTableRecord
100
AcDbBlockTableRecord
  2
*PAPER_SPACE
  0
BLOCK_RECORD
  5
27
100
AcDbSymbolTableRecord
100
AcDbBlockTableRecord
  2
_NONE
  0
BLOCK_RECORD
  5
2B
100
AcDbSymbolTableRecord
100
AcDbBlockTableRecord
  2
_OPEN
  0
BLOCK_RECORD
  5
31
100
AcDbSymbolTableRecord
100
AcDbBlockTableRecord
  2
_CLOSED
  0
BLOCK_RECORD
  5
38
100
AcDbSymbolTableRecord
100
AcDbBlockTableRecord
  2
_ORIGIN
  0
BLOCK_RECORD
  5
3D
100
AcDbSymbolTableRecord
100
AcDbBlockTableRecord
  2
_DOT
  0
BLOCK_RECORD
  5
45
100
AcDbSymbolTableRecord
100
AcDbBlockTableRecord
  2
_OBLIQUE
  0
BLOCK_RECORD
  5
6D
100
AcDbSymbolTableRecord
100
AcDbBlockTableRecord
  2
DIMS0
  0
BLOCK_RECORD
  5
75
100
AcDbSymbolTableRecord
100
AcDbBlockTableRecord
  2
DIMS1
  0
ENDTAB
  0
ENDSEC
  0
SECTION
  2
BLOCKS
  0
BLOCK
  5
20
100
AcDbEntity
  8
0
100
AcDbBlockBegin
  2
*MODEL_SPACE
 70
     0
 10
0.0
 20
0.0
 30
0.0
  3
*MODEL_SPACE
  1

  0
ENDBLK
  5
21
100
AcDbEntity
  8
0
100
AcDbBlockEnd
  0
BLOCK
  5
23
100
AcDbEntity
 67
     1
  8
0
100
AcDbBlockBegin
  2
*PAPER_SPACE
 70
     0
 10
0.0
 20
0.0
 30
0.0
  3
*PAPER_SPACE
  1

  0
ENDBLK
  5
24
100
AcDbEntity
 67
     1
  8
0
100
AcDbBlockEnd
  0
BLOCK
  5
28
100
AcDbEntity
  8
0
100
AcDbBlockBegin
  2
_NONE
 70
     0
 10
0.0
 20
0.0
  0
CIRCLE
  5
29
100
AcDbEntity
  8
0
 62
     0
100
AcDbCircle
 10
0.0
 20
0.0
 40
0.25
  0
ENDBLK
  5
2A
100
AcDbEntity
  8
0
100
AcDbBlockEnd
  0
BLOCK
  5
2C
100
AcDbEntity
  8
0
100
AcDbBlockBegin
  2
_OPEN
 70
     0
 10
0.0
 20
0.0
  0
LINE
  5
2D
100
AcDbEntity
  8
0
 62
     0
100
AcDbLine
 10
-0.965926
 20
0.258819
 11
0.0
 21
0.0
  0
LINE
  5
2E
100
AcDbEntity
  8
0
 62
     0
100
AcDbLine
 10
0.0
 20
0.0
 11
-0.965926
 21
-0.258819
  0
LINE
  5
2F
100
AcDbEntity
  8
0
 62
     0
100
AcDbLine
 10
0.0
 20
0.0
 11
-1.0
 21
0.0
  0
ENDBLK
  5
30
100
AcDbEntity
  8
0
100
AcDbBlockEnd
  0
BLOCK
  5
32
100
AcDbEntity
  8
0
100
AcDbBlockBegin
  2
_CLOSED
 70
     0
 10
0.0
 20
0.0
  0
LINE
  5
33
100
AcDbEntity
  8
0
 62
     0
100
AcDbLine
 10
-0.965926
 20
0.258819
 11
0.0
 21
0.0
  0
LINE
  5
34
100
AcDbEntity
  8
0
 62
     0
100
AcDbLine
 10
0.0
 20
0.0
 11
-0.965926
 21
-0.258819
  0
LINE
  5
35
100
AcDbEntity
  8
0
 62
     0
100
AcDbLine
 10
-0.965926
 20
0.258819
 11
-0.965926
 21
-0.258819
  0
LINE
  5
36
100
AcDbEntity
  8
0
 62
     0
100
AcDbLine
 10
0.0
 20
0.0
 11
-1.0
 21
0.0
  0
ENDBLK
  5
37
100
AcDbEntity
  8
0
100
AcDbBlockEnd
  0
BLOCK
  5
39
100
AcDbEntity
  8
0
100
AcDbBlockBegin
  2
_ORIGIN
 70
     0
 10
0.0
 20
0.0
  0
CIRCLE
  5
3A
100
AcDbEntity
  8
0
 62
     0
100
AcDbCircle
 10
0.0
 20
0.0
 40
0.5
  0
LINE
  5
3B
100
AcDbEntity
  8
0
 62
     0
100
AcDbLine
 10
0.0
 20
0.0
 11
-1.0
 21
0.0
  0
ENDBLK
  5
3C
100
AcDbEntity
  8
0
100
AcDbBlockEnd
  0
BLOCK
  5
3E
100
AcDbEntity
  8
0
100
AcDbBlockBegin
  2
_DOT
 70
     0
 10
0.0
 20
0.0
  0
POLYLINE
  5
3F
100
AcDbEntity
  8
0
 62
     0
100
AcDb2dPolyline
 66
     1
 70
     1
 40
0.5
 41
0.5
  0
VERTEX
  5
40
100
AcDbEntity
  8
0
 62
     0
100
AcDbVertex
100
AcDb2dVertex
 10
-0.25
 20
0.0
 42
1.0
  0
VERTEX
  5
41
100
AcDbEntity
  8
0
 62
     0
100
AcDbVertex
100
AcDb2dVertex
 10
0.25
 20
0.0
 42
1.0
  0
SEQEND
  5
42
100
AcDbEntity
  8
0
 62
     0
  0
LINE
  5
43
100
AcDbEntity
  8
0
 62
     0
100
AcDbLine
 10
-0.5
 20
0.0
 11
-1.0
 21
0.0
  0
ENDBLK
  5
44
100
AcDbEntity
  8
0
100
AcDbBlockEnd
  0
BLOCK
  5
46
100
AcDbEntity
  8
0
100
AcDbBlockBegin
  2
_OBLIQUE
 70
     0
 10
0.0
 20
0.0
  0
LINE
  5
47
100
AcDbEntity
  8
0
 62
     0
100
AcDbLine
 10
-0.353553
 20
-0.353553
 11
0.353553
 21
0.353553
  0
ENDBLK
  5
48
100
AcDbEntity
  8
0
100
AcDbBlockEnd
  0
BLOCK
  5
6E
100
AcDbEntity
  8
DD0
100
AcDbBlockBegin
  2
DIMS0
 70
     0
 10
0.0
 20
0.0
  0
LINE
  5
6F
100
AcDbEntity
  8
DD0
100
AcDbLine
 10
33.731602
 20
267.905579
 11
35.731602
 21
271.905579
  0
LINE
  5
70
100
AcDbEntity
  8
DD0
100
AcDbLine
 10
35.731602
 20
271.905579
 11
37.731602
 21
267.905579
  0
LINE
  5
71
100
AcDbEntity
  8
DD0
100
AcDbLine
 10
37.731602
 20
267.905579
 11
33.731602
 21
267.905579
  0
TEXT
  5
72
100
AcDbEntity
  8
DD0
100
AcDbText
 10
35.014935
 20
268.22558
 40
1.8
  1
Ａ
 41
0.796296
  7
STANDARD
100
AcDbText
  0
ENDBLK
  5
73
100
AcDbEntity
  8
DD0
100
AcDbBlockEnd
  0
BLOCK
  5
76
100
AcDbEntity
  8
DD0
100
AcDbBlockBegin
  2
DIMS1
 70
     0
 10
0.0
 20
0.0
  0
LINE
  5
77
100
AcDbEntity
  8
DD0
100
AcDbLine
 10
168.748718
 20
274.172485
 11
170.748718
 21
278.172485
  0
LINE
  5
78
100
AcDbEntity
  8
DD0
100
AcDbLine
 10
170.748718
 20
278.172485
 11
172.748718
 21
274.172485
  0
LINE
  5
79
100
AcDbEntity
  8
DD0
100
AcDbLine
 10
172.748718
 20
274.172485
 11
168.748718
 21
274.172485
  0
TEXT
  5
7A
100
AcDbEntity
  8
DD0
100
AcDbText
 10
170.032052
 20
274.492487
 40
1.8
  1
Ａ
 41
0.796296
  7
STANDARD
100
AcDbText
  0
ENDBLK
  5
7B
100
AcDbEntity
  8
DD0
100
AcDbBlockEnd
  0
ENDSEC
  0
SECTION
  2
ENTITIES
  0
LEADER
  5
49
100
AcDbEntity
  8
DD0
100
AcDbLeader
  3
LEADSTYL
 76
     3
 10
42.724751
 20
243.547256
 10
47.245182
 20
251.947266
 10
91.245178
 20
251.947266
340
4A
 77
     4
  0
TEXT
  5
4A
100
AcDbEntity
  8
DD0
100
AcDbText
 10
48.536849
 20
252.947266
 40
3.5
  1
運転圧力：「高」
 41
0.833333
  7
STANDARD
100
AcDbText
  0
TEXT
  5
4B
100
AcDbEntity
  8
DD0
100
AcDbText
 10
48.536849
 20
247.447266
 40
3.5
  1
（制御圧力３７０ｋＰａ）
 41
0.833333
  7
STANDARD
100
AcDbText
  0
LEADER
  5
4C
100
AcDbEntity
  8
DD0
100
AcDbLeader
  3
LEADSTYL
 76
     3
 10
181.587143
 20
144.559158
 10
191.983307
 20
155.759155
 10
235.983307
 20
155.759155
340
4D
 77
     4
  0
TEXT
  5
4D
100
AcDbEntity
  8
DD0
100
AcDbText
 10
193.274974
 20
156.759155
 40
3.5
  1
運転圧力：「標準」
 41
0.833333
  7
STANDARD
100
AcDbText
  0
TEXT
  5
4E
100
AcDbEntity
  8
DD0
100
AcDbText
 10
193.274974
 20
151.259155
 40
3.5
  1
（制御圧力２７０ｋＰａ）
 41
0.833333
  7
STANDARD
100
AcDbText
  0
LEADER
  5
4F
100
AcDbEntity
  8
DD0
100
AcDbLeader
  3
LEADSTYL
 76
     3
 10
188.391327
 20
130.559158
 10
196.199463
 20
141.759171
 10
240.199463
 20
141.759171
340
50
 77
     4
  0
TEXT
  5
50
100
AcDbEntity
  8
DD0
100
AcDbText
 10
197.49113
 20
142.759171
 40
3.5
  1
運転圧力：「低」
 41
0.833333
  7
STANDARD
100
AcDbText
  0
TEXT
  5
51
100
AcDbEntity
  8
DD0
100
AcDbText
 10
197.49113
 20
137.259171
 40
3.5
  1
（制御圧力１８０ｋＰａ）
 41
0.833333
  7
STANDARD
100
AcDbText
  0
LEADER
  5
52
100
AcDbEntity
  8
DD0
100
AcDbLeader
  3
LEADSTYL
 76
     3
 10
59.023281
 20
229.547256
 10
98.036522
 20
251.94725
 10
142.03653
 20
251.94725
340
53
 77
     4
  0
TEXT
  5
53
100
AcDbEntity
  8
DD0
100
AcDbText
 10
99.328189
 20
252.94725
 40
3.5
  1
運転圧力：「標準」
 41
0.833333
  7
STANDARD
100
AcDbText
  0
TEXT
  5
54
100
AcDbEntity
  8
DD0
100
AcDbText
 10
99.328189
 20
247.44725
 40
3.5
  1
（制御圧力２７０ｋＰａ）
 41
0.833333
  7
STANDARD
100
AcDbText
  0
LEADER
  5
55
100
AcDbEntity
  8
DD0
100
AcDbLeader
  3
LEADSTYL
 76
     3
 10
220.130692
 20
223.947266
 10
230.75798
 20
247.47049
 10
274.757996
 20
247.47049
340
56
 77
     4
  0
TEXT
  5
56
100
AcDbEntity
  8
DD0
100
AcDbText
 10
232.049647
 20
248.47049
 40
3.5
  1
運転圧力：「低」
 41
0.833333
  7
STANDARD
100
AcDbText
  0
TEXT
  5
57
100
AcDbEntity
  8
DD0
100
AcDbText
 10
232.049647
 20
242.97049
 40
3.5
  1
（制御圧力１８０ｋＰａ）
 41
0.833333
  7
STANDARD
100
AcDbText
  0
LEADER
  5
58
100
AcDbEntity
  8
DD0
100
AcDbLeader
  3
LEADSTYL
 76
     3
 10
309.407776
 20
116.559158
 10
324.60849
 20
141.759155
 10
368.60849
 20
141.759155
340
59
 77
     4
  0
TEXT
  5
59
100
AcDbEntity
  8
DD0
100
AcDbText
 10
325.900157
 20
142.759155
 40
3.5
  1
運転圧力：「低」
 41
0.833333
  7
STANDARD
100
AcDbText
  0
TEXT
  5
5A
100
AcDbEntity
  8
DD0
100
AcDbText
 10
325.900157
 20
137.259155
 40
3.5
  1
（制御圧力１８０ｋＰａ）
 41
0.833333
  7
STANDARD
100
AcDbText
  0
LEADER
  5
5B
100
AcDbEntity
  8
DD0
100
AcDbLeader
  3
LEADSTYL
 76
     3
 10
180.345886
 20
250.547256
 10
182.464523
 20
260.963989
 10
226.464523
 20
260.963989
340
5C
 77
     4
  0
TEXT
  5
5C
100
AcDbEntity
  8
DD0
100
AcDbText
 10
183.75619
 20
261.963989
 40
3.5
  1
運転圧力：「高」
 41
0.833333
  7
STANDARD
100
AcDbText
  0
TEXT
  5
5D
100
AcDbEntity
  8
DD0
100
AcDbText
 10
183.75619
 20
256.463989
 40
3.5
  1
（制御圧力３７０ｋＰａ）
 41
0.833333
  7
STANDARD
100
AcDbText
  0
LEADER
  5
5E
100
AcDbEntity
  8
DD0
100
AcDbLeader
  3
LEADSTYL
 76
     3
 10
72.510498
 20
116.559158
 10
74.276169
 20
141.759171
 10
118.276169
 20
141.759171
340
5F
 77
     4
  0
TEXT
  5
5F
100
AcDbEntity
  8
DD0
100
AcDbText
 10
75.567835
 20
142.759171
 40
3.5
  1
運転圧力：「低」
 41
0.833333
  7
STANDARD
100
AcDbText
  0
TEXT
  5
60
100
AcDbEntity
  8
DD0
100
AcDbText
 10
75.567835
 20
137.259171
 40
3.5
  1
（制御圧力１８０ｋＰａ）
 41
0.833333
  7
STANDARD
100
AcDbText
  0
LEADER
  5
61
100
AcDbEntity
  8
DD0
100
AcDbLeader
  3
LEADSTYL
 76
     3
 10
216.900223
 20
236.547256
 10
229.111145
 20
260.963989
 10
273.111145
 20
260.963989
340
62
 77
     4
  0
TEXT
  5
62
100
AcDbEntity
  8
DD0
100
AcDbText
 10
230.402812
 20
261.963989
 40
3.5
  1
運転圧力：「標準」
 41
0.833333
  7
STANDARD
100
AcDbText
  0
TEXT
  5
63
100
AcDbEntity
  8
DD0
100
AcDbText
 10
230.402812
 20
256.463989
 40
3.5
  1
（制御圧力２７０ｋＰａ）
 41
0.833333
  7
STANDARD
100
AcDbText
  0
LEADER
  5
64
100
AcDbEntity
  8
DD0
100
AcDbLeader
  3
LEADSTYL
 76
     3
 10
311.264465
 20
129.159164
 10
324.601837
 20
153.655685
 10
368.601837
 20
153.655685
340
65
 77
     4
  0
TEXT
  5
65
100
AcDbEntity
  8
DD0
100
AcDbText
 10
325.893504
 20
154.655685
 40
3.5
  1
運転圧力：「標準」
 41
0.833333
  7
STANDARD
100
AcDbText
  0
TEXT
  5
66
100
AcDbEntity
  8
DD0
100
AcDbText
 10
325.893504
 20
149.155685
 40
3.5
  1
（制御圧力２７０ｋＰａ）
 41
0.833333
  7
STANDARD
100
AcDbText
  0
LEADER
  5
67
100
AcDbEntity
  8
DD0
100
AcDbLeader
  3
LEADSTYL
 76
     3
 10
51.233723
 20
129.159164
 10
63.686119
 20
155.759155
 10
107.686119
 20
155.759155
340
68
 77
     4
  0
TEXT
  5
68
100
AcDbEntity
  8
DD0
100
AcDbText
 10
64.977786
 20
156.759155
 40
3.5
  1
運転圧力：「標準」
 41
0.833333
  7
STANDARD
100
AcDbText
  0
TEXT
  5
69
100
AcDbEntity
  8
DD0
100
AcDbText
 10
64.977786
 20
151.259155
 40
3.5
  1
（制御圧力２７０ｋＰａ）
 41
0.833333
  7
STANDARD
100
AcDbText
  0
LEADER
  5
6A
100
AcDbEntity
  8
DD0
100
AcDbLeader
  3
LEADSTYL
 76
     3
 10
72.171043
 20
216.947266
 10
89.037498
 20
237.94725
 10
133.037491
 20
237.94725
340
6B
 77
     4
  0
TEXT
  5
6B
100
AcDbEntity
  8
DD0
100
AcDbText
 10
90.329165
 20
238.94725
 40
3.5
  1
運転圧力：「低」
 41
0.833333
  7
STANDARD
100
AcDbText
  0
TEXT
  5
6C
100
AcDbEntity
  8
DD0
100
AcDbText
 10
90.329165
 20
233.44725
 40
3.5
  1
（制御圧力１８０ｋＰａ）
 41
0.833333
  7
STANDARD
100
AcDbText
  0
INSERT
  5
74
100
AcDbEntity
  8
DD0
100
AcDbBlockReference
  2
DIMS0
 10
0.0
 20
0.0
  0
INSERT
  5
7C
100
AcDbEntity
  8
DD0
100
AcDbBlockReference
  2
DIMS1
 10
0.0
 20
0.0
  0
LINE
  5
7D
100
AcDbEntity
  8
M0
100
AcDbLine
 10
61.724083
 20
282.511416
 11
31.724084
 21
282.511416
  0
LINE
  5
7E
100
AcDbEntity
  8
M0
100
AcDbLine
 10
61.724083
 20
272.511416
 11
61.724083
 21
282.511416
  0
LINE
  5
7F
100
AcDbEntity
  8
M0
100
AcDbLine
 10
31.724084
 20
272.511416
 11
61.724083
 21
272.511416
  0
LINE
  5
80
100
AcDbEntity
  8
M0
100
AcDbLine
 10
31.724084
 20
282.511416
 11
31.724084
 21
272.511416
  0
TEXT
  5
81
100
AcDbEntity
  8
M0
100
AcDbText
 10
34.15075
 20
274.011416
 40
7.0
  1
揚水性能
 41
0.780952
  7
STANDARD
100
AcDbText
  0
TEXT
  5
82
100
AcDbEntity
  8
M0
100
AcDbText
 10
171.116055
 20
179.874183
 40
3.6
  1
０
 41
0.601852
  7
STANDARD
100
AcDbText
  0
TEXT
  5
83
100
AcDbEntity
  8
M0
100
AcDbText
 10
168.767313
 20
194.238239
 40
3.6
  1
１０
 41
0.601852
  7
STANDARD
100
AcDbText
  0
TEXT
  5
84
100
AcDbEntity
  8
M0
100
AcDbText
 10
168.767313
 20
208.238245
 40
3.6
  1
２０
 41
0.601852
  7
STANDARD
100
AcDbText
  0
TEXT
  5
85
100
AcDbEntity
  8
M0
100
AcDbText
 10
168.767313
 20
222.238245
 40
3.6
  1
３０
 41
0.601852
  7
STANDARD
100
AcDbText
  0
TEXT
  5
86
100
AcDbEntity
  8
M0
100
AcDbText
 10
168.665762
 20
236.150147
 40
3.6
  1
４０
 41
0.601852
  7
STANDARD
100
AcDbText
  0
TEXT
  5
87
100
AcDbEntity
  8
M0
100
AcDbText
 10
168.665762
 20
250.150147
 40
3.6
  1
５０
 41
0.601852
  7
STANDARD
100
AcDbText
  0
LINE
  5
88
100
AcDbEntity
  8
M0
 62
     7
100
AcDbLine
 10
120.476173
 20
191.747262
 11
120.476173
 21
217.944493
  0
LINE
  5
89
100
AcDbEntity
  8
M0
 62
     7
100
AcDbLine
 10
119.556326
 20
219.259579
 11
80.104609
 21
233.663857
  0
LINE
  5
8A
100
AcDbEntity
  8
M0
 62
     7
100
AcDbLine
 10
79.689245
 20
233.902817
 11
68.488895
 21
243.223388
  0
ARC
  5
8B
100
AcDbEntity
  8
M0
 62
     7
100
AcDbCircle
 10
119.076173
 20
217.944493
 40
1.4
100
AcDbArc
 50
0.0
 51
69.942277
  0
ARC
  5
8C
100
AcDbEntity
  8
M0
 62
     7
100
AcDbCircle
 10
80.584763
 20
234.978944
 40
1.4
100
AcDbArc
 50
230.233862
 51
249.942277
  0
ARC
  5
8D
100
AcDbEntity
  8
M0
 62
     7
100
AcDbCircle
 10
67.593377
 20
242.147262
 40
1.4
100
AcDbArc
 50
50.233862
 51
90.0
  0
LINE
  5
8E
100
AcDbEntity
  8
M0
 62
     7
100
AcDbLine
 10
244.391331
 20
198.747262
 11
244.391331
 21
232.016767
  0
ARC
  5
8F
100
AcDbEntity
  8
M0
 62
     7
100
AcDbCircle
 10
242.991331
 20
232.016767
 40
1.4
100
AcDbArc
 50
0.0
 51
26.565051
  0
LINE
  5
90
100
AcDbEntity
  8
M0
 62
     7
100
AcDbLine
 10
217.231331
 20
250.547262
 11
233.891331
 21
240.747262
  0
LINE
  5
91
100
AcDbEntity
  8
M0
 62
     7
100
AcDbLine
 10
233.891331
 20
240.747262
 11
242.306199
 21
235.79734
  0
LINE
  5
92
100
AcDbEntity
  8
M0
 62
   234
100
AcDbLine
 10
39.276173
 20
251.947262
 11
39.276173
 21
181.947262
  0
LINE
  5
93
100
AcDbEntity
  8
M0
 62
   234
100
AcDbLine
 10
140.076173
 20
181.947262
 11
39.276173
 21
181.947262
  0
LINE
  5
94
100
AcDbEntity
  8
M0
 62
   234
100
AcDbLine
 10
53.276173
 20
245.120396
 11
53.276173
 21
181.947262
  0
LINE
  5
95
100
AcDbEntity
  8
M0
 62
   234
100
AcDbLine
 10
67.276173
 20
243.670548
 11
67.276173
 21
181.947262
  0
LINE
  5
96
100
AcDbEntity
  8
M0
 62
   234
100
AcDbLine
 10
39.276173
 20
195.947262
 11
140.076173
 21
195.947262
  0
LINE
  5
97
100
AcDbEntity
  8
M0
 62
   234
100
AcDbLine
 10
39.276173
 20
209.947262
 11
91.851999
 21
209.947262
  0
LINE
  5
98
100
AcDbEntity
  8
M0
 62
   234
100
AcDbLine
 10
39.276173
 20
223.947262
 11
133.020459
 21
223.947262
  0
LINE
  5
99
100
AcDbEntity
  8
M0
 62
   234
100
AcDbLine
 10
81.276173
 20
239.470548
 11
81.276173
 21
181.947262
  0
LINE
  5
9A
100
AcDbEntity
  8
M0
 62
   234
100
AcDbLine
 10
39.276173
 20
209.947262
 11
140.076173
 21
209.947262
  0
LINE
  5
9B
100
AcDbEntity
  8
M0
 62
   234
100
AcDbLine
 10
95.276173
 20
181.947262
 11
95.276173
 21
235.270548
  0
LINE
  5
9C
100
AcDbEntity
  8
M0
 62
   234
100
AcDbLine
 10
39.276173
 20
237.947262
 11
86.353792
 21
237.947262
  0
LINE
  5
9D
100
AcDbEntity
  8
M0
 62
   234
100
AcDbLine
 10
109.276173
 20
181.947262
 11
109.276173
 21
231.070548
  0
LINE
  5
9E
100
AcDbEntity
  8
M0
 62
   234
100
AcDbLine
 10
123.276173
 20
181.947262
 11
123.276173
 21
226.870548
  0
LINE
  5
9F
100
AcDbEntity
  8
M0
 62
   234
100
AcDbLine
 10
137.276173
 20
181.947262
 11
137.276173
 21
222.670548
  0
LINE
  5
A0
100
AcDbEntity
  8
M0
 62
   234
100
AcDbLine
 10
39.276173
 20
251.947262
 11
43.925506
 21
251.947262
  0
LINE
  5
A1
100
AcDbEntity
  8
M0
100
AcDbLine
 10
192.931233
 20
143.12349
 11
195.228793
 21
135.311787
  0
LINE
  5
A2
100
AcDbEntity
  8
M0
100
AcDbLine
 10
195.391331
 20
134.183122
 11
195.391331
 21
113.759158
  0
ARC
  5
A3
100
AcDbEntity
  8
M0
100
AcDbCircle
 10
191.391331
 20
134.183122
 40
4.0
100
AcDbArc
 50
0.0
 51
16.38954
  0
ARC
  5
A4
100
AcDbEntity
  8
M0
100
AcDbCircle
 10
191.012502
 20
142.559158
 40
2.0
100
AcDbArc
 50
16.38954
 51
90.0
  0
TEXT
  5
A5
100
AcDbEntity
  8
M0
100
AcDbText
 10
302.117411
 20
53.086079
 40
3.6
  1
０
 41
0.601852
  7
STANDARD
100
AcDbText
  0
TEXT
  5
A6
100
AcDbEntity
  8
M0
100
AcDbText
 10
315.134998
 20
53.086079
 40
3.6
  1
１０
 41
0.601852
  7
STANDARD
100
AcDbText
  0
TEXT
  5
A7
100
AcDbEntity
  8
M0
100
AcDbText
 10
329.135001
 20
53.086079
 40
3.6
  1
２０
 41
0.601852
  7
STANDARD
100
AcDbText
  0
TEXT
  5
A8
100
AcDbEntity
  8
M0
100
AcDbText
 10
343.134998
 20
53.086079
 40
3.6
  1
３０
 41
0.601852
  7
STANDARD
100
AcDbText
  0
LINE
  5
A9
100
AcDbEntity
  8
M0
 62
     1
100
AcDbLine
 10
39.276173
 20
243.547262
 11
67.593377
 21
243.547262
  0
LINE
  5
AA
100
AcDbEntity
  8
M0
100
AcDbLine
 10
81.276173
 20
119.359158
 11
79.204905
 21
127.644229
  0
LINE
  5
AB
100
AcDbEntity
  8
M0
100
AcDbLine
 10
84.056072
 20
99.899865
 11
81.276173
 21
119.359158
  0
LINE
  5
AC
100
AcDbEntity
  8
M0
100
AcDbLine
 10
84.076173
 20
99.617022
 11
84.076173
 21
92.843948
  0
ARC
  5
AD
100
AcDbEntity
  8
M0
100
AcDbCircle
 10
82.076173
 20
99.617022
 40
2.0
100
AcDbArc
 50
0.0
 51
8.130102
  0
ARC
  5
AE
100
AcDbEntity
  8
M0
100
AcDbCircle
 10
77.26462
 20
127.159158
 40
2.0
100
AcDbArc
 50
14.036243
 51
90.0
  0
LINE
  5
AF
100
AcDbEntity
  8
M0
 62
     2
100
AcDbLine
 10
174.391331
 20
144.559158
 11
191.012502
 21
144.559158
  0
LINE
  5
B0
100
AcDbEntity
  8
M0
 62
     5
100
AcDbLine
 10
174.391331
 20
130.559158
 11
195.391331
 21
130.559158
  0
TEXT
  5
B1
100
AcDbEntity
  8
M0
100
AcDbText
 10
295.064282
 20
78.550621
 40
3.6
  1
（　）
 50
90.000003
 41
0.63786
  7
STANDARD
100
AcDbText
  0
TEXT
  5
B2
100
AcDbEntity
  8
M0
100
AcDbText
 10
291.795861
 20
96.159158
 40
3.6
  1
全
 41
0.833333
  7
STANDARD
100
AcDbText
  0
TEXT
  5
B3
100
AcDbEntity
  8
M0
100
AcDbText
 10
291.795861
 20
92.403602
 40
3.6
  1
揚
 41
0.833333
  7
STANDARD
100
AcDbText
  0
TEXT
  5
B4
100
AcDbEntity
  8
M0
100
AcDbText
 10
291.795861
 20
88.648047
 40
3.6
  1
程
 41
0.833333
  7
STANDARD
100
AcDbText
  0
TEXT
  5
B5
100
AcDbEntity
  8
M0
100
AcDbText
 10
291.795861
 20
84.892492
 40
3.6
  1
　
 41
0.833333
  7
STANDARD
100
AcDbText
  0
TEXT
  5
B6
100
AcDbEntity
  8
M0
100
AcDbText
 10
291.795861
 20
81.136936
 40
3.6
  1
ｍ
 41
0.833333
  7
STANDARD
100
AcDbText
  0
TEXT
  5
B7
100
AcDbEntity
  8
M0
100
AcDbText
 10
38.116766
 20
177.274183
 40
3.6
  1
０
 41
0.601852
  7
STANDARD
100
AcDbText
  0
TEXT
  5
B8
100
AcDbEntity
  8
M0
100
AcDbText
 10
51.134353
 20
177.274183
 40
3.6
  1
１０
 41
0.601852
  7
STANDARD
100
AcDbText
  0
TEXT
  5
B9
100
AcDbEntity
  8
M0
100
AcDbText
 10
65.134357
 20
177.274183
 40
3.6
  1
２０
 41
0.601852
  7
STANDARD
100
AcDbText
  0
TEXT
  5
BA
100
AcDbEntity
  8
M0
100
AcDbText
 10
79.134353
 20
177.274183
 40
3.6
  1
３０
 41
0.601852
  7
STANDARD
100
AcDbText
  0
TEXT
  5
BB
100
AcDbEntity
  8
M0
100
AcDbText
 10
93.13435
 20
177.274183
 40
3.6
  1
４０
 41
0.601852
  7
STANDARD
100
AcDbText
  0
TEXT
  5
BC
100
AcDbEntity
  8
M0
100
AcDbText
 10
107.13435
 20
177.274183
 40
3.6
  1
５０
 41
0.601852
  7
STANDARD
100
AcDbText
  0
TEXT
  5
BD
100
AcDbEntity
  8
M0
100
AcDbText
 10
121.13435
 20
177.274183
 40
3.6
  1
６０
 41
0.601852
  7
STANDARD
100
AcDbText
  0
TEXT
  5
BE
100
AcDbEntity
  8
M0
100
AcDbText
 10
135.134344
 20
177.274183
 40
3.6
  1
７０
 41
0.601852
  7
STANDARD
100
AcDbText
  0
LINE
  5
BF
100
AcDbEntity
  8
M0
 62
     2
100
AcDbLine
 10
39.276173
 20
229.547262
 11
91.379506
 21
229.547262
  0
TEXT
  5
C0
100
AcDbEntity
  8
M0
100
AcDbText
 10
176.151147
 20
161.333045
 40
3.528
  1
吸上高さ３５ｍ
 41
0.777778
  7
STANDARD
100
AcDbText
  0
TEXT
  5
C1
100
AcDbEntity
  8
M0
100
AcDbText
 10
172.72395
 20
166.268214
 40
3.528
  1
【深井戸ジェットＪ７５－３５Ｘ組合わせ時】
 41
0.777778
  7
STANDARD
100
AcDbText
  0
TEXT
  5
C2
100
AcDbEntity
  8
M0
100
AcDbText
 10
41.03599
 20
161.333045
 40
3.528
  1
吸上高さ２４ｍ
 41
0.777778
  7
STANDARD
100
AcDbText
  0
TEXT
  5
C3
100
AcDbEntity
  8
M0
100
AcDbText
 10
37.608787
 20
166.268214
 40
3.528
  1
【深井戸ジェットＪ７５－２４Ｘ組合わせ時】
 41
0.777778
  7
STANDARD
100
AcDbText
  0
TEXT
  5
C4
100
AcDbEntity
  8
M0
100
AcDbText
 10
176.151148
 20
267.921143
 40
3.528
  1
吸上高さ１２ｍ
 41
0.777778
  7
STANDARD
100
AcDbText
  0
TEXT
  5
C5
100
AcDbEntity
  8
M0
100
AcDbText
 10
172.723941
 20
272.856312
 40
3.528
  1
【深井戸ジェットＪ７５－７Ｙ組合わせ時】
 41
0.777778
  7
STANDARD
100
AcDbText
  0
TEXT
  5
C6
100
AcDbEntity
  8
M0
100
AcDbText
 10
166.178794
 20
78.550621
 40
3.6
  1
（　）
 50
90.000003
 41
0.63786
  7
STANDARD
100
AcDbText
  0
TEXT
  5
C7
100
AcDbEntity
  8
M0
100
AcDbText
 10
162.910374
 20
96.159158
 40
3.6
  1
全
 41
0.833333
  7
STANDARD
100
AcDbText
  0
TEXT
  5
C8
100
AcDbEntity
  8
M0
100
AcDbText
 10
162.910374
 20
92.403602
 40
3.6
  1
揚
 41
0.833333
  7
STANDARD
100
AcDbText
  0
TEXT
  5
C9
100
AcDbEntity
  8
M0
100
AcDbText
 10
162.910374
 20
88.648047
 40
3.6
  1
程
 41
0.833333
  7
STANDARD
100
AcDbText
  0
TEXT
  5
CA
100
AcDbEntity
  8
M0
100
AcDbText
 10
162.910374
 20
84.892492
 40
3.6
  1
　
 41
0.833333
  7
STANDARD
100
AcDbText
  0
TEXT
  5
CB
100
AcDbEntity
  8
M0
100
AcDbText
 10
162.910374
 20
81.136936
 40
3.6
  1
ｍ
 41
0.833333
  7
STANDARD
100
AcDbText
  0
TEXT
  5
CC
100
AcDbEntity
  8
M0
100
AcDbText
 10
300.001542
 20
55.686079
 40
3.6
  1
０
 41
0.601852
  7
STANDARD
100
AcDbText
  0
TEXT
  5
CD
100
AcDbEntity
  8
M0
100
AcDbText
 10
297.652799
 20
70.050135
 40
3.6
  1
１０
 41
0.601852
  7
STANDARD
100
AcDbText
  0
TEXT
  5
CE
100
AcDbEntity
  8
M0
100
AcDbText
 10
297.652799
 20
84.050141
 40
3.6
  1
２０
 41
0.601852
  7
STANDARD
100
AcDbText
  0
TEXT
  5
CF
100
AcDbEntity
  8
M0
100
AcDbText
 10
297.652799
 20
98.050141
 40
3.6
  1
３０
 41
0.601852
  7
STANDARD
100
AcDbText
  0
TEXT
  5
D0
100
AcDbEntity
  8
M0
100
AcDbText
 10
297.551249
 20
111.962043
 40
3.6
  1
４０
 41
0.601852
  7
STANDARD
100
AcDbText
  0
TEXT
  5
D1
100
AcDbEntity
  8
M0
100
AcDbText
 10
297.551249
 20
125.962043
 40
3.6
  1
５０
 41
0.601852
  7
STANDARD
100
AcDbText
  0
TEXT
  5
D2
100
AcDbEntity
  8
M0
100
AcDbText
 10
297.551249
 20
139.962043
 40
3.6
  1
６０
 41
0.601852
  7
STANDARD
100
AcDbText
  0
TEXT
  5
D3
100
AcDbEntity
  8
M0
100
AcDbText
 10
166.178795
 20
202.738726
 40
3.6
  1
（　）
 50
90.000003
 41
0.63786
  7
STANDARD
100
AcDbText
  0
TEXT
  5
D4
100
AcDbEntity
  8
M0
100
AcDbText
 10
162.910375
 20
220.347262
 40
3.6
  1
全
 41
0.833333
  7
STANDARD
100
AcDbText
  0
TEXT
  5
D5
100
AcDbEntity
  8
M0
100
AcDbText
 10
162.910375
 20
216.591707
 40
3.6
  1
揚
 41
0.833333
  7
STANDARD
100
AcDbText
  0
TEXT
  5
D6
100
AcDbEntity
  8
M0
100
AcDbText
 10
162.910375
 20
212.836151
 40
3.6
  1
程
 41
0.833333
  7
STANDARD
100
AcDbText
  0
TEXT
  5
D7
100
AcDbEntity
  8
M0
100
AcDbText
 10
162.910375
 20
209.080596
 40
3.6
  1
　
 41
0.833333
  7
STANDARD
100
AcDbText
  0
TEXT
  5
D8
100
AcDbEntity
  8
M0
100
AcDbText
 10
162.910375
 20
205.32504
 40
3.6
  1
ｍ
 41
0.833333
  7
STANDARD
100
AcDbText
  0
TEXT
  5
D9
100
AcDbEntity
  8
M0
100
AcDbText
 10
202.543183
 20
172.773725
 40
3.6
  1
揚水量（Ｌ／分）
 41
0.63786
  7
STANDARD
100
AcDbText
  0
TEXT
  5
DA
100
AcDbEntity
  8
M0
100
AcDbText
 10
173.231925
 20
177.274183
 40
3.6
  1
０
 41
0.601852
  7
STANDARD
100
AcDbText
  0
TEXT
  5
DB
100
AcDbEntity
  8
M0
100
AcDbText
 10
186.24951
 20
177.274183
 40
3.6
  1
１０
 41
0.601852
  7
STANDARD
100
AcDbText
  0
TEXT
  5
DC
100
AcDbEntity
  8
M0
100
AcDbText
 10
200.249513
 20
177.274183
 40
3.6
  1
２０
 41
0.601852
  7
STANDARD
100
AcDbText
  0
TEXT
  5
DD
100
AcDbEntity
  8
M0
100
AcDbText
 10
214.249513
 20
177.274183
 40
3.6
  1
３０
 41
0.601852
  7
STANDARD
100
AcDbText
  0
TEXT
  5
DE
100
AcDbEntity
  8
M0
100
AcDbText
 10
228.249507
 20
177.274183
 40
3.6
  1
４０
 41
0.601852
  7
STANDARD
100
AcDbText
  0
TEXT
  5
DF
100
AcDbEntity
  8
M0
100
AcDbText
 10
242.249507
 20
177.274183
 40
3.6
  1
５０
 41
0.601852
  7
STANDARD
100
AcDbText
  0
TEXT
  5
E0
100
AcDbEntity
  8
M0
100
AcDbText
 10
256.249507
 20
177.274183
 40
3.6
  1
６０
 41
0.601852
  7
STANDARD
100
AcDbText
  0
TEXT
  5
E1
100
AcDbEntity
  8
M0
100
AcDbText
 10
36.000897
 20
55.686079
 40
3.6
  1
０
 41
0.601852
  7
STANDARD
100
AcDbText
  0
TEXT
  5
E2
100
AcDbEntity
  8
M0
100
AcDbText
 10
33.652154
 20
70.050135
 40
3.6
  1
１０
 41
0.601852
  7
STANDARD
100
AcDbText
  0
TEXT
  5
E3
100
AcDbEntity
  8
M0
100
AcDbText
 10
33.652154
 20
84.050141
 40
3.6
  1
２０
 41
0.601852
  7
STANDARD
100
AcDbText
  0
TEXT
  5
E4
100
AcDbEntity
  8
M0
100
AcDbText
 10
33.652154
 20
98.050141
 40
3.6
  1
３０
 41
0.601852
  7
STANDARD
100
AcDbText
  0
TEXT
  5
E5
100
AcDbEntity
  8
M0
100
AcDbText
 10
33.550604
 20
111.962043
 40
3.6
  1
４０
 41
0.601852
  7
STANDARD
100
AcDbText
  0
TEXT
  5
E6
100
AcDbEntity
  8
M0
100
AcDbText
 10
33.550604
 20
125.962043
 40
3.6
  1
５０
 41
0.601852
  7
STANDARD
100
AcDbText
  0
TEXT
  5
E7
100
AcDbEntity
  8
M0
100
AcDbText
 10
33.550604
 20
139.962043
 40
3.6
  1
６０
 41
0.601852
  7
STANDARD
100
AcDbText
  0
LINE
  5
E8
100
AcDbEntity
  8
M0
 62
     5
100
AcDbLine
 10
244.391331
 20
223.947262
 11
174.391331
 21
223.947262
  0
LINE
  5
E9
100
AcDbEntity
  8
M0
 62
     7
100
AcDbLine
 10
243.081013
 20
234.967899
 11
244.243529
 21
232.642866
  0
ARC
  5
EA
100
AcDbEntity
  8
M0
 62
     7
100
AcDbCircle
 10
241.292158
 20
234.073472
 40
2.0
100
AcDbArc
 50
26.565051
 51
59.534455
  0
TEXT
  5
EB
100
AcDbEntity
  8
M0
100
AcDbText
 10
202.543182
 20
48.585621
 40
3.6
  1
揚水量（Ｌ／分）
 41
0.63786
  7
STANDARD
100
AcDbText
  0
TEXT
  5
EC
100
AcDbEntity
  8
M0
100
AcDbText
 10
37.608789
 20
266.856312
 40
3.528
  1
【浅井戸ジェットＪ７５－７Ｙ組合わせ時】
 41
0.777778
  7
STANDARD
100
AcDbText
  0
TEXT
  5
ED
100
AcDbEntity
  8
M0
100
AcDbText
 10
41.035992
 20
261.921143
 40
3.528
  1
吸上高さ７ｍ
 41
0.777778
  7
STANDARD
100
AcDbText
  0
TEXT
  5
EE
100
AcDbEntity
  8
M0
100
AcDbText
 10
171.116054
 20
55.686079
 40
3.6
  1
０
 41
0.601852
  7
STANDARD
100
AcDbText
  0
TEXT
  5
EF
100
AcDbEntity
  8
M0
100
AcDbText
 10
168.767311
 20
70.050135
 40
3.6
  1
１０
 41
0.601852
  7
STANDARD
100
AcDbText
  0
TEXT
  5
F0
100
AcDbEntity
  8
M0
100
AcDbText
 10
168.767311
 20
84.050141
 40
3.6
  1
２０
 41
0.601852
  7
STANDARD
100
AcDbText
  0
TEXT
  5
F1
100
AcDbEntity
  8
M0
100
AcDbText
 10
168.767311
 20
98.050141
 40
3.6
  1
３０
 41
0.601852
  7
STANDARD
100
AcDbText
  0
TEXT
  5
F2
100
AcDbEntity
  8
M0
100
AcDbText
 10
168.665761
 20
111.962043
 40
3.6
  1
４０
 41
0.601852
  7
STANDARD
100
AcDbText
  0
TEXT
  5
F3
100
AcDbEntity
  8
M0
100
AcDbText
 10
168.665761
 20
125.962043
 40
3.6
  1
５０
 41
0.601852
  7
STANDARD
100
AcDbText
  0
TEXT
  5
F4
100
AcDbEntity
  8
M0
100
AcDbText
 10
168.665761
 20
139.962043
 40
3.6
  1
６０
 41
0.601852
  7
STANDARD
100
AcDbText
  0
TEXT
  5
F5
100
AcDbEntity
  8
M0
100
AcDbText
 10
173.231923
 20
53.086079
 40
3.6
  1
０
 41
0.601852
  7
STANDARD
100
AcDbText
  0
TEXT
  5
F6
100
AcDbEntity
  8
M0
100
AcDbText
 10
186.249513
 20
53.086079
 40
3.6
  1
１０
 41
0.601852
  7
STANDARD
100
AcDbText
  0
TEXT
  5
F7
100
AcDbEntity
  8
M0
100
AcDbText
 10
200.249513
 20
53.086079
 40
3.6
  1
２０
 41
0.601852
  7
STANDARD
100
AcDbText
  0
TEXT
  5
F8
100
AcDbEntity
  8
M0
100
AcDbText
 10
214.249512
 20
53.086079
 40
3.6
  1
３０
 41
0.601852
  7
STANDARD
100
AcDbText
  0
TEXT
  5
F9
100
AcDbEntity
  8
M0
100
AcDbText
 10
228.249509
 20
53.086079
 40
3.6
  1
４０
 41
0.601852
  7
STANDARD
100
AcDbText
  0
LINE
  5
FA
100
AcDbEntity
  8
M0
 62
     5
100
AcDbLine
 10
303.276817
 20
116.559158
 11
314.662604
 21
116.559158
  0
ARC
  5
FB
100
AcDbEntity
  8
M0
 62
     5
100
AcDbCircle
 10
314.662604
 20
115.159158
 40
1.4
100
AcDbArc
 50
8.130102
 51
90.0
  0
LINE
  5
FC
100
AcDbEntity
  8
M0
 62
     1
100
AcDbLine
 10
174.391331
 20
250.547262
 11
217.231331
 21
250.547262
  0
TEXT
  5
FD
100
AcDbEntity
  8
M0
100
AcDbText
 10
31.063637
 20
78.550621
 40
3.6
  1
（　）
 50
90.000003
 41
0.63786
  7
STANDARD
100
AcDbText
  0
TEXT
  5
FE
100
AcDbEntity
  8
M0
100
AcDbText
 10
27.795217
 20
96.159158
 40
3.6
  1
全
 41
0.833333
  7
STANDARD
100
AcDbText
  0
TEXT
  5
FF
100
AcDbEntity
  8
M0
100
AcDbText
 10
27.795217
 20
92.403602
 40
3.6
  1
揚
 41
0.833333
  7
STANDARD
100
AcDbText
  0
TEXT
  5
100
100
AcDbEntity
  8
M0
100
AcDbText
 10
27.795217
 20
88.648047
 40
3.6
  1
程
 41
0.833333
  7
STANDARD
100
AcDbText
  0
TEXT
  5
101
100
AcDbEntity
  8
M0
100
AcDbText
 10
27.795217
 20
84.892492
 40
3.6
  1
　
 41
0.833333
  7
STANDARD
100
AcDbText
  0
TEXT
  5
102
100
AcDbEntity
  8
M0
100
AcDbText
 10
27.795217
 20
81.136936
 40
3.6
  1
ｍ
 41
0.833333
  7
STANDARD
100
AcDbText
  0
LINE
  5
103
100
AcDbEntity
  8
M0
 62
     5
100
AcDbLine
 10
39.276173
 20
116.559158
 11
81.676173
 21
116.559158
  0
TEXT
  5
104
100
AcDbEntity
  8
M0
100
AcDbText
 10
36.000897
 20
179.874183
 40
3.6
  1
０
 41
0.601852
  7
STANDARD
100
AcDbText
  0
TEXT
  5
105
100
AcDbEntity
  8
M0
100
AcDbText
 10
33.652154
 20
194.238239
 40
3.6
  1
１０
 41
0.601852
  7
STANDARD
100
AcDbText
  0
TEXT
  5
106
100
AcDbEntity
  8
M0
100
AcDbText
 10
33.652154
 20
208.238245
 40
3.6
  1
２０
 41
0.601852
  7
STANDARD
100
AcDbText
  0
TEXT
  5
107
100
AcDbEntity
  8
M0
100
AcDbText
 10
33.652154
 20
222.238245
 40
3.6
  1
３０
 41
0.601852
  7
STANDARD
100
AcDbText
  0
TEXT
  5
108
100
AcDbEntity
  8
M0
100
AcDbText
 10
33.550604
 20
236.150147
 40
3.6
  1
４０
 41
0.601852
  7
STANDARD
100
AcDbText
  0
TEXT
  5
109
100
AcDbEntity
  8
M0
100
AcDbText
 10
33.550604
 20
250.150147
 40
3.6
  1
５０
 41
0.601852
  7
STANDARD
100
AcDbText
  0
TEXT
  5
10A
100
AcDbEntity
  8
M0
100
AcDbText
 10
67.428025
 20
172.773725
 40
3.6
  1
揚水量（Ｌ／分）
 41
0.63786
  7
STANDARD
100
AcDbText
  0
LINE
  5
10B
100
AcDbEntity
  8
M0
 62
   234
100
AcDbLine
 10
174.391331
 20
113.759158
 11
233.191331
 21
113.759158
  0
LINE
  5
10C
100
AcDbEntity
  8
M0
 62
   234
100
AcDbLine
 10
174.391331
 20
99.759158
 11
233.191331
 21
99.759158
  0
LINE
  5
10D
100
AcDbEntity
  8
M0
 62
   234
100
AcDbLine
 10
230.391331
 20
57.759158
 11
230.391331
 21
136.352651
  0
LINE
  5
10E
100
AcDbEntity
  8
M0
 62
   234
100
AcDbLine
 10
233.191331
 20
57.759158
 11
174.391331
 21
57.759158
  0
LINE
  5
10F
100
AcDbEntity
  8
M0
 62
   234
100
AcDbLine
 10
174.391331
 20
71.759158
 11
233.191331
 21
71.759158
  0
LINE
  5
110
100
AcDbEntity
  8
M0
 62
   234
100
AcDbLine
 10
174.391331
 20
85.759158
 11
230.391331
 21
85.759158
  0
LINE
  5
111
100
AcDbEntity
  8
M0
 62
   234
100
AcDbLine
 10
188.391331
 20
147.292342
 11
188.391331
 21
57.759158
  0
LINE
  5
112
100
AcDbEntity
  8
M0
 62
   234
100
AcDbLine
 10
174.391331
 20
148.759158
 11
174.391331
 21
57.759158
  0
LINE
  5
113
100
AcDbEntity
  8
M0
 62
   234
100
AcDbLine
 10
174.391331
 20
85.759158
 11
233.191331
 21
85.759158
  0
LINE
  5
114
100
AcDbEntity
  8
M0
 62
   234
100
AcDbLine
 10
174.391331
 20
127.759158
 11
233.191331
 21
127.759158
  0
LINE
  5
115
100
AcDbEntity
  8
M0
 62
   234
100
AcDbLine
 10
174.391331
 20
141.759158
 11
194.631253
 21
141.759158
  0
LINE
  5
116
100
AcDbEntity
  8
M0
 62
   234
100
AcDbLine
 10
216.391331
 20
136.352651
 11
216.391331
 21
57.759158
  0
LINE
  5
117
100
AcDbEntity
  8
M0
 62
   234
100
AcDbLine
 10
202.391331
 20
136.352651
 11
202.391331
 21
57.759158
  0
LINE
  5
118
100
AcDbEntity
  8
M0
 62
     2
100
AcDbLine
 10
174.391331
 20
236.547262
 11
241.031331
 21
236.547262
  0
LINE
  5
119
100
AcDbEntity
  8
M0
 62
     2
100
AcDbLine
 10
303.276817
 20
129.159158
 11
312.862604
 21
129.159158
  0
ARC
  5
11A
100
AcDbEntity
  8
M0
 62
     2
100
AcDbCircle
 10
312.862604
 20
127.759158
 40
1.4
100
AcDbArc
 50
8.130102
 51
90.0
  0
TEXT
  5
11B
100
AcDbEntity
  8
M0
100
AcDbText
 10
38.116766
 20
53.086079
 40
3.6
  1
０
 41
0.601852
  7
STANDARD
100
AcDbText
  0
TEXT
  5
11C
100
AcDbEntity
  8
M0
100
AcDbText
 10
51.134353
 20
53.086079
 40
3.6
  1
１０
 41
0.601852
  7
STANDARD
100
AcDbText
  0
TEXT
  5
11D
100
AcDbEntity
  8
M0
100
AcDbText
 10
65.134357
 20
53.086079
 40
3.6
  1
２０
 41
0.601852
  7
STANDARD
100
AcDbText
  0
TEXT
  5
11E
100
AcDbEntity
  8
M0
100
AcDbText
 10
79.134353
 20
53.086079
 40
3.6
  1
３０
 41
0.601852
  7
STANDARD
100
AcDbText
  0
TEXT
  5
11F
100
AcDbEntity
  8
M0
100
AcDbText
 10
93.13435
 20
53.086079
 40
3.6
  1
４０
 41
0.601852
  7
STANDARD
100
AcDbText
  0
TEXT
  5
120
100
AcDbEntity
  8
M0
100
AcDbText
 10
107.13435
 20
53.086079
 40
3.6
  1
５０
 41
0.601852
  7
STANDARD
100
AcDbText
  0
TEXT
  5
121
100
AcDbEntity
  8
M0
100
AcDbText
 10
305.036636
 20
161.333047
 40
3.528
  1
吸上高さ２４ｍ
 41
0.777778
  7
STANDARD
100
AcDbText
  0
TEXT
  5
122
100
AcDbEntity
  8
M0
100
AcDbText
 10
301.609426
 20
166.268215
 40
3.528
  1
【深井戸用特殊ジェットＪ４０－２４ＳＸ組合わせ時】
 41
0.777778
  7
STANDARD
100
AcDbText
  0
LINE
  5
123
100
AcDbEntity
  8
M0
 62
   234
100
AcDbLine
 10
39.276173
 20
113.759158
 11
112.076173
 21
113.759158
  0
LINE
  5
124
100
AcDbEntity
  8
M0
 62
   234
100
AcDbLine
 10
67.276173
 20
144.559158
 11
67.276173
 21
57.759158
  0
LINE
  5
125
100
AcDbEntity
  8
M0
 62
   234
100
AcDbLine
 10
39.276173
 20
99.759158
 11
112.076173
 21
99.759158
  0
LINE
  5
126
100
AcDbEntity
  8
M0
 62
   234
100
AcDbLine
 10
95.276173
 20
57.759158
 11
95.276173
 21
136.453616
  0
LINE
  5
127
100
AcDbEntity
  8
M0
 62
   234
100
AcDbLine
 10
112.076173
 20
57.759158
 11
39.276173
 21
57.759158
  0
LINE
  5
128
100
AcDbEntity
  8
M0
 62
   234
100
AcDbLine
 10
39.276173
 20
71.759158
 11
112.076173
 21
71.759158
  0
LINE
  5
129
100
AcDbEntity
  8
M0
 62
   234
100
AcDbLine
 10
39.276173
 20
85.759158
 11
112.076173
 21
85.759158
  0
LINE
  5
12A
100
AcDbEntity
  8
M0
 62
   234
100
AcDbLine
 10
109.276173
 20
57.759158
 11
109.276173
 21
136.453616
  0
LINE
  5
12B
100
AcDbEntity
  8
M0
 62
   234
100
AcDbLine
 10
53.276173
 20
144.559158
 11
53.276173
 21
57.759158
  0
LINE
  5
12C
100
AcDbEntity
  8
M0
 62
   234
100
AcDbLine
 10
39.276173
 20
148.759158
 11
39.276173
 21
57.759158
  0
LINE
  5
12D
100
AcDbEntity
  8
M0
 62
   234
100
AcDbLine
 10
39.276173
 20
85.759158
 11
91.851999
 21
85.759158
  0
LINE
  5
12E
100
AcDbEntity
  8
M0
 62
   234
100
AcDbLine
 10
39.276173
 20
127.759158
 11
112.076173
 21
127.759158
  0
LINE
  5
12F
100
AcDbEntity
  8
M0
 62
   234
100
AcDbLine
 10
39.276173
 20
141.759158
 11
109.276173
 21
141.759158
  0
LINE
  5
130
100
AcDbEntity
  8
M0
 62
   234
100
AcDbLine
 10
81.276173
 20
136.453616
 11
81.276173
 21
57.759158
  0
LINE
  5
131
100
AcDbEntity
  8
M0
100
AcDbLine
 10
314.248533
 20
127.957148
 11
317.276817
 21
106.759158
  0
LINE
  5
132
100
AcDbEntity
  8
M0
100
AcDbLine
 10
317.276817
 20
106.759158
 11
317.276817
 21
91.359158
  0
LINE
  5
133
100
AcDbEntity
  8
M0
 62
     2
100
AcDbLine
 10
39.276173
 20
129.159158
 11
77.26462
 21
129.159158
  0
LINE
  5
134
100
AcDbEntity
  8
M0
 62
   234
100
AcDbLine
 10
303.276817
 20
113.759158
 11
348.076817
 21
113.759158
  0
LINE
  5
135
100
AcDbEntity
  8
M0
 62
   234
100
AcDbLine
 10
303.276817
 20
99.759158
 11
348.076817
 21
99.759158
  0
LINE
  5
136
100
AcDbEntity
  8
M0
 62
   234
100
AcDbLine
 10
348.076817
 20
57.759158
 11
303.276817
 21
57.759158
  0
LINE
  5
137
100
AcDbEntity
  8
M0
 62
   234
100
AcDbLine
 10
303.276817
 20
71.759158
 11
348.076817
 21
71.759158
  0
LINE
  5
138
100
AcDbEntity
  8
M0
 62
   234
100
AcDbLine
 10
303.276817
 20
85.759158
 11
347.993673
 21
85.759158
  0
LINE
  5
139
100
AcDbEntity
  8
M0
 62
   234
100
AcDbLine
 10
317.276817
 20
139.015021
 11
317.276817
 21
57.759158
  0
LINE
  5
13A
100
AcDbEntity
  8
M0
 62
   234
100
AcDbLine
 10
303.276817
 20
144.559158
 11
303.276817
 21
57.759158
  0
LINE
  5
13B
100
AcDbEntity
  8
M0
 62
   234
100
AcDbLine
 10
303.276817
 20
85.759158
 11
348.076817
 21
85.759158
  0
LINE
  5
13C
100
AcDbEntity
  8
M0
 62
   234
100
AcDbLine
 10
303.276817
 20
127.759158
 11
348.515197
 21
127.759158
  0
LINE
  5
13D
100
AcDbEntity
  8
M0
 62
   234
100
AcDbLine
 10
303.276817
 20
141.759158
 11
315.200651
 21
141.759158
  0
LINE
  5
13E
100
AcDbEntity
  8
M0
 62
   234
100
AcDbLine
 10
331.276817
 20
133.356492
 11
331.276817
 21
57.759158
  0
LINE
  5
13F
100
AcDbEntity
  8
M0
 62
   234
100
AcDbLine
 10
345.276817
 20
133.356492
 11
345.276817
 21
57.759158
  0
TEXT
  5
140
100
AcDbEntity
  8
M0
100
AcDbText
 10
331.428669
 20
48.585621
 40
3.6
  1
揚水量（Ｌ／分）
 41
0.63786
  7
STANDARD
100
AcDbText
  0
LINE
  5
141
100
AcDbEntity
  8
M0
 62
   234
100
AcDbLine
 10
174.391331
 20
251.947262
 11
174.391331
 21
181.947262
  0
LINE
  5
142
100
AcDbEntity
  8
M0
 62
   234
100
AcDbLine
 10
261.191331
 20
181.947262
 11
174.391331
 21
181.947262
  0
LINE
  5
143
100
AcDbEntity
  8
M0
 62
   234
100
AcDbLine
 10
188.391331
 20
251.947262
 11
188.391331
 21
181.947262
  0
LINE
  5
144
100
AcDbEntity
  8
M0
 62
   234
100
AcDbLine
 10
202.391331
 20
251.947262
 11
202.391331
 21
181.947262
  0
LINE
  5
145
100
AcDbEntity
  8
M0
 62
   234
100
AcDbLine
 10
174.391331
 20
195.947262
 11
261.191331
 21
195.947262
  0
LINE
  5
146
100
AcDbEntity
  8
M0
 62
   234
100
AcDbLine
 10
216.391331
 20
251.947262
 11
216.391331
 21
181.947262
  0
LINE
  5
147
100
AcDbEntity
  8
M0
 62
   234
100
AcDbLine
 10
174.391331
 20
209.947262
 11
261.191331
 21
209.947262
  0
LINE
  5
148
100
AcDbEntity
  8
M0
 62
   234
100
AcDbLine
 10
230.391331
 20
181.947262
 11
230.391331
 21
251.947262
  0
LINE
  5
149
100
AcDbEntity
  8
M0
 62
   234
100
AcDbLine
 10
174.391331
 20
237.947262
 11
261.191331
 21
237.947262
  0
LINE
  5
14A
100
AcDbEntity
  8
M0
 62
   234
100
AcDbLine
 10
174.391331
 20
251.947262
 11
230.391331
 21
251.947262
  0
LINE
  5
14B
100
AcDbEntity
  8
M0
 62
   234
100
AcDbLine
 10
261.191331
 20
223.947262
 11
244.391331
 21
223.947262
  0
LINE
  5
14C
100
AcDbEntity
  8
M0
 62
   234
100
AcDbLine
 10
244.391331
 20
181.947262
 11
244.391331
 21
240.458653
  0
LINE
  5
14D
100
AcDbEntity
  8
M0
 62
   234
100
AcDbLine
 10
258.391331
 20
181.947262
 11
258.391331
 21
239.769491
  0
TEXT
  5
14E
100
AcDbEntity
  8
M0
100
AcDbText
 10
67.428025
 20
48.585621
 40
3.6
  1
揚水量（Ｌ／分）
 41
0.63786
  7
STANDARD
100
AcDbText
  0
LINE
  5
14F
100
AcDbEntity
  8
M0
 62
     5
100
AcDbLine
 10
39.276173
 20
216.947262
 11
120.476173
 21
216.947262
  0
TEXT
  5
150
100
AcDbEntity
  8
M0
100
AcDbText
 10
31.063637
 20
202.738726
 40
3.6
  1
（　）
 50
90.000003
 41
0.63786
  7
STANDARD
100
AcDbText
  0
TEXT
  5
151
100
AcDbEntity
  8
M0
100
AcDbText
 10
27.795217
 20
220.347262
 40
3.6
  1
全
 41
0.833333
  7
STANDARD
100
AcDbText
  0
TEXT
  5
152
100
AcDbEntity
  8
M0
100
AcDbText
 10
27.795217
 20
216.591707
 40
3.6
  1
揚
 41
0.833333
  7
STANDARD
100
AcDbText
  0
TEXT
  5
153
100
AcDbEntity
  8
M0
100
AcDbText
 10
27.795217
 20
212.836151
 40
3.6
  1
程
 41
0.833333
  7
STANDARD
100
AcDbText
  0
TEXT
  5
154
100
AcDbEntity
  8
M0
100
AcDbText
 10
27.795217
 20
209.080596
 40
3.6
  1
　
 41
0.833333
  7
STANDARD
100
AcDbText
  0
TEXT
  5
155
100
AcDbEntity
  8
M0
100
AcDbText
 10
27.795217
 20
205.32504
 40
3.6
  1
ｍ
 41
0.833333
  7
STANDARD
100
AcDbText
  0
ENDSEC
  0
SECTION
  2
OBJECTS
  0
DICTIONARY
  5
C
100
AcDbDictionary
  3
ACAD_GROUP
350
D
  3
ACAD_MLINESTYLE
350
E
  0
DICTIONARY
  5
D
102
{ACAD_REACTORS
330
C
102
}
100
AcDbDictionary
  0
DICTIONARY
  5
E
102
{ACAD_REACTORS
330
C
102
}
100
AcDbDictionary
  3
STANDARD
350
13
  0
MLINESTYLE
  5
13
102
{ACAD_REACTORS
330
E
102
}
100
AcDbMlineStyle
  2
STANDARD
 70
     0
  3

 62
     0
 51
90.0
 52
90.0
 71
     2
 49
0.5
 62
   256
  6
BYLAYER
 49
-0.5
 62
   256
  6
BYLAYER
  0
ENDSEC
  0
EOF
