  0
SECTION
  2
HEADER
  9
$ACADVER
  1
AC1012
  9
$INSBASE
 10
0.000000
 20
0.000000
 30
0.0
  9
$VIEWCTR
 10
7.531722
 20
4.5
  9
$VIEWSIZE
 40
9.0
  9
$SNAPMODE
 70
     0
  9
$SNAPUNIT
 10
1.0
 20
1.0
  9
$SNAPBASE
 10
0.0
 20
0.0
  9
$SNAPANG
 50
0.0
  9
$SNAPSTYLE
 70
     0
  9
$SNAPISOPAIR
 70
     0
  9
$GRIDMODE
 70
     0
  9
$GRIDUNIT
 10
0.0
 20
0.0
  9
$ORTHOMODE
 70
     0
  9
$REGENMODE
 70
     1
  9
$FILLMODE
 70
     1
  9
$QTEXTMODE
 70
     0
  9
$DRAGMODE
 70
     2
  9
$LTSCALE
  40
     1.000000
  9
$OSMODE
 70
     0
  9
$ATTMODE
 70
     1
  9
$TEXTSIZE
 40
0.2
  9
$TRACEWID
 40
0.05
  9
$TEXTSTYLE
  7
STANDARD
  9
$CELTYPE
  6
BYLAYER
  9
$CECOLOR
 62
   256
  9
$DIMSCALE
 40
1.0
  9
$DIMASZ
 40
0.18
  9
$DIMEXO
 40
0.0625
  9
$DIMDLI
 40
0.38
  9
$DIMRND
 40
0.0
  9
$DIMDLE
 40
0.0
  9
$DIMEXE
 40
0.18
  9
$DIMTP
 40
0.0
  9
$DIMTM
 40
0.0
  9
$DIMTXT
 40
0.18
  9
$DIMCEN
 40
0.09
  9
$DIMTSZ
 40
0.0
  9
$DIMTOL
 70
     0
  9
$DIMLIM
 70
     0
  9
$DIMTIH
 70
     1
  9
$DIMTOH
 70
     1
  9
$DIMSE1
 70
     0
  9
$DIMSE2
 70
     0
  9
$DIMTAD
 70
     0
  9
$DIMZIN
 70
     0
  9
$DIMBLK
  1

  9
$LUNITS
 70
     2
  9
$LUPREC
 70
     4
  9
$AXISMODE
 70
     0
  9
$AXISUNIT
 10
0.0
 20
0.0
  9
$SKETCHINC
 40
0.1
  9
$FILLETRAD
 40
0.0
  9
$AUNITS
 70
     0
  9
$AUPREC
 70
     0
  9
$MENU
  1
ACAD
  9
$ELEVATION
 40
0.0
  9
$THICKNESS
 40
0.0
  9
$VIEWDIR
 10
0.0
 20
0.0
 30
1.0
  9
$LIMCHECK
 70
     0
  9
$BLIPMODE
 70
     1
  9
$CHAMFERA
 40
0.0
  9
$CHAMFERB
 40
0.0
  9
$FASTZOOM
 70
     1
  9
$SKPOLY
 70
     0
  9
$TDCREATE
 40
0000000.0000000000
  9
$TDUPDATE
 40
0000000.0000000000
  9
$TDINDWG
 40
0.0000000000
  9
$TDUSRTIMER
 40
0.0000000000
  9
$USRTIMER
 70
     1
  9
$ANGBASE
 50
0.0
  9
$ANGDIR
 70
     0
  9
$PDMODE
 70
     0
  9
$PDSIZE
 40
0.0
  9
$PLINEWID
 40
0.0
  9
$COORDS
 70
     0
  9
$USERI1
 70
     0
  9
$USERI2
 70
     0
  9
$USERI3
 70
     0
  9
$USERI4
 70
     0
  9
$USERI5
 70
     0
  9
$USERR1
 40
0.0
  9
$USERR2
 40
0.0
  9
$USERR3
 40
0.0
  9
$USERR4
 40
0.0
  9
$USERR5
 40
0.0
  9
$CLAYER
  8
M0
  9
$EXTMIN
 10
0.0
 20
0.0
  9
$EXTMAX
 10
420.0
 20
297.0
  9
$LIMMIN
 10
0.0
 20
0.0
  9
$LIMMAX
 10
420.0
 20
297.0
  9
$HANDSEED
  5
132
  0
ENDSEC
  0
SECTION
  2
CLASSES
  0
ENDSEC
  0
SECTION
  2
TABLES
  0
TABLE
  2
VPORT
  5
8
100
AcDbSymbolTable
 70
     2
  0
VPORT
  5
14
100
AcDbSymbolTableRecord
100
AcDbViewportTableRecord
  2
*ACTIVE
 70
     0
 10
0.0
 20
0.0
 11
1.0
 21
1.0
 12
484.0
 22
297.0
 13
0.0
 23
0.0
 14
1.0
 24
1.0
 15
0.0
 25
0.0
 16
0.0
 26
0.0
 36
1.0
 17
0.0
 27
0.0
 37
0.0
 40
594.0
 41
2.0
 42
50.0
 43
0.0
 44
0.0
 50
0.0
 51
0.0
 71
     0
 72
   100
 73
     1
 74
     1
 75
     0
 76
     0
 77
     0
 78
     0
  0
ENDTAB
  0
TABLE
  2
LTYPE
  5
5
100
AcDbSymbolTable
 70
     5
  0
LTYPE
  5
15
100
AcDbSymbolTableRecord
100
AcDbLinetypeTableRecord
  2
BYBLOCK
 70
     0
  3

 72
    65
 73
     0
 40
0.0
  0
LTYPE
  5
16
100
AcDbSymbolTableRecord
100
AcDbLinetypeTableRecord
  2
BYLAYER
 70
     0
  3

 72
    65
 73
     0
 40
0.0
  0
LTYPE
  5
17
100
AcDbSymbolTableRecord
100
AcDbLinetypeTableRecord
  2
CONTINUOUS
 70
    64
  3
Solid line
 72
    65
 73
     0
 40
0.0
  0
LTYPE
  5
18
100
AcDbSymbolTableRecord
100
AcDbLinetypeTableRecord
  2
DASHED
 70
    64
  3
__ __ __ __ __ __ __ __ __ __ __ __ __ __ __ __
 72
    65
 73
     2
 40
0.75
 49
0.5
 74
     0
 49
-0.25
 74
     0
  0
LTYPE
  5
19
100
AcDbSymbolTableRecord
100
AcDbLinetypeTableRecord
  2
DASHDOT
 70
    64
  3
__ . __ . __ . __ . __ . __ . __ . __ . __ . __
 72
    65
 73
     4
 40
1.0
 49
0.5
 74
     0
 49
-0.25
 74
     0
 49
0.0
 74
     0
 49
-0.25
 74
     0
  0
LTYPE
  5
1A
100
AcDbSymbolTableRecord
100
AcDbLinetypeTableRecord
  2
DIVIDE
 70
    64
  3
____ . . ____ . . ____ . . ____ . . ____ . . __
 72
    65
 73
     6
 40
1.25
 49
0.5
 74
     0
 49
-0.25
 74
     0
 49
0.0
 74
     0
 49
-0.25
 74
     0
 49
0.0
 74
     0
 49
-0.25
 74
     0
  0
LTYPE
  5
1B
100
AcDbSymbolTableRecord
100
AcDbLinetypeTableRecord
  2
DOT
 70
    64
  3
. . . . . . . . . . . . . . . . . . . . . . . .
 72
    65
 73
     2
 40
0.25
 49
0.0
 74
     0
 49
-0.25
 74
     0
  0
ENDTAB
  0
TABLE
  2
LAYER
  5
2
100
AcDbSymbolTable
 70
   102
  0
LAYER
  5
F
100
AcDbSymbolTableRecord
100
AcDbLayerTableRecord
  2
0
 70
     0
 62
     7
  6
CONTINUOUS
  0
LAYER
  5
1C
100
AcDbSymbolTableRecord
100
AcDbLayerTableRecord
  2
DEFPOINTS
 70
     0
 62
     7
  6
CONTINUOUS
  0
LAYER
  5
1D
100
AcDbSymbolTableRecord
100
AcDbLayerTableRecord
  2
M0
 70
     0
 62
     3
  6
CONTINUOUS
  0
LAYER
  5
1E
100
AcDbSymbolTableRecord
100
AcDbLayerTableRecord
  2
DD0
 70
     0
 62
     4
  6
CONTINUOUS
  0
ENDTAB
  0
TABLE
  2
STYLE
  5
3
100
AcDbSymbolTable
 70
     2
  0
STYLE
  5
10
100
AcDbSymbolTableRecord
100
AcDbTextStyleTableRecord
  2
STANDARD
 70
     0
 40
0.0
 41
1.0
 50
0.0
 71
     0
 42
0.2
  3
txt
  4
BIGFONT
  0
ENDTAB
  0
TABLE
  2
VIEW
  5
6
100
AcDbSymbolTable
 70
     0
  0
ENDTAB
  0
TABLE
  2
UCS
  5
7
100
AcDbSymbolTable
 70
     0
  0
ENDTAB
  0
TABLE
  2
APPID
  5
9
100
AcDbSymbolTable
 70
     1
  0
APPID
  5
11
100
AcDbSymbolTableRecord
100
AcDbRegAppTableRecord
  2
ACAD
 70
     0
  0
ENDTAB
  0
TABLE
  2
DIMSTYLE
  5
A
100
AcDbSymbolTable
 70
     2
  0
DIMSTYLE
105
25
100
AcDbSymbolTableRecord
100
AcDbDimStyleTableRecord
  2
STANDARD
 70
     0
  3

  4

  5

  6
_OPEN
  7
_OPEN
 40
1.0
 41
3.0
 42
0.0
 43
8.0
 44
1.5
 45
0.0
 46
0.0
 47
0.0
 48
0.0
140
3.5
141
0.09
142
0.0
143
0.03937
144
1.0
145
0.0
146
1.0
147
1.0
 71
     0
 72
     0
 73
     1
 74
     1
 75
     0
 76
     0
 77
     3
 78
     8
170
     0
171
     2
172
     0
173
     1
174
     0
175
     0
176
     0
177
     0
178
     0
270
     2
271
     2
272
     4
273
     2
274
     2
340
10
275
     0
280
     0
281
     0
282
     0
283
     1
284
     0
285
     0
286
     0
287
     3
288
     0
  0
DIMSTYLE
105
26
100
AcDbSymbolTableRecord
100
AcDbDimStyleTableRecord
  2
LEADSTYL
 70
     0
  3

  4

  5

  6
_OPEN
  7
_OPEN
 40
1.0
 41
3.0
 42
0.0625
 43
0.38
 44
0.18
 45
0.0
 46
0.0
 47
0.0
 48
0.0
140
3.2
141
0.09
142
0.0
143
25.4
144
1.0
145
0.0
146
1.0
147
1.0
 71
     0
 72
     0
 73
     1
 74
     1
 75
     0
 76
     0
 77
     0
 78
     0
170
     0
171
     2
172
     0
173
     1
174
     0
175
     0
176
     0
177
     0
178
     0
270
     2
271
     4
272
     4
273
     2
274
     2
340
10
275
     0
280
     0
281
     0
282
     0
283
     1
284
     0
285
     0
286
     0
287
     3
288
     0
  0
ENDTAB
  0
TABLE
  2
BLOCK_RECORD
  5
1
100
AcDbSymbolTable
 70
     8
  0
BLOCK_RECORD
  5
1F
100
AcDbSymbolTableRecord
100
AcDbBlockTableRecord
  2
*MODEL_SPACE
  0
BLOCK_RECORD
  5
22
100
AcDbSymbolTableRecord
100
AcDbBlockTableRecord
  2
*PAPER_SPACE
  0
BLOCK_RECORD
  5
27
100
AcDbSymbolTableRecord
100
AcDbBlockTableRecord
  2
_NONE
  0
BLOCK_RECORD
  5
2B
100
AcDbSymbolTableRecord
100
AcDbBlockTableRecord
  2
_OPEN
  0
BLOCK_RECORD
  5
31
100
AcDbSymbolTableRecord
100
AcDbBlockTableRecord
  2
_CLOSED
  0
BLOCK_RECORD
  5
38
100
AcDbSymbolTableRecord
100
AcDbBlockTableRecord
  2
_ORIGIN
  0
BLOCK_RECORD
  5
3D
100
AcDbSymbolTableRecord
100
AcDbBlockTableRecord
  2
_DOT
  0
BLOCK_RECORD
  5
45
100
AcDbSymbolTableRecord
100
AcDbBlockTableRecord
  2
_OBLIQUE
  0
BLOCK_RECORD
  5
6A
100
AcDbSymbolTableRecord
100
AcDbBlockTableRecord
  2
DIMS0
  0
BLOCK_RECORD
  5
72
100
AcDbSymbolTableRecord
100
AcDbBlockTableRecord
  2
DIMS1
  0
ENDTAB
  0
ENDSEC
  0
SECTION
  2
BLOCKS
  0
BLOCK
  5
20
100
AcDbEntity
  8
0
100
AcDbBlockBegin
  2
*MODEL_SPACE
 70
     0
 10
0.0
 20
0.0
 30
0.0
  3
*MODEL_SPACE
  1

  0
ENDBLK
  5
21
100
AcDbEntity
  8
0
100
AcDbBlockEnd
  0
BLOCK
  5
23
100
AcDbEntity
 67
     1
  8
0
100
AcDbBlockBegin
  2
*PAPER_SPACE
 70
     0
 10
0.0
 20
0.0
 30
0.0
  3
*PAPER_SPACE
  1

  0
ENDBLK
  5
24
100
AcDbEntity
 67
     1
  8
0
100
AcDbBlockEnd
  0
BLOCK
  5
28
100
AcDbEntity
  8
0
100
AcDbBlockBegin
  2
_NONE
 70
     0
 10
0.0
 20
0.0
  0
CIRCLE
  5
29
100
AcDbEntity
  8
0
 62
     0
100
AcDbCircle
 10
0.0
 20
0.0
 40
0.25
  0
ENDBLK
  5
2A
100
AcDbEntity
  8
0
100
AcDbBlockEnd
  0
BLOCK
  5
2C
100
AcDbEntity
  8
0
100
AcDbBlockBegin
  2
_OPEN
 70
     0
 10
0.0
 20
0.0
  0
LINE
  5
2D
100
AcDbEntity
  8
0
 62
     0
100
AcDbLine
 10
-0.965926
 20
0.258819
 11
0.0
 21
0.0
  0
LINE
  5
2E
100
AcDbEntity
  8
0
 62
     0
100
AcDbLine
 10
0.0
 20
0.0
 11
-0.965926
 21
-0.258819
  0
LINE
  5
2F
100
AcDbEntity
  8
0
 62
     0
100
AcDbLine
 10
0.0
 20
0.0
 11
-1.0
 21
0.0
  0
ENDBLK
  5
30
100
AcDbEntity
  8
0
100
AcDbBlockEnd
  0
BLOCK
  5
32
100
AcDbEntity
  8
0
100
AcDbBlockBegin
  2
_CLOSED
 70
     0
 10
0.0
 20
0.0
  0
LINE
  5
33
100
AcDbEntity
  8
0
 62
     0
100
AcDbLine
 10
-0.965926
 20
0.258819
 11
0.0
 21
0.0
  0
LINE
  5
34
100
AcDbEntity
  8
0
 62
     0
100
AcDbLine
 10
0.0
 20
0.0
 11
-0.965926
 21
-0.258819
  0
LINE
  5
35
100
AcDbEntity
  8
0
 62
     0
100
AcDbLine
 10
-0.965926
 20
0.258819
 11
-0.965926
 21
-0.258819
  0
LINE
  5
36
100
AcDbEntity
  8
0
 62
     0
100
AcDbLine
 10
0.0
 20
0.0
 11
-1.0
 21
0.0
  0
ENDBLK
  5
37
100
AcDbEntity
  8
0
100
AcDbBlockEnd
  0
BLOCK
  5
39
100
AcDbEntity
  8
0
100
AcDbBlockBegin
  2
_ORIGIN
 70
     0
 10
0.0
 20
0.0
  0
CIRCLE
  5
3A
100
AcDbEntity
  8
0
 62
     0
100
AcDbCircle
 10
0.0
 20
0.0
 40
0.5
  0
LINE
  5
3B
100
AcDbEntity
  8
0
 62
     0
100
AcDbLine
 10
0.0
 20
0.0
 11
-1.0
 21
0.0
  0
ENDBLK
  5
3C
100
AcDbEntity
  8
0
100
AcDbBlockEnd
  0
BLOCK
  5
3E
100
AcDbEntity
  8
0
100
AcDbBlockBegin
  2
_DOT
 70
     0
 10
0.0
 20
0.0
  0
POLYLINE
  5
3F
100
AcDbEntity
  8
0
 62
     0
100
AcDb2dPolyline
 66
     1
 70
     1
 40
0.5
 41
0.5
  0
VERTEX
  5
40
100
AcDbEntity
  8
0
 62
     0
100
AcDbVertex
100
AcDb2dVertex
 10
-0.25
 20
0.0
 42
1.0
  0
VERTEX
  5
41
100
AcDbEntity
  8
0
 62
     0
100
AcDbVertex
100
AcDb2dVertex
 10
0.25
 20
0.0
 42
1.0
  0
SEQEND
  5
42
100
AcDbEntity
  8
0
 62
     0
  0
LINE
  5
43
100
AcDbEntity
  8
0
 62
     0
100
AcDbLine
 10
-0.5
 20
0.0
 11
-1.0
 21
0.0
  0
ENDBLK
  5
44
100
AcDbEntity
  8
0
100
AcDbBlockEnd
  0
BLOCK
  5
46
100
AcDbEntity
  8
0
100
AcDbBlockBegin
  2
_OBLIQUE
 70
     0
 10
0.0
 20
0.0
  0
LINE
  5
47
100
AcDbEntity
  8
0
 62
     0
100
AcDbLine
 10
-0.353553
 20
-0.353553
 11
0.353553
 21
0.353553
  0
ENDBLK
  5
48
100
AcDbEntity
  8
0
100
AcDbBlockEnd
  0
BLOCK
  5
6B
100
AcDbEntity
  8
DD0
100
AcDbBlockBegin
  2
DIMS0
 70
     0
 10
0.0
 20
0.0
  0
LINE
  5
6C
100
AcDbEntity
  8
DD0
100
AcDbLine
 10
168.444809
 20
266.625
 11
170.444809
 21
270.625
  0
LINE
  5
6D
100
AcDbEntity
  8
DD0
100
AcDbLine
 10
170.444809
 20
270.625
 11
172.444809
 21
266.625
  0
LINE
  5
6E
100
AcDbEntity
  8
DD0
100
AcDbLine
 10
172.444809
 20
266.625
 11
168.444809
 21
266.625
  0
TEXT
  5
6F
100
AcDbEntity
  8
DD0
100
AcDbText
 10
169.728142
 20
266.945001
 40
1.8
  1
Ａ
 41
0.796296
  7
STANDARD
100
AcDbText
  0
ENDBLK
  5
70
100
AcDbEntity
  8
DD0
100
AcDbBlockEnd
  0
BLOCK
  5
73
100
AcDbEntity
  8
DD0
100
AcDbBlockBegin
  2
DIMS1
 70
     0
 10
0.0
 20
0.0
  0
LINE
  5
74
100
AcDbEntity
  8
DD0
100
AcDbLine
 10
45.844154
 20
266.874176
 11
47.844154
 21
270.874176
  0
LINE
  5
75
100
AcDbEntity
  8
DD0
100
AcDbLine
 10
47.844154
 20
270.874176
 11
49.844154
 21
266.874176
  0
LINE
  5
76
100
AcDbEntity
  8
DD0
100
AcDbLine
 10
49.844154
 20
266.874176
 11
45.844154
 21
266.874176
  0
TEXT
  5
77
100
AcDbEntity
  8
DD0
100
AcDbText
 10
47.127488
 20
267.194177
 40
1.8
  1
Ａ
 41
0.796296
  7
STANDARD
100
AcDbText
  0
ENDBLK
  5
78
100
AcDbEntity
  8
DD0
100
AcDbBlockEnd
  0
ENDSEC
  0
SECTION
  2
ENTITIES
  0
LEADER
  5
49
100
AcDbEntity
  8
DD0
100
AcDbLeader
  3
LEADSTYL
 76
     3
 10
178.637131
 20
117.958733
 10
192.261978
 20
134.273117
 10
236.261978
 20
134.273117
340
4A
 77
     4
  0
TEXT
  5
4A
100
AcDbEntity
  8
DD0
100
AcDbText
 10
193.553645
 20
135.273117
 40
3.5
  1
運転圧力：「高」
 41
0.833333
  7
STANDARD
100
AcDbText
  0
TEXT
  5
4B
100
AcDbEntity
  8
DD0
100
AcDbText
 10
193.553645
 20
129.773117
 40
3.5
  1
（制御圧力２５０ｋＰａ）
 41
0.833333
  7
STANDARD
100
AcDbText
  0
LEADER
  5
4C
100
AcDbEntity
  8
DD0
100
AcDbLeader
  3
LEADSTYL
 76
     3
 10
181.066635
 20
112.358734
 10
192.214539
 20
120.646584
 10
236.214539
 20
120.646584
340
4D
 77
     4
  0
TEXT
  5
4D
100
AcDbEntity
  8
DD0
100
AcDbText
 10
193.506205
 20
121.646584
 40
3.5
  1
運転圧力「標準」
 41
0.833333
  7
STANDARD
100
AcDbText
  0
TEXT
  5
4E
100
AcDbEntity
  8
DD0
100
AcDbText
 10
193.506205
 20
116.146584
 40
3.5
  1
（制御圧力２１０ｋＰａ）
 41
0.833333
  7
STANDARD
100
AcDbText
  0
LEADER
  5
4F
100
AcDbEntity
  8
DD0
100
AcDbLeader
  3
LEADSTYL
 76
     3
 10
61.156403
 20
112.359161
 10
73.068977
 20
120.703415
 10
117.068977
 20
120.703415
340
50
 77
     4
  0
TEXT
  5
50
100
AcDbEntity
  8
DD0
100
AcDbText
 10
74.360644
 20
121.703415
 40
3.5
  1
運転圧力：「低」
 41
0.833333
  7
STANDARD
100
AcDbText
  0
TEXT
  5
51
100
AcDbEntity
  8
DD0
100
AcDbText
 10
74.360644
 20
116.203415
 40
3.5
  1
（制御圧力１５０ｋＰａ）
 41
0.833333
  7
STANDARD
100
AcDbText
  0
LEADER
  5
52
100
AcDbEntity
  8
DD0
100
AcDbLeader
  3
LEADSTYL
 76
     3
 10
58.543606
 20
120.759155
 10
65.941124
 20
134.759155
 10
109.941124
 20
134.759155
340
53
 77
     4
  0
TEXT
  5
53
100
AcDbEntity
  8
DD0
100
AcDbText
 10
67.232791
 20
135.759155
 40
3.5
  1
運転圧力：「標準」
 41
0.833333
  7
STANDARD
100
AcDbText
  0
TEXT
  5
54
100
AcDbEntity
  8
DD0
100
AcDbText
 10
67.232791
 20
130.259155
 40
3.5
  1
（制御圧力２１０ｋＰａ）
 41
0.833333
  7
STANDARD
100
AcDbText
  0
LEADER
  5
55
100
AcDbEntity
  8
DD0
100
AcDbLeader
  3
LEADSTYL
 76
     3
 10
181.018417
 20
234.26619
 10
202.352234
 20
252.466202
 10
246.352234
 20
252.466202
340
56
 77
     4
  0
TEXT
  5
56
100
AcDbEntity
  8
DD0
100
AcDbText
 10
203.643901
 20
253.466202
 40
3.5
  1
運転圧力：「高」
 41
0.833333
  7
STANDARD
100
AcDbText
  0
TEXT
  5
57
100
AcDbEntity
  8
DD0
100
AcDbText
 10
203.643901
 20
247.966202
 40
3.5
  1
（制御圧力２５０ｋＰａ）
 41
0.833333
  7
STANDARD
100
AcDbText
  0
LEADER
  5
58
100
AcDbEntity
  8
DD0
100
AcDbLeader
  3
LEADSTYL
 76
     3
 10
197.498734
 20
220.26619
 10
214.104172
 20
224.466202
 10
258.104187
 20
224.466202
340
59
 77
     4
  0
TEXT
  5
59
100
AcDbEntity
  8
DD0
100
AcDbText
 10
215.395838
 20
225.466202
 40
3.5
  1
運転圧力：「低」
 41
0.833333
  7
STANDARD
100
AcDbText
  0
TEXT
  5
5A
100
AcDbEntity
  8
DD0
100
AcDbText
 10
215.395838
 20
219.966202
 40
3.5
  1
（制御圧力１５０ｋＰａ）
 41
0.833333
  7
STANDARD
100
AcDbText
  0
LEADER
  5
5B
100
AcDbEntity
  8
DD0
100
AcDbLeader
  3
LEADSTYL
 76
     3
 10
188.417206
 20
229.086197
 10
208.730743
 20
238.466202
 10
252.730743
 20
238.466202
340
5C
 77
     4
  0
TEXT
  5
5C
100
AcDbEntity
  8
DD0
100
AcDbText
 10
210.02241
 20
239.466202
 40
3.5
  1
運転圧力：「標準」
 41
0.833333
  7
STANDARD
100
AcDbText
  0
TEXT
  5
5D
100
AcDbEntity
  8
DD0
100
AcDbText
 10
210.02241
 20
233.966202
 40
3.5
  1
（制御圧力２１０ｋＰａ）
 41
0.833333
  7
STANDARD
100
AcDbText
  0
LEADER
  5
5E
100
AcDbEntity
  8
DD0
100
AcDbLeader
  3
LEADSTYL
 76
     3
 10
72.01178
 20
212.747269
 10
102.067131
 20
223.94725
 10
146.067139
 20
223.94725
340
5F
 77
     4
  0
TEXT
  5
5F
100
AcDbEntity
  8
DD0
100
AcDbText
 10
103.358798
 20
224.94725
 40
3.5
  1
運転圧力：「低」
 41
0.833333
  7
STANDARD
100
AcDbText
  0
TEXT
  5
60
100
AcDbEntity
  8
DD0
100
AcDbText
 10
103.358798
 20
219.44725
 40
3.5
  1
（制御圧力１５０ｋＰａ）
 41
0.833333
  7
STANDARD
100
AcDbText
  0
LEADER
  5
61
100
AcDbEntity
  8
DD0
100
AcDbLeader
  3
LEADSTYL
 76
     3
 10
62.928055
 20
221.147263
 10
91.057167
 20
237.94725
 10
135.057175
 20
237.94725
340
62
 77
     4
  0
TEXT
  5
62
100
AcDbEntity
  8
DD0
100
AcDbText
 10
92.348834
 20
238.94725
 40
3.5
  1
運転圧力：「標準」
 41
0.833333
  7
STANDARD
100
AcDbText
  0
TEXT
  5
63
100
AcDbEntity
  8
DD0
100
AcDbText
 10
92.348834
 20
233.44725
 40
3.5
  1
（制御圧力２１０ｋＰａ）
 41
0.833333
  7
STANDARD
100
AcDbText
  0
LEADER
  5
64
100
AcDbEntity
  8
DD0
100
AcDbLeader
  3
LEADSTYL
 76
     3
 10
61.431957
 20
226.747269
 10
80.620155
 20
251.947266
 10
124.620155
 20
251.947266
340
65
 77
     4
  0
TEXT
  5
65
100
AcDbEntity
  8
DD0
100
AcDbText
 10
81.911822
 20
252.947266
 40
3.5
  1
運転圧力：「高」
 41
0.833333
  7
STANDARD
100
AcDbText
  0
TEXT
  5
66
100
AcDbEntity
  8
DD0
100
AcDbText
 10
81.911822
 20
247.447266
 40
3.5
  1
（制御圧力２５０ｋＰａ）
 41
0.833333
  7
STANDARD
100
AcDbText
  0
LEADER
  5
67
100
AcDbEntity
  8
DD0
100
AcDbLeader
  3
LEADSTYL
 76
     3
 10
184.349411
 20
103.958733
 10
193.769562
 20
107.101204
 10
237.769562
 20
107.101204
340
68
 77
     4
  0
TEXT
  5
68
100
AcDbEntity
  8
DD0
100
AcDbText
 10
195.061228
 20
108.101204
 40
3.5
  1
運転圧力：「低」
 41
0.833333
  7
STANDARD
100
AcDbText
  0
TEXT
  5
69
100
AcDbEntity
  8
DD0
100
AcDbText
 10
195.061228
 20
102.601204
 40
3.5
  1
（制御圧力１５０ｋＰａ）
 41
0.833333
  7
STANDARD
100
AcDbText
  0
INSERT
  5
71
100
AcDbEntity
  8
DD0
100
AcDbBlockReference
  2
DIMS0
 10
0.0
 20
0.0
  0
INSERT
  5
79
100
AcDbEntity
  8
DD0
100
AcDbBlockReference
  2
DIMS1
 10
0.0
 20
0.0
  0
LINE
  5
7A
100
AcDbEntity
  8
M0
100
AcDbLine
 10
60.677492
 20
282.511416
 11
30.677493
 21
282.511416
  0
LINE
  5
7B
100
AcDbEntity
  8
M0
100
AcDbLine
 10
60.677492
 20
272.511416
 11
60.677492
 21
282.511416
  0
LINE
  5
7C
100
AcDbEntity
  8
M0
100
AcDbLine
 10
30.677493
 20
272.511416
 11
60.677492
 21
272.511416
  0
LINE
  5
7D
100
AcDbEntity
  8
M0
100
AcDbLine
 10
30.677493
 20
282.511416
 11
30.677493
 21
272.511416
  0
TEXT
  5
7E
100
AcDbEntity
  8
M0
100
AcDbText
 10
33.104159
 20
274.011416
 40
7.0
  1
揚水性能
 41
0.780952
  7
STANDARD
100
AcDbText
  0
TEXT
  5
7F
100
AcDbEntity
  8
M0
100
AcDbText
 10
80.092971
 20
48.585621
 40
3.6
  1
揚水量（Ｌ／分）
 41
0.63786
  7
STANDARD
100
AcDbText
  0
TEXT
  5
80
100
AcDbEntity
  8
M0
100
AcDbText
 10
48.665844
 20
55.686079
 40
3.6
  1
０
 41
0.601852
  7
STANDARD
100
AcDbText
  0
TEXT
  5
81
100
AcDbEntity
  8
M0
100
AcDbText
 10
46.317101
 20
70.050135
 40
3.6
  1
１０
 41
0.601852
  7
STANDARD
100
AcDbText
  0
TEXT
  5
82
100
AcDbEntity
  8
M0
100
AcDbText
 10
46.317101
 20
84.050141
 40
3.6
  1
２０
 41
0.601852
  7
STANDARD
100
AcDbText
  0
TEXT
  5
83
100
AcDbEntity
  8
M0
100
AcDbText
 10
46.317101
 20
98.050141
 40
3.6
  1
３０
 41
0.601852
  7
STANDARD
100
AcDbText
  0
TEXT
  5
84
100
AcDbEntity
  8
M0
100
AcDbText
 10
46.215551
 20
111.962043
 40
3.6
  1
４０
 41
0.601852
  7
STANDARD
100
AcDbText
  0
TEXT
  5
85
100
AcDbEntity
  8
M0
100
AcDbText
 10
46.215551
 20
125.962043
 40
3.6
  1
５０
 41
0.601852
  7
STANDARD
100
AcDbText
  0
TEXT
  5
86
100
AcDbEntity
  8
M0
100
AcDbText
 10
53.700938
 20
142.333044
 40
3.528
  1
吸上高さ２４ｍ時
 41
0.777778
  7
STANDARD
100
AcDbText
  0
TEXT
  5
87
100
AcDbEntity
  8
M0
100
AcDbText
 10
50.273741
 20
147.268218
 40
3.528
  1
【深井戸ジェットＪ２５－２４Ｘ組合わせ時】
 41
0.777778
  7
STANDARD
100
AcDbText
  0
LINE
  5
88
100
AcDbEntity
  8
M0
 62
   234
100
AcDbLine
 10
51.941119
 20
241.266196
 11
51.941119
 21
181.947262
  0
LINE
  5
89
100
AcDbEntity
  8
M0
 62
   234
100
AcDbLine
 10
126.762166
 20
181.947262
 11
51.941119
 21
181.947262
  0
LINE
  5
8A
100
AcDbEntity
  8
M0
 62
   234
100
AcDbLine
 10
65.941119
 20
241.266196
 11
65.941119
 21
181.947262
  0
LINE
  5
8B
100
AcDbEntity
  8
M0
 62
   234
100
AcDbLine
 10
79.941119
 20
241.266196
 11
79.941119
 21
181.947262
  0
LINE
  5
8C
100
AcDbEntity
  8
M0
 62
   234
100
AcDbLine
 10
51.941119
 20
195.947262
 11
126.762166
 21
195.947262
  0
LINE
  5
8D
100
AcDbEntity
  8
M0
 62
   234
100
AcDbLine
 10
51.941119
 20
209.947262
 11
104.516945
 21
209.947262
  0
LINE
  5
8E
100
AcDbEntity
  8
M0
 62
   234
100
AcDbLine
 10
51.941119
 20
223.947262
 11
105.19291
 21
223.947262
  0
LINE
  5
8F
100
AcDbEntity
  8
M0
 62
   234
100
AcDbLine
 10
93.941119
 20
231.951761
 11
93.941119
 21
181.947262
  0
LINE
  5
90
100
AcDbEntity
  8
M0
 62
   234
100
AcDbLine
 10
51.941119
 20
209.947262
 11
126.762166
 21
209.947262
  0
LINE
  5
91
100
AcDbEntity
  8
M0
 62
   234
100
AcDbLine
 10
107.941119
 20
181.947262
 11
107.941119
 21
218.847962
  0
LINE
  5
92
100
AcDbEntity
  8
M0
 62
   234
100
AcDbLine
 10
51.941119
 20
237.947262
 11
92.713101
 21
237.947262
  0
LINE
  5
93
100
AcDbEntity
  8
M0
 62
   234
100
AcDbLine
 10
121.941119
 20
181.947262
 11
121.941119
 21
218.847962
  0
LINE
  5
94
100
AcDbEntity
  8
M0
 62
   234
100
AcDbLine
 10
121.941119
 20
229.455799
 11
121.941119
 21
231.951761
  0
LINE
  5
95
100
AcDbEntity
  8
M0
 62
   234
100
AcDbLine
 10
107.941119
 20
229.455799
 11
107.941119
 21
231.951761
  0
TEXT
  5
96
100
AcDbEntity
  8
M0
100
AcDbText
 10
50.781713
 20
53.086079
 40
3.6
  1
０
 41
0.601852
  7
STANDARD
100
AcDbText
  0
TEXT
  5
97
100
AcDbEntity
  8
M0
100
AcDbText
 10
63.799303
 20
53.086079
 40
3.6
  1
１０
 41
0.601852
  7
STANDARD
100
AcDbText
  0
TEXT
  5
98
100
AcDbEntity
  8
M0
100
AcDbText
 10
77.799303
 20
53.086079
 40
3.6
  1
２０
 41
0.601852
  7
STANDARD
100
AcDbText
  0
TEXT
  5
99
100
AcDbEntity
  8
M0
100
AcDbText
 10
91.799297
 20
53.086079
 40
3.6
  1
３０
 41
0.601852
  7
STANDARD
100
AcDbText
  0
TEXT
  5
9A
100
AcDbEntity
  8
M0
100
AcDbText
 10
105.799297
 20
53.086079
 40
3.6
  1
４０
 41
0.601852
  7
STANDARD
100
AcDbText
  0
TEXT
  5
9B
100
AcDbEntity
  8
M0
100
AcDbText
 10
119.799297
 20
53.086079
 40
3.6
  1
５０
 41
0.601852
  7
STANDARD
100
AcDbText
  0
TEXT
  5
9C
100
AcDbEntity
  8
M0
100
AcDbText
 10
165.74963
 20
203.25766
 40
3.6
  1
（　）
 50
90.000003
 41
0.63786
  7
STANDARD
100
AcDbText
  0
TEXT
  5
9D
100
AcDbEntity
  8
M0
100
AcDbText
 10
162.48121
 20
220.866196
 40
3.6
  1
全
 41
0.833333
  7
STANDARD
100
AcDbText
  0
TEXT
  5
9E
100
AcDbEntity
  8
M0
100
AcDbText
 10
162.48121
 20
217.110641
 40
3.6
  1
揚
 41
0.833333
  7
STANDARD
100
AcDbText
  0
TEXT
  5
9F
100
AcDbEntity
  8
M0
100
AcDbText
 10
162.48121
 20
213.355085
 40
3.6
  1
程
 41
0.833333
  7
STANDARD
100
AcDbText
  0
TEXT
  5
A0
100
AcDbEntity
  8
M0
100
AcDbText
 10
162.48121
 20
209.59953
 40
3.6
  1
　
 41
0.833333
  7
STANDARD
100
AcDbText
  0
TEXT
  5
A1
100
AcDbEntity
  8
M0
100
AcDbText
 10
162.48121
 20
205.843974
 40
3.6
  1
ｍ
 41
0.833333
  7
STANDARD
100
AcDbText
  0
TEXT
  5
A2
100
AcDbEntity
  8
M0
100
AcDbText
 10
170.68689
 20
180.393117
 40
3.6
  1
０
 41
0.601852
  7
STANDARD
100
AcDbText
  0
TEXT
  5
A3
100
AcDbEntity
  8
M0
100
AcDbText
 10
168.338147
 20
194.757173
 40
3.6
  1
１０
 41
0.601852
  7
STANDARD
100
AcDbText
  0
TEXT
  5
A4
100
AcDbEntity
  8
M0
100
AcDbText
 10
168.338147
 20
208.757179
 40
3.6
  1
２０
 41
0.601852
  7
STANDARD
100
AcDbText
  0
TEXT
  5
A5
100
AcDbEntity
  8
M0
100
AcDbText
 10
168.338147
 20
222.757179
 40
3.6
  1
３０
 41
0.601852
  7
STANDARD
100
AcDbText
  0
TEXT
  5
A6
100
AcDbEntity
  8
M0
100
AcDbText
 10
168.236597
 20
236.669081
 40
3.6
  1
４０
 41
0.601852
  7
STANDARD
100
AcDbText
  0
TEXT
  5
A7
100
AcDbEntity
  8
M0
100
AcDbText
 10
202.114018
 20
173.292659
 40
3.6
  1
揚水量（Ｌ／分）
 41
0.63786
  7
STANDARD
100
AcDbText
  0
TEXT
  5
A8
100
AcDbEntity
  8
M0
100
AcDbText
 10
172.802759
 20
177.793117
 40
3.6
  1
０
 41
0.601852
  7
STANDARD
100
AcDbText
  0
TEXT
  5
A9
100
AcDbEntity
  8
M0
100
AcDbText
 10
185.820346
 20
177.793117
 40
3.6
  1
１０
 41
0.601852
  7
STANDARD
100
AcDbText
  0
TEXT
  5
AA
100
AcDbEntity
  8
M0
100
AcDbText
 10
199.820348
 20
177.793117
 40
3.6
  1
２０
 41
0.601852
  7
STANDARD
100
AcDbText
  0
TEXT
  5
AB
100
AcDbEntity
  8
M0
100
AcDbText
 10
213.820345
 20
177.793117
 40
3.6
  1
３０
 41
0.601852
  7
STANDARD
100
AcDbText
  0
TEXT
  5
AC
100
AcDbEntity
  8
M0
100
AcDbText
 10
227.820342
 20
177.793117
 40
3.6
  1
４０
 41
0.601852
  7
STANDARD
100
AcDbText
  0
TEXT
  5
AD
100
AcDbEntity
  8
M0
100
AcDbText
 10
241.820342
 20
177.793117
 40
3.6
  1
５０
 41
0.601852
  7
STANDARD
100
AcDbText
  0
TEXT
  5
AE
100
AcDbEntity
  8
M0
100
AcDbText
 10
43.728583
 20
202.738726
 40
3.6
  1
（　）
 50
90.000003
 41
0.63786
  7
STANDARD
100
AcDbText
  0
TEXT
  5
AF
100
AcDbEntity
  8
M0
100
AcDbText
 10
40.460163
 20
220.347262
 40
3.6
  1
全
 41
0.833333
  7
STANDARD
100
AcDbText
  0
TEXT
  5
B0
100
AcDbEntity
  8
M0
100
AcDbText
 10
40.460163
 20
216.591707
 40
3.6
  1
揚
 41
0.833333
  7
STANDARD
100
AcDbText
  0
TEXT
  5
B1
100
AcDbEntity
  8
M0
100
AcDbText
 10
40.460163
 20
212.836151
 40
3.6
  1
程
 41
0.833333
  7
STANDARD
100
AcDbText
  0
TEXT
  5
B2
100
AcDbEntity
  8
M0
100
AcDbText
 10
40.460163
 20
209.080596
 40
3.6
  1
　
 41
0.833333
  7
STANDARD
100
AcDbText
  0
TEXT
  5
B3
100
AcDbEntity
  8
M0
100
AcDbText
 10
40.460163
 20
205.32504
 40
3.6
  1
ｍ
 41
0.833333
  7
STANDARD
100
AcDbText
  0
TEXT
  5
B4
100
AcDbEntity
  8
M0
100
AcDbText
 10
48.665843
 20
179.874183
 40
3.6
  1
０
 41
0.601852
  7
STANDARD
100
AcDbText
  0
TEXT
  5
B5
100
AcDbEntity
  8
M0
100
AcDbText
 10
46.317101
 20
194.238239
 40
3.6
  1
１０
 41
0.601852
  7
STANDARD
100
AcDbText
  0
TEXT
  5
B6
100
AcDbEntity
  8
M0
100
AcDbText
 10
46.317101
 20
208.238245
 40
3.6
  1
２０
 41
0.601852
  7
STANDARD
100
AcDbText
  0
TEXT
  5
B7
100
AcDbEntity
  8
M0
100
AcDbText
 10
46.317101
 20
222.238245
 40
3.6
  1
３０
 41
0.601852
  7
STANDARD
100
AcDbText
  0
TEXT
  5
B8
100
AcDbEntity
  8
M0
100
AcDbText
 10
46.21555
 20
236.150147
 40
3.6
  1
４０
 41
0.601852
  7
STANDARD
100
AcDbText
  0
TEXT
  5
B9
100
AcDbEntity
  8
M0
100
AcDbText
 10
80.092971
 20
172.773725
 40
3.6
  1
揚水量（Ｌ／分）
 41
0.63786
  7
STANDARD
100
AcDbText
  0
LINE
  5
BA
100
AcDbEntity
  8
M0
100
AcDbLine
 10
63.515887
 20
119.943908
 11
69.313152
 21
107.332866
  0
ARC
  5
BB
100
AcDbEntity
  8
M0
100
AcDbCircle
 10
68.041119
 20
106.748116
 40
1.4
100
AcDbArc
 50
0.0
 51
31.773472
  0
LINE
  5
BC
100
AcDbEntity
  8
M0
100
AcDbLine
 10
69.441119
 20
106.748116
 11
69.441119
 21
98.359158
  0
TEXT
  5
BD
100
AcDbEntity
  8
M0
100
AcDbText
 10
170.665813
 20
55.685651
 40
3.6
  1
０
 41
0.601852
  7
STANDARD
100
AcDbText
  0
TEXT
  5
BE
100
AcDbEntity
  8
M0
100
AcDbText
 10
168.317071
 20
70.049707
 40
3.6
  1
１０
 41
0.601852
  7
STANDARD
100
AcDbText
  0
TEXT
  5
BF
100
AcDbEntity
  8
M0
100
AcDbText
 10
168.317071
 20
84.049714
 40
3.6
  1
２０
 41
0.601852
  7
STANDARD
100
AcDbText
  0
TEXT
  5
C0
100
AcDbEntity
  8
M0
100
AcDbText
 10
168.317071
 20
98.049714
 40
3.6
  1
３０
 41
0.601852
  7
STANDARD
100
AcDbText
  0
TEXT
  5
C1
100
AcDbEntity
  8
M0
100
AcDbText
 10
168.21552
 20
111.961618
 40
3.6
  1
４０
 41
0.601852
  7
STANDARD
100
AcDbText
  0
TEXT
  5
C2
100
AcDbEntity
  8
M0
100
AcDbText
 10
168.21552
 20
125.961618
 40
3.6
  1
５０
 41
0.601852
  7
STANDARD
100
AcDbText
  0
TEXT
  5
C3
100
AcDbEntity
  8
M0
100
AcDbText
 10
202.092941
 20
48.585193
 40
3.6
  1
揚水量（Ｌ／分）
 41
0.63786
  7
STANDARD
100
AcDbText
  0
TEXT
  5
C4
100
AcDbEntity
  8
M0
100
AcDbText
 10
175.700908
 20
142.332616
 40
3.528
  1
吸上高さ１８ｍ時
 41
0.777778
  7
STANDARD
100
AcDbText
  0
TEXT
  5
C5
100
AcDbEntity
  8
M0
100
AcDbText
 10
172.27371
 20
147.267791
 40
3.528
  1
【深井戸用特殊ジェットＪ２５－１８ＳＸ組合せ時】
 41
0.777778
  7
STANDARD
100
AcDbText
  0
TEXT
  5
C6
100
AcDbEntity
  8
M0
100
AcDbText
 10
165.728553
 20
78.550194
 40
3.6
  1
（　）
 50
90.000003
 41
0.63786
  7
STANDARD
100
AcDbText
  0
TEXT
  5
C7
100
AcDbEntity
  8
M0
100
AcDbText
 10
162.460133
 20
96.15873
 40
3.6
  1
全
 41
0.833333
  7
STANDARD
100
AcDbText
  0
TEXT
  5
C8
100
AcDbEntity
  8
M0
100
AcDbText
 10
162.460133
 20
92.403175
 40
3.6
  1
揚
 41
0.833333
  7
STANDARD
100
AcDbText
  0
TEXT
  5
C9
100
AcDbEntity
  8
M0
100
AcDbText
 10
162.460133
 20
88.647619
 40
3.6
  1
程
 41
0.833333
  7
STANDARD
100
AcDbText
  0
TEXT
  5
CA
100
AcDbEntity
  8
M0
100
AcDbText
 10
162.460133
 20
84.892064
 40
3.6
  1
　
 41
0.833333
  7
STANDARD
100
AcDbText
  0
TEXT
  5
CB
100
AcDbEntity
  8
M0
100
AcDbText
 10
162.460133
 20
81.136509
 40
3.6
  1
ｍ
 41
0.833333
  7
STANDARD
100
AcDbText
  0
LINE
  5
CC
100
AcDbEntity
  8
M0
 62
     2
100
AcDbLine
 10
173.941088
 20
117.95873
 11
182.314559
 21
117.95873
  0
LINE
  5
CD
100
AcDbEntity
  8
M0
100
AcDbLine
 10
189.341088
 20
98.276514
 11
189.341088
 21
91.35873
  0
ARC
  5
CE
100
AcDbEntity
  8
M0
100
AcDbCircle
 10
187.941088
 20
98.276514
 40
1.4
100
AcDbArc
 50
1.861079E-012
 51
17.106254
  0
LINE
  5
CF
100
AcDbEntity
  8
M0
100
AcDbLine
 10
189.279153
 20
98.688316
 11
183.652624
 21
116.970533
  0
LINE
  5
D0
100
AcDbEntity
  8
M0
100
AcDbLine
 10
173.941088
 20
112.35873
 11
184.038013
 21
112.35873
  0
ARC
  5
D1
100
AcDbEntity
  8
M0
100
AcDbCircle
 10
184.038013
 20
110.95873
 40
1.4
100
AcDbArc
 50
17.106254
 51
90.0
  0
ARC
  5
D2
100
AcDbEntity
  8
M0
100
AcDbCircle
 10
182.314559
 20
116.55873
 40
1.4
100
AcDbArc
 50
17.106254
 51
90.0
  0
LINE
  5
D3
100
AcDbEntity
  8
M0
 62
   234
100
AcDbLine
 10
173.941088
 20
113.75873
 11
246.741088
 21
113.75873
  0
LINE
  5
D4
100
AcDbEntity
  8
M0
 62
   234
100
AcDbLine
 10
173.941088
 20
99.75873
 11
246.741088
 21
99.75873
  0
LINE
  5
D5
100
AcDbEntity
  8
M0
 62
   234
100
AcDbLine
 10
246.741088
 20
57.75873
 11
173.941088
 21
57.75873
  0
LINE
  5
D6
100
AcDbEntity
  8
M0
 62
   234
100
AcDbLine
 10
173.941088
 20
71.75873
 11
246.741088
 21
71.75873
  0
LINE
  5
D7
100
AcDbEntity
  8
M0
 62
   234
100
AcDbLine
 10
173.941088
 20
85.75873
 11
217.691088
 21
85.75873
  0
LINE
  5
D8
100
AcDbEntity
  8
M0
 62
   234
100
AcDbLine
 10
187.941088
 20
129.092783
 11
187.941088
 21
57.75873
  0
LINE
  5
D9
100
AcDbEntity
  8
M0
 62
   234
100
AcDbLine
 10
173.941088
 20
130.55873
 11
173.941088
 21
57.75873
  0
LINE
  5
DA
100
AcDbEntity
  8
M0
 62
   234
100
AcDbLine
 10
173.941088
 20
85.75873
 11
246.741088
 21
85.75873
  0
LINE
  5
DB
100
AcDbEntity
  8
M0
 62
   234
100
AcDbLine
 10
173.941088
 20
127.75873
 11
246.741088
 21
127.75873
  0
LINE
  5
DC
100
AcDbEntity
  8
M0
 62
   234
100
AcDbLine
 10
243.941088
 20
130.55873
 11
243.941088
 21
57.75873
  0
LINE
  5
DD
100
AcDbEntity
  8
M0
 62
   234
100
AcDbLine
 10
201.941088
 20
115.282073
 11
201.941088
 21
112.295978
  0
LINE
  5
DE
100
AcDbEntity
  8
M0
 62
   234
100
AcDbLine
 10
215.941088
 20
115.153001
 11
215.941088
 21
112.234013
  0
LINE
  5
DF
100
AcDbEntity
  8
M0
 62
   234
100
AcDbLine
 10
229.941088
 20
115.346609
 11
229.941088
 21
112.295978
  0
LINE
  5
E0
100
AcDbEntity
  8
M0
 62
   234
100
AcDbLine
 10
201.941088
 20
101.080304
 11
201.941088
 21
57.75873
  0
LINE
  5
E1
100
AcDbEntity
  8
M0
 62
   234
100
AcDbLine
 10
215.941088
 20
101.63799
 11
215.941088
 21
57.75873
  0
LINE
  5
E2
100
AcDbEntity
  8
M0
 62
   234
100
AcDbLine
 10
229.941088
 20
101.76192
 11
229.941088
 21
57.75873
  0
TEXT
  5
E3
100
AcDbEntity
  8
M0
100
AcDbText
 10
172.781682
 20
53.085651
 40
3.6
  1
０
 41
0.601852
  7
STANDARD
100
AcDbText
  0
TEXT
  5
E4
100
AcDbEntity
  8
M0
100
AcDbText
 10
185.799267
 20
53.085651
 40
3.6
  1
１０
 41
0.601852
  7
STANDARD
100
AcDbText
  0
TEXT
  5
E5
100
AcDbEntity
  8
M0
100
AcDbText
 10
199.799273
 20
53.085651
 40
3.6
  1
２０
 41
0.601852
  7
STANDARD
100
AcDbText
  0
TEXT
  5
E6
100
AcDbEntity
  8
M0
100
AcDbText
 10
213.799267
 20
53.085651
 40
3.6
  1
３０
 41
0.601852
  7
STANDARD
100
AcDbText
  0
TEXT
  5
E7
100
AcDbEntity
  8
M0
100
AcDbText
 10
227.799267
 20
53.085651
 40
3.6
  1
４０
 41
0.601852
  7
STANDARD
100
AcDbText
  0
TEXT
  5
E8
100
AcDbEntity
  8
M0
100
AcDbText
 10
241.799264
 20
53.085651
 40
3.6
  1
５０
 41
0.601852
  7
STANDARD
100
AcDbText
  0
TEXT
  5
E9
100
AcDbEntity
  8
M0
100
AcDbText
 10
175.721983
 20
261.921143
 40
3.528
  1
吸上高さ１２ｍ時
 41
0.777778
  7
STANDARD
100
AcDbText
  0
TEXT
  5
EA
100
AcDbEntity
  8
M0
100
AcDbText
 10
172.294773
 20
266.856312
 40
3.528
  1
【標準ジェットＪ２５－７Ｙ組合わせ時】
 41
0.777778
  7
STANDARD
100
AcDbText
  0
TEXT
  5
EB
100
AcDbEntity
  8
M0
100
AcDbText
 10
50.273735
 20
266.856312
 40
3.528
  1
【標準ジェットＪ２５－７Ｙ組合わせ時】
 41
0.777778
  7
STANDARD
100
AcDbText
  0
TEXT
  5
EC
100
AcDbEntity
  8
M0
100
AcDbText
 10
53.700938
 20
261.921143
 40
3.528
  1
吸上高さ７ｍ時
 41
0.777778
  7
STANDARD
100
AcDbText
  0
LINE
  5
ED
100
AcDbEntity
  8
M0
 62
     5
100
AcDbLine
 10
51.941119
 20
112.359158
 11
66.105313
 21
112.359158
  0
ARC
  5
EE
100
AcDbEntity
  8
M0
 62
     5
100
AcDbCircle
 10
66.105313
 20
110.959158
 40
1.4
100
AcDbArc
 50
24.688123
 51
90.0
  0
ARC
  5
EF
100
AcDbEntity
  8
M0
 62
     2
100
AcDbCircle
 10
62.243854
 20
119.359158
 40
1.4
100
AcDbArc
 50
24.688123
 51
90.0
  0
LINE
  5
F0
100
AcDbEntity
  8
M0
 62
     2
100
AcDbLine
 10
62.243854
 20
120.759158
 11
51.941119
 21
120.759158
  0
TEXT
  5
F1
100
AcDbEntity
  8
M0
100
AcDbText
 10
43.728584
 20
78.550621
 40
3.6
  1
（　）
 50
90.000003
 41
0.63786
  7
STANDARD
100
AcDbText
  0
TEXT
  5
F2
100
AcDbEntity
  8
M0
100
AcDbText
 10
40.460163
 20
96.159158
 40
3.6
  1
全
 41
0.833333
  7
STANDARD
100
AcDbText
  0
TEXT
  5
F3
100
AcDbEntity
  8
M0
100
AcDbText
 10
40.460163
 20
92.403602
 40
3.6
  1
揚
 41
0.833333
  7
STANDARD
100
AcDbText
  0
TEXT
  5
F4
100
AcDbEntity
  8
M0
100
AcDbText
 10
40.460163
 20
88.648047
 40
3.6
  1
程
 41
0.833333
  7
STANDARD
100
AcDbText
  0
TEXT
  5
F5
100
AcDbEntity
  8
M0
100
AcDbText
 10
40.460163
 20
84.892492
 40
3.6
  1
　
 41
0.833333
  7
STANDARD
100
AcDbText
  0
TEXT
  5
F6
100
AcDbEntity
  8
M0
100
AcDbText
 10
40.460163
 20
81.136936
 40
3.6
  1
ｍ
 41
0.833333
  7
STANDARD
100
AcDbText
  0
LINE
  5
F7
100
AcDbEntity
  8
M0
 62
     1
100
AcDbLine
 10
173.962166
 20
234.266196
 11
185.385995
 21
234.266196
  0
LINE
  5
F8
100
AcDbEntity
  8
M0
 62
     5
100
AcDbLine
 10
173.962166
 20
220.266196
 11
204.062166
 21
220.266196
  0
LINE
  5
F9
100
AcDbEntity
  8
M0
 62
     2
100
AcDbLine
 10
173.962166
 20
229.086196
 11
192.596166
 21
229.086196
  0
LINE
  5
FA
100
AcDbEntity
  8
M0
 62
     5
100
AcDbLine
 10
51.941119
 20
212.747262
 11
82.507785
 21
212.747262
  0
LINE
  5
FB
100
AcDbEntity
  8
M0
 62
     2
100
AcDbLine
 10
51.941119
 20
221.147262
 11
68.896254
 21
221.147262
  0
LINE
  5
FC
100
AcDbEntity
  8
M0
 62
     1
100
AcDbLine
 10
51.941119
 20
226.747262
 11
63.496254
 21
226.747262
  0
LINE
  5
FD
100
AcDbEntity
  8
M0
 62
     5
100
AcDbLine
 10
173.941088
 20
103.95873
 11
186.623194
 21
103.95873
  0
ARC
  5
FE
100
AcDbEntity
  8
M0
 62
     5
100
AcDbCircle
 10
186.623194
 20
102.55873
 40
1.4
100
AcDbArc
 50
17.106254
 51
90.0
  0
LINE
  5
FF
100
AcDbEntity
  8
M0
 62
   234
100
AcDbLine
 10
51.941119
 20
113.759158
 11
124.741119
 21
113.759158
  0
LINE
  5
100
100
AcDbEntity
  8
M0
 62
   234
100
AcDbLine
 10
79.941119
 20
130.559158
 11
79.941119
 21
125.979604
  0
LINE
  5
101
100
AcDbEntity
  8
M0
 62
   234
100
AcDbLine
 10
51.941119
 20
99.759158
 11
124.741119
 21
99.759158
  0
LINE
  5
102
100
AcDbEntity
  8
M0
 62
   234
100
AcDbLine
 10
93.941119
 20
130.559158
 11
93.941119
 21
125.979604
  0
LINE
  5
103
100
AcDbEntity
  8
M0
 62
   234
100
AcDbLine
 10
124.741119
 20
57.759158
 11
51.941119
 21
57.759158
  0
LINE
  5
104
100
AcDbEntity
  8
M0
 62
   234
100
AcDbLine
 10
51.941119
 20
71.759158
 11
124.741119
 21
71.759158
  0
LINE
  5
105
100
AcDbEntity
  8
M0
 62
   234
100
AcDbLine
 10
51.941119
 20
85.759158
 11
95.691119
 21
85.759158
  0
LINE
  5
106
100
AcDbEntity
  8
M0
 62
   234
100
AcDbLine
 10
65.941119
 20
130.559158
 11
65.941119
 21
57.759158
  0
LINE
  5
107
100
AcDbEntity
  8
M0
 62
   234
100
AcDbLine
 10
51.941119
 20
130.559158
 11
51.941119
 21
57.759158
  0
LINE
  5
108
100
AcDbEntity
  8
M0
 62
   234
100
AcDbLine
 10
51.941119
 20
85.759158
 11
124.741119
 21
85.759158
  0
LINE
  5
109
100
AcDbEntity
  8
M0
 62
   234
100
AcDbLine
 10
51.941119
 20
127.759158
 11
124.741119
 21
127.759158
  0
LINE
  5
10A
100
AcDbEntity
  8
M0
 62
   234
100
AcDbLine
 10
107.941119
 20
130.559158
 11
107.941119
 21
125.979604
  0
LINE
  5
10B
100
AcDbEntity
  8
M0
 62
   234
100
AcDbLine
 10
121.941119
 20
130.559158
 11
121.941119
 21
57.759158
  0
LINE
  5
10C
100
AcDbEntity
  8
M0
 62
   234
100
AcDbLine
 10
79.941119
 20
115.012651
 11
79.941119
 21
57.759158
  0
LINE
  5
10D
100
AcDbEntity
  8
M0
 62
   234
100
AcDbLine
 10
93.941119
 20
115.012651
 11
93.941119
 21
57.759158
  0
LINE
  5
10E
100
AcDbEntity
  8
M0
 62
   234
100
AcDbLine
 10
107.941119
 20
115.012651
 11
107.941119
 21
57.759158
  0
TEXT
  5
10F
100
AcDbEntity
  8
M0
100
AcDbText
 10
50.781712
 20
177.274183
 40
3.6
  1
０
 41
0.601852
  7
STANDARD
100
AcDbText
  0
TEXT
  5
110
100
AcDbEntity
  8
M0
100
AcDbText
 10
63.7993
 20
177.274183
 40
3.6
  1
１０
 41
0.601852
  7
STANDARD
100
AcDbText
  0
TEXT
  5
111
100
AcDbEntity
  8
M0
100
AcDbText
 10
77.799301
 20
177.274183
 40
3.6
  1
２０
 41
0.601852
  7
STANDARD
100
AcDbText
  0
TEXT
  5
112
100
AcDbEntity
  8
M0
100
AcDbText
 10
91.799298
 20
177.274183
 40
3.6
  1
３０
 41
0.601852
  7
STANDARD
100
AcDbText
  0
TEXT
  5
113
100
AcDbEntity
  8
M0
100
AcDbText
 10
105.799295
 20
177.274183
 40
3.6
  1
４０
 41
0.601852
  7
STANDARD
100
AcDbText
  0
TEXT
  5
114
100
AcDbEntity
  8
M0
100
AcDbText
 10
119.799295
 20
177.274183
 40
3.6
  1
５０
 41
0.601852
  7
STANDARD
100
AcDbText
  0
LINE
  5
115
100
AcDbEntity
  8
M0
 62
   234
100
AcDbLine
 10
205.962166
 20
224.466196
 11
173.962166
 21
224.466196
  0
LINE
  5
116
100
AcDbEntity
  8
M0
 62
   234
100
AcDbLine
 10
173.962166
 20
241.266196
 11
173.962166
 21
182.466196
  0
LINE
  5
117
100
AcDbEntity
  8
M0
 62
   234
100
AcDbLine
 10
246.762166
 20
182.466196
 11
173.962166
 21
182.466196
  0
LINE
  5
118
100
AcDbEntity
  8
M0
 62
   234
100
AcDbLine
 10
187.962166
 20
241.266196
 11
187.962166
 21
182.466196
  0
LINE
  5
119
100
AcDbEntity
  8
M0
 62
   234
100
AcDbLine
 10
201.962166
 20
241.266196
 11
201.962166
 21
182.466196
  0
LINE
  5
11A
100
AcDbEntity
  8
M0
 62
   234
100
AcDbLine
 10
173.962166
 20
196.466196
 11
246.762166
 21
196.466196
  0
LINE
  5
11B
100
AcDbEntity
  8
M0
 62
   234
100
AcDbLine
 10
215.962166
 20
233.094989
 11
215.962166
 21
229.583229
  0
LINE
  5
11C
100
AcDbEntity
  8
M0
 62
   234
100
AcDbLine
 10
173.962166
 20
210.466196
 11
246.762166
 21
210.466196
  0
LINE
  5
11D
100
AcDbEntity
  8
M0
 62
   234
100
AcDbLine
 10
229.962166
 20
182.466196
 11
229.962166
 21
218.249821
  0
LINE
  5
11E
100
AcDbEntity
  8
M0
 62
   234
100
AcDbLine
 10
173.962166
 20
238.466196
 11
205.578397
 21
238.466196
  0
LINE
  5
11F
100
AcDbEntity
  8
M0
 62
   234
100
AcDbLine
 10
243.962166
 20
182.466196
 11
243.962166
 21
218.249821
  0
LINE
  5
120
100
AcDbEntity
  8
M0
 62
   234
100
AcDbLine
 10
215.962166
 20
218.249821
 11
215.962166
 21
182.466196
  0
LINE
  5
121
100
AcDbEntity
  8
M0
 62
   234
100
AcDbLine
 10
229.962166
 20
229.583229
 11
229.962166
 21
233.094989
  0
LINE
  5
122
100
AcDbEntity
  8
M0
 62
   234
100
AcDbLine
 10
243.962166
 20
229.583229
 11
243.962166
 21
233.094989
  0
LINE
  5
123
100
AcDbEntity
  8
M0
 62
     7
100
AcDbLine
 10
70.712508
 20
219.880636
 11
64.504036
 21
226.319052
  0
LINE
  5
124
100
AcDbEntity
  8
M0
 62
     7
100
AcDbLine
 10
84.717222
 20
211.4216
 11
70.999996
 21
219.651935
  0
LINE
  5
125
100
AcDbEntity
  8
M0
 62
     7
100
AcDbLine
 10
100.001048
 20
206.074243
 11
84.977587
 21
211.299795
  0
ARC
  5
126
100
AcDbEntity
  8
M0
 62
     7
100
AcDbCircle
 10
99.541119
 20
204.751948
 40
1.4
100
AcDbArc
 50
0.0
 51
70.820992
  0
LINE
  5
127
100
AcDbEntity
  8
M0
 62
     7
100
AcDbLine
 10
100.941119
 20
204.751948
 11
100.941119
 21
191.953216
  0
ARC
  5
128
100
AcDbEntity
  8
M0
 62
     7
100
AcDbCircle
 10
63.496254
 20
225.347262
 40
1.4
100
AcDbArc
 50
43.958373
 51
90.0
  0
ARC
  5
129
100
AcDbEntity
  8
M0
 62
     7
100
AcDbCircle
 10
68.896254
 20
219.747262
 40
1.4
100
AcDbArc
 50
43.958373
 51
90.0
  0
ARC
  5
12A
100
AcDbEntity
  8
M0
 62
     7
100
AcDbCircle
 10
82.120008
 20
211.347262
 40
1.4
100
AcDbArc
 50
59.036243
 51
90.0
  0
ARC
  5
12B
100
AcDbEntity
  8
M0
 62
     7
100
AcDbCircle
 10
71.72029
 20
220.852426
 40
1.4
100
AcDbArc
 50
223.958373
 51
239.036243
  0
ARC
  5
12C
100
AcDbEntity
  8
M0
 62
     7
100
AcDbCircle
 10
85.437516
 20
212.62209
 40
1.4
100
AcDbArc
 50
239.036243
 51
250.820992
  0
LINE
  5
12D
100
AcDbEntity
  8
M0
 62
     7
100
AcDbLine
 10
213.162166
 20
212.576834
 11
213.162166
 21
199.266196
  0
LINE
  5
12E
100
AcDbEntity
  8
M0
 62
     7
100
AcDbLine
 10
212.615761
 20
213.686508
 11
186.23959
 21
233.97587
  0
ARC
  5
12F
100
AcDbEntity
  8
M0
 62
     7
100
AcDbCircle
 10
211.762166
 20
212.576834
 40
1.4
100
AcDbArc
 50
3.722158E-012
 51
52.431408
  0
ARC
  5
130
100
AcDbEntity
  8
M0
 62
     7
100
AcDbCircle
 10
185.385995
 20
232.866196
 40
1.4
100
AcDbArc
 50
52.431408
 51
90.0
  0
ENDSEC
  0
SECTION
  2
OBJECTS
  0
DICTIONARY
  5
C
100
AcDbDictionary
  3
ACAD_GROUP
350
D
  3
ACAD_MLINESTYLE
350
E
  0
DICTIONARY
  5
D
102
{ACAD_REACTORS
330
C
102
}
100
AcDbDictionary
  0
DICTIONARY
  5
E
102
{ACAD_REACTORS
330
C
102
}
100
AcDbDictionary
  3
STANDARD
350
13
  0
MLINESTYLE
  5
13
102
{ACAD_REACTORS
330
E
102
}
100
AcDbMlineStyle
  2
STANDARD
 70
     0
  3

 62
     0
 51
90.0
 52
90.0
 71
     2
 49
0.5
 62
   256
  6
BYLAYER
 49
-0.5
 62
   256
  6
BYLAYER
  0
ENDSEC
  0
EOF
