  0
SECTION
  2
HEADER
  9
$ACADVER
  1
AC1012
  9
$INSBASE
 10
0.000000
 20
0.000000
 30
0.0
  9
$VIEWCTR
 10
7.531722
 20
4.5
  9
$VIEWSIZE
 40
9.0
  9
$SNAPMODE
 70
     0
  9
$SNAPUNIT
 10
1.0
 20
1.0
  9
$SNAPBASE
 10
0.0
 20
0.0
  9
$SNAPANG
 50
0.0
  9
$SNAPSTYLE
 70
     0
  9
$SNAPISOPAIR
 70
     0
  9
$GRIDMODE
 70
     0
  9
$GRIDUNIT
 10
0.0
 20
0.0
  9
$ORTHOMODE
 70
     0
  9
$REGENMODE
 70
     1
  9
$FILLMODE
 70
     1
  9
$QTEXTMODE
 70
     0
  9
$DRAGMODE
 70
     2
  9
$LTSCALE
  40
     1.000000
  9
$OSMODE
 70
     0
  9
$ATTMODE
 70
     1
  9
$TEXTSIZE
 40
0.2
  9
$TRACEWID
 40
0.05
  9
$TEXTSTYLE
  7
STANDARD
  9
$CELTYPE
  6
BYLAYER
  9
$CECOLOR
 62
   256
  9
$DIMSCALE
 40
1.0
  9
$DIMASZ
 40
0.18
  9
$DIMEXO
 40
0.0625
  9
$DIMDLI
 40
0.38
  9
$DIMRND
 40
0.0
  9
$DIMDLE
 40
0.0
  9
$DIMEXE
 40
0.18
  9
$DIMTP
 40
0.0
  9
$DIMTM
 40
0.0
  9
$DIMTXT
 40
0.18
  9
$DIMCEN
 40
0.09
  9
$DIMTSZ
 40
0.0
  9
$DIMTOL
 70
     0
  9
$DIMLIM
 70
     0
  9
$DIMTIH
 70
     1
  9
$DIMTOH
 70
     1
  9
$DIMSE1
 70
     0
  9
$DIMSE2
 70
     0
  9
$DIMTAD
 70
     0
  9
$DIMZIN
 70
     0
  9
$DIMBLK
  1

  9
$LUNITS
 70
     2
  9
$LUPREC
 70
     4
  9
$AXISMODE
 70
     0
  9
$AXISUNIT
 10
0.0
 20
0.0
  9
$SKETCHINC
 40
0.1
  9
$FILLETRAD
 40
0.0
  9
$AUNITS
 70
     0
  9
$AUPREC
 70
     0
  9
$MENU
  1
ACAD
  9
$ELEVATION
 40
0.0
  9
$THICKNESS
 40
0.0
  9
$VIEWDIR
 10
0.0
 20
0.0
 30
1.0
  9
$LIMCHECK
 70
     0
  9
$BLIPMODE
 70
     1
  9
$CHAMFERA
 40
0.0
  9
$CHAMFERB
 40
0.0
  9
$FASTZOOM
 70
     1
  9
$SKPOLY
 70
     0
  9
$TDCREATE
 40
0000000.0000000000
  9
$TDUPDATE
 40
0000000.0000000000
  9
$TDINDWG
 40
0.0000000000
  9
$TDUSRTIMER
 40
0.0000000000
  9
$USRTIMER
 70
     1
  9
$ANGBASE
 50
0.0
  9
$ANGDIR
 70
     0
  9
$PDMODE
 70
     0
  9
$PDSIZE
 40
0.0
  9
$PLINEWID
 40
0.0
  9
$COORDS
 70
     0
  9
$USERI1
 70
     0
  9
$USERI2
 70
     0
  9
$USERI3
 70
     0
  9
$USERI4
 70
     0
  9
$USERI5
 70
     0
  9
$USERR1
 40
0.0
  9
$USERR2
 40
0.0
  9
$USERR3
 40
0.0
  9
$USERR4
 40
0.0
  9
$USERR5
 40
0.0
  9
$CLAYER
  8
M0
  9
$EXTMIN
 10
0.0
 20
0.0
  9
$EXTMAX
 10
420.0
 20
297.0
  9
$LIMMIN
 10
0.0
 20
0.0
  9
$LIMMAX
 10
420.0
 20
297.0
  9
$HANDSEED
  5
169
  0
ENDSEC
  0
SECTION
  2
CLASSES
  0
ENDSEC
  0
SECTION
  2
TABLES
  0
TABLE
  2
VPORT
  5
8
100
AcDbSymbolTable
 70
     2
  0
VPORT
  5
14
100
AcDbSymbolTableRecord
100
AcDbViewportTableRecord
  2
*ACTIVE
 70
     0
 10
0.0
 20
0.0
 11
1.0
 21
1.0
 12
484.0
 22
297.0
 13
0.0
 23
0.0
 14
1.0
 24
1.0
 15
0.0
 25
0.0
 16
0.0
 26
0.0
 36
1.0
 17
0.0
 27
0.0
 37
0.0
 40
594.0
 41
2.0
 42
50.0
 43
0.0
 44
0.0
 50
0.0
 51
0.0
 71
     0
 72
   100
 73
     1
 74
     1
 75
     0
 76
     0
 77
     0
 78
     0
  0
ENDTAB
  0
TABLE
  2
LTYPE
  5
5
100
AcDbSymbolTable
 70
     5
  0
LTYPE
  5
15
100
AcDbSymbolTableRecord
100
AcDbLinetypeTableRecord
  2
BYBLOCK
 70
     0
  3

 72
    65
 73
     0
 40
0.0
  0
LTYPE
  5
16
100
AcDbSymbolTableRecord
100
AcDbLinetypeTableRecord
  2
BYLAYER
 70
     0
  3

 72
    65
 73
     0
 40
0.0
  0
LTYPE
  5
17
100
AcDbSymbolTableRecord
100
AcDbLinetypeTableRecord
  2
CONTINUOUS
 70
    64
  3
Solid line
 72
    65
 73
     0
 40
0.0
  0
LTYPE
  5
18
100
AcDbSymbolTableRecord
100
AcDbLinetypeTableRecord
  2
DASHED
 70
    64
  3
__ __ __ __ __ __ __ __ __ __ __ __ __ __ __ __
 72
    65
 73
     2
 40
0.75
 49
0.5
 74
     0
 49
-0.25
 74
     0
  0
LTYPE
  5
19
100
AcDbSymbolTableRecord
100
AcDbLinetypeTableRecord
  2
DASHDOT
 70
    64
  3
__ . __ . __ . __ . __ . __ . __ . __ . __ . __
 72
    65
 73
     4
 40
1.0
 49
0.5
 74
     0
 49
-0.25
 74
     0
 49
0.0
 74
     0
 49
-0.25
 74
     0
  0
LTYPE
  5
1A
100
AcDbSymbolTableRecord
100
AcDbLinetypeTableRecord
  2
DIVIDE
 70
    64
  3
____ . . ____ . . ____ . . ____ . . ____ . . __
 72
    65
 73
     6
 40
1.25
 49
0.5
 74
     0
 49
-0.25
 74
     0
 49
0.0
 74
     0
 49
-0.25
 74
     0
 49
0.0
 74
     0
 49
-0.25
 74
     0
  0
LTYPE
  5
1B
100
AcDbSymbolTableRecord
100
AcDbLinetypeTableRecord
  2
DOT
 70
    64
  3
. . . . . . . . . . . . . . . . . . . . . . . .
 72
    65
 73
     2
 40
0.25
 49
0.0
 74
     0
 49
-0.25
 74
     0
  0
ENDTAB
  0
TABLE
  2
LAYER
  5
2
100
AcDbSymbolTable
 70
   102
  0
LAYER
  5
F
100
AcDbSymbolTableRecord
100
AcDbLayerTableRecord
  2
0
 70
     0
 62
     7
  6
CONTINUOUS
  0
LAYER
  5
1C
100
AcDbSymbolTableRecord
100
AcDbLayerTableRecord
  2
DEFPOINTS
 70
     0
 62
     7
  6
CONTINUOUS
  0
LAYER
  5
1D
100
AcDbSymbolTableRecord
100
AcDbLayerTableRecord
  2
M0
 70
     0
 62
     3
  6
CONTINUOUS
  0
LAYER
  5
1E
100
AcDbSymbolTableRecord
100
AcDbLayerTableRecord
  2
DD0
 70
     0
 62
     4
  6
CONTINUOUS
  0
ENDTAB
  0
TABLE
  2
STYLE
  5
3
100
AcDbSymbolTable
 70
     2
  0
STYLE
  5
10
100
AcDbSymbolTableRecord
100
AcDbTextStyleTableRecord
  2
STANDARD
 70
     0
 40
0.0
 41
1.0
 50
0.0
 71
     0
 42
0.2
  3
txt
  4
BIGFONT
  0
ENDTAB
  0
TABLE
  2
VIEW
  5
6
100
AcDbSymbolTable
 70
     0
  0
ENDTAB
  0
TABLE
  2
UCS
  5
7
100
AcDbSymbolTable
 70
     0
  0
ENDTAB
  0
TABLE
  2
APPID
  5
9
100
AcDbSymbolTable
 70
     1
  0
APPID
  5
11
100
AcDbSymbolTableRecord
100
AcDbRegAppTableRecord
  2
ACAD
 70
     0
  0
ENDTAB
  0
TABLE
  2
DIMSTYLE
  5
A
100
AcDbSymbolTable
 70
     2
  0
DIMSTYLE
105
25
100
AcDbSymbolTableRecord
100
AcDbDimStyleTableRecord
  2
STANDARD
 70
     0
  3

  4

  5

  6
_OPEN
  7
_OPEN
 40
1.0
 41
3.0
 42
0.0
 43
8.0
 44
1.5
 45
0.0
 46
0.0
 47
0.0
 48
0.0
140
3.5
141
0.09
142
0.0
143
0.03937
144
1.0
145
0.0
146
1.0
147
1.0
 71
     0
 72
     0
 73
     1
 74
     1
 75
     0
 76
     0
 77
     3
 78
     8
170
     0
171
     2
172
     0
173
     1
174
     0
175
     0
176
     0
177
     0
178
     0
270
     2
271
     2
272
     4
273
     2
274
     2
340
10
275
     0
280
     0
281
     0
282
     0
283
     1
284
     0
285
     0
286
     0
287
     3
288
     0
  0
DIMSTYLE
105
26
100
AcDbSymbolTableRecord
100
AcDbDimStyleTableRecord
  2
LEADSTYL
 70
     0
  3

  4

  5

  6
_OPEN
  7
_OPEN
 40
1.0
 41
3.0
 42
0.0625
 43
0.38
 44
0.18
 45
0.0
 46
0.0
 47
0.0
 48
0.0
140
3.2
141
0.09
142
0.0
143
25.4
144
1.0
145
0.0
146
1.0
147
1.0
 71
     0
 72
     0
 73
     1
 74
     1
 75
     0
 76
     0
 77
     0
 78
     0
170
     0
171
     2
172
     0
173
     1
174
     0
175
     0
176
     0
177
     0
178
     0
270
     2
271
     4
272
     4
273
     2
274
     2
340
10
275
     0
280
     0
281
     0
282
     0
283
     1
284
     0
285
     0
286
     0
287
     3
288
     0
  0
ENDTAB
  0
TABLE
  2
BLOCK_RECORD
  5
1
100
AcDbSymbolTable
 70
     8
  0
BLOCK_RECORD
  5
1F
100
AcDbSymbolTableRecord
100
AcDbBlockTableRecord
  2
*MODEL_SPACE
  0
BLOCK_RECORD
  5
22
100
AcDbSymbolTableRecord
100
AcDbBlockTableRecord
  2
*PAPER_SPACE
  0
BLOCK_RECORD
  5
27
100
AcDbSymbolTableRecord
100
AcDbBlockTableRecord
  2
_NONE
  0
BLOCK_RECORD
  5
2B
100
AcDbSymbolTableRecord
100
AcDbBlockTableRecord
  2
_OPEN
  0
BLOCK_RECORD
  5
31
100
AcDbSymbolTableRecord
100
AcDbBlockTableRecord
  2
_CLOSED
  0
BLOCK_RECORD
  5
38
100
AcDbSymbolTableRecord
100
AcDbBlockTableRecord
  2
_ORIGIN
  0
BLOCK_RECORD
  5
3D
100
AcDbSymbolTableRecord
100
AcDbBlockTableRecord
  2
_DOT
  0
BLOCK_RECORD
  5
45
100
AcDbSymbolTableRecord
100
AcDbBlockTableRecord
  2
_OBLIQUE
  0
BLOCK_RECORD
  5
4F
100
AcDbSymbolTableRecord
100
AcDbBlockTableRecord
  2
DIMS0
  0
BLOCK_RECORD
  5
57
100
AcDbSymbolTableRecord
100
AcDbBlockTableRecord
  2
DIMS1
  0
ENDTAB
  0
ENDSEC
  0
SECTION
  2
BLOCKS
  0
BLOCK
  5
20
100
AcDbEntity
  8
0
100
AcDbBlockBegin
  2
*MODEL_SPACE
 70
     0
 10
0.0
 20
0.0
 30
0.0
  3
*MODEL_SPACE
  1

  0
ENDBLK
  5
21
100
AcDbEntity
  8
0
100
AcDbBlockEnd
  0
BLOCK
  5
23
100
AcDbEntity
 67
     1
  8
0
100
AcDbBlockBegin
  2
*PAPER_SPACE
 70
     0
 10
0.0
 20
0.0
 30
0.0
  3
*PAPER_SPACE
  1

  0
ENDBLK
  5
24
100
AcDbEntity
 67
     1
  8
0
100
AcDbBlockEnd
  0
BLOCK
  5
28
100
AcDbEntity
  8
0
100
AcDbBlockBegin
  2
_NONE
 70
     0
 10
0.0
 20
0.0
  0
CIRCLE
  5
29
100
AcDbEntity
  8
0
 62
     0
100
AcDbCircle
 10
0.0
 20
0.0
 40
0.25
  0
ENDBLK
  5
2A
100
AcDbEntity
  8
0
100
AcDbBlockEnd
  0
BLOCK
  5
2C
100
AcDbEntity
  8
0
100
AcDbBlockBegin
  2
_OPEN
 70
     0
 10
0.0
 20
0.0
  0
LINE
  5
2D
100
AcDbEntity
  8
0
 62
     0
100
AcDbLine
 10
-0.965926
 20
0.258819
 11
0.0
 21
0.0
  0
LINE
  5
2E
100
AcDbEntity
  8
0
 62
     0
100
AcDbLine
 10
0.0
 20
0.0
 11
-0.965926
 21
-0.258819
  0
LINE
  5
2F
100
AcDbEntity
  8
0
 62
     0
100
AcDbLine
 10
0.0
 20
0.0
 11
-1.0
 21
0.0
  0
ENDBLK
  5
30
100
AcDbEntity
  8
0
100
AcDbBlockEnd
  0
BLOCK
  5
32
100
AcDbEntity
  8
0
100
AcDbBlockBegin
  2
_CLOSED
 70
     0
 10
0.0
 20
0.0
  0
LINE
  5
33
100
AcDbEntity
  8
0
 62
     0
100
AcDbLine
 10
-0.965926
 20
0.258819
 11
0.0
 21
0.0
  0
LINE
  5
34
100
AcDbEntity
  8
0
 62
     0
100
AcDbLine
 10
0.0
 20
0.0
 11
-0.965926
 21
-0.258819
  0
LINE
  5
35
100
AcDbEntity
  8
0
 62
     0
100
AcDbLine
 10
-0.965926
 20
0.258819
 11
-0.965926
 21
-0.258819
  0
LINE
  5
36
100
AcDbEntity
  8
0
 62
     0
100
AcDbLine
 10
0.0
 20
0.0
 11
-1.0
 21
0.0
  0
ENDBLK
  5
37
100
AcDbEntity
  8
0
100
AcDbBlockEnd
  0
BLOCK
  5
39
100
AcDbEntity
  8
0
100
AcDbBlockBegin
  2
_ORIGIN
 70
     0
 10
0.0
 20
0.0
  0
CIRCLE
  5
3A
100
AcDbEntity
  8
0
 62
     0
100
AcDbCircle
 10
0.0
 20
0.0
 40
0.5
  0
LINE
  5
3B
100
AcDbEntity
  8
0
 62
     0
100
AcDbLine
 10
0.0
 20
0.0
 11
-1.0
 21
0.0
  0
ENDBLK
  5
3C
100
AcDbEntity
  8
0
100
AcDbBlockEnd
  0
BLOCK
  5
3E
100
AcDbEntity
  8
0
100
AcDbBlockBegin
  2
_DOT
 70
     0
 10
0.0
 20
0.0
  0
POLYLINE
  5
3F
100
AcDbEntity
  8
0
 62
     0
100
AcDb2dPolyline
 66
     1
 70
     1
 40
0.5
 41
0.5
  0
VERTEX
  5
40
100
AcDbEntity
  8
0
 62
     0
100
AcDbVertex
100
AcDb2dVertex
 10
-0.25
 20
0.0
 42
1.0
  0
VERTEX
  5
41
100
AcDbEntity
  8
0
 62
     0
100
AcDbVertex
100
AcDb2dVertex
 10
0.25
 20
0.0
 42
1.0
  0
SEQEND
  5
42
100
AcDbEntity
  8
0
 62
     0
  0
LINE
  5
43
100
AcDbEntity
  8
0
 62
     0
100
AcDbLine
 10
-0.5
 20
0.0
 11
-1.0
 21
0.0
  0
ENDBLK
  5
44
100
AcDbEntity
  8
0
100
AcDbBlockEnd
  0
BLOCK
  5
46
100
AcDbEntity
  8
0
100
AcDbBlockBegin
  2
_OBLIQUE
 70
     0
 10
0.0
 20
0.0
  0
LINE
  5
47
100
AcDbEntity
  8
0
 62
     0
100
AcDbLine
 10
-0.353553
 20
-0.353553
 11
0.353553
 21
0.353553
  0
ENDBLK
  5
48
100
AcDbEntity
  8
0
100
AcDbBlockEnd
  0
BLOCK
  5
50
100
AcDbEntity
  8
DD0
100
AcDbBlockBegin
  2
DIMS0
 70
     0
 10
0.0
 20
0.0
  0
LINE
  5
51
100
AcDbEntity
  8
DD0
100
AcDbLine
 10
36.873375
 20
266.625
 11
38.873375
 21
270.625
  0
LINE
  5
52
100
AcDbEntity
  8
DD0
100
AcDbLine
 10
38.873375
 20
270.625
 11
40.873375
 21
266.625
  0
LINE
  5
53
100
AcDbEntity
  8
DD0
100
AcDbLine
 10
40.873375
 20
266.625
 11
36.873375
 21
266.625
  0
TEXT
  5
54
100
AcDbEntity
  8
DD0
100
AcDbText
 10
38.156708
 20
266.945001
 40
1.8
  1
Ａ
 41
0.796296
  7
STANDARD
100
AcDbText
  0
ENDBLK
  5
55
100
AcDbEntity
  8
DD0
100
AcDbBlockEnd
  0
BLOCK
  5
58
100
AcDbEntity
  8
DD0
100
AcDbBlockBegin
  2
DIMS1
 70
     0
 10
0.0
 20
0.0
  0
LINE
  5
59
100
AcDbEntity
  8
DD0
100
AcDbLine
 10
149.008118
 20
267.123383
 11
151.008118
 21
271.123383
  0
LINE
  5
5A
100
AcDbEntity
  8
DD0
100
AcDbLine
 10
151.008118
 20
271.123383
 11
153.008118
 21
267.123383
  0
LINE
  5
5B
100
AcDbEntity
  8
DD0
100
AcDbLine
 10
153.008118
 20
267.123383
 11
149.008118
 21
267.123383
  0
TEXT
  5
5C
100
AcDbEntity
  8
DD0
100
AcDbText
 10
150.291451
 20
267.443384
 40
1.8
  1
Ａ
 41
0.796296
  7
STANDARD
100
AcDbText
  0
ENDBLK
  5
5D
100
AcDbEntity
  8
DD0
100
AcDbBlockEnd
  0
ENDSEC
  0
SECTION
  2
ENTITIES
  0
LEADER
  5
49
100
AcDbEntity
  8
DD0
100
AcDbLeader
  3
LEADSTYL
 76
     3
 10
162.542648
 20
124.610291
 10
181.901779
 20
127.410301
 10
225.901779
 20
127.410301
340
4A
 77
     4
  0
TEXT
  5
4A
100
AcDbEntity
  8
DD0
100
AcDbText
 10
183.193446
 20
128.410309
 40
3.5
  1
運転圧力：「低」
 41
0.833333
  7
STANDARD
100
AcDbText
  0
TEXT
  5
4B
100
AcDbEntity
  8
DD0
100
AcDbText
 10
183.193446
 20
122.910309
 40
3.5
  1
（制御圧力１８０ｋＰａ）
 41
0.833333
  7
STANDARD
100
AcDbText
  0
LEADER
  5
4C
100
AcDbEntity
  8
DD0
100
AcDbLeader
  3
LEADSTYL
 76
     3
 10
60.466553
 20
224.998398
 10
74.466553
 20
237.598404
 10
118.466553
 20
237.598404
340
4D
 77
     4
  0
TEXT
  5
4D
100
AcDbEntity
  8
DD0
100
AcDbText
 10
75.758219
 20
238.598404
 40
3.5
  1
運転圧力：「標準」
 41
0.833333
  7
STANDARD
100
AcDbText
  0
TEXT
  5
4E
100
AcDbEntity
  8
DD0
100
AcDbText
 10
75.758219
 20
233.098404
 40
3.5
  1
（制御圧力２４０ｋＰａ）
 41
0.833333
  7
STANDARD
100
AcDbText
  0
INSERT
  5
56
100
AcDbEntity
  8
DD0
100
AcDbBlockReference
  2
DIMS0
 10
0.0
 20
0.0
  0
INSERT
  5
5E
100
AcDbEntity
  8
DD0
100
AcDbBlockReference
  2
DIMS1
 10
0.0
 20
0.0
  0
LEADER
  5
5F
100
AcDbEntity
  8
DD0
100
AcDbLeader
  3
LEADSTYL
 76
     3
 10
175.566757
 20
231.998398
 10
189.566757
 20
244.598404
 10
233.566757
 20
244.598404
340
60
 77
     4
  0
TEXT
  5
60
100
AcDbEntity
  8
DD0
100
AcDbText
 10
190.858424
 20
245.598404
 40
3.5
  1
運転圧力：「標準」
 41
0.833333
  7
STANDARD
100
AcDbText
  0
TEXT
  5
61
100
AcDbEntity
  8
DD0
100
AcDbText
 10
190.858424
 20
240.098404
 40
3.5
  1
（制御圧力２４０ｋＰａ）
 41
0.833333
  7
STANDARD
100
AcDbText
  0
LEADER
  5
62
100
AcDbEntity
  8
DD0
100
AcDbLeader
  3
LEADSTYL
 76
     3
 10
56.979687
 20
124.610291
 10
69.880714
 20
141.410309
 10
113.880714
 20
141.410309
340
63
 77
     4
  0
TEXT
  5
63
100
AcDbEntity
  8
DD0
100
AcDbText
 10
71.172381
 20
142.410309
 40
3.5
  1
運転圧力：「標準」
 41
0.833333
  7
STANDARD
100
AcDbText
  0
TEXT
  5
64
100
AcDbEntity
  8
DD0
100
AcDbText
 10
71.172381
 20
136.910309
 40
3.5
  1
（制御圧力２４０ｋＰａ）
 41
0.833333
  7
STANDARD
100
AcDbText
  0
LEADER
  5
65
100
AcDbEntity
  8
DD0
100
AcDbLeader
  3
LEADSTYL
 76
     3
 10
58.739826
 20
116.210297
 10
76.880714
 20
127.410301
 10
120.880714
 20
127.410301
340
66
 77
     4
  0
TEXT
  5
66
100
AcDbEntity
  8
DD0
100
AcDbText
 10
78.172381
 20
128.410309
 40
3.5
  1
運転圧力：「低」
 41
0.833333
  7
STANDARD
100
AcDbText
  0
TEXT
  5
67
100
AcDbEntity
  8
DD0
100
AcDbText
 10
78.172381
 20
122.910309
 40
3.5
  1
（制御圧力１８０ｋＰａ）
 41
0.833333
  7
STANDARD
100
AcDbText
  0
LEADER
  5
68
100
AcDbEntity
  8
DD0
100
AcDbLeader
  3
LEADSTYL
 76
     3
 10
159.788376
 20
133.0103
 10
167.901749
 20
141.410294
 10
211.901749
 20
141.410294
340
69
 77
     4
  0
TEXT
  5
69
100
AcDbEntity
  8
DD0
100
AcDbText
 10
169.193415
 20
142.410294
 40
3.5
  1
運転圧力：「標準」
 41
0.833333
  7
STANDARD
100
AcDbText
  0
TEXT
  5
6A
100
AcDbEntity
  8
DD0
100
AcDbText
 10
169.193415
 20
136.910294
 40
3.5
  1
（制御圧力２４０ｋＰａ）
 41
0.833333
  7
STANDARD
100
AcDbText
  0
LEADER
  5
6B
100
AcDbEntity
  8
DD0
100
AcDbLeader
  3
LEADSTYL
 76
     3
 10
265.12793
 20
116.210297
 10
278.577423
 20
127.410294
 10
322.577423
 20
127.410294
340
6C
 77
     4
  0
TEXT
  5
6C
100
AcDbEntity
  8
DD0
100
AcDbText
 10
279.86909
 20
128.410294
 40
3.5
  1
運転圧力：「低」
 41
0.833333
  7
STANDARD
100
AcDbText
  0
TEXT
  5
6D
100
AcDbEntity
  8
DD0
100
AcDbText
 10
279.86909
 20
122.910294
 40
3.5
  1
（制御圧力１８０ｋＰａ）
 41
0.833333
  7
STANDARD
100
AcDbText
  0
LEADER
  5
6E
100
AcDbEntity
  8
DD0
100
AcDbLeader
  3
LEADSTYL
 76
     3
 10
191.478439
 20
223.598404
 10
202.605011
 20
230.598404
 10
246.605011
 20
230.598404
340
6F
 77
     4
  0
TEXT
  5
6F
100
AcDbEntity
  8
DD0
100
AcDbText
 10
203.896678
 20
231.598404
 40
3.5
  1
運転圧力：「低」
 41
0.833333
  7
STANDARD
100
AcDbText
  0
TEXT
  5
70
100
AcDbEntity
  8
DD0
100
AcDbText
 10
203.896678
 20
226.098404
 40
3.5
  1
（制御圧力１８０ｋＰａ）
 41
0.833333
  7
STANDARD
100
AcDbText
  0
LEADER
  5
71
100
AcDbEntity
  8
DD0
100
AcDbLeader
  3
LEADSTYL
 76
     3
 10
161.899048
 20
245.998398
 10
181.540436
 20
258.598389
 10
225.540436
 20
258.598389
340
72
 77
     4
  0
TEXT
  5
72
100
AcDbEntity
  8
DD0
100
AcDbText
 10
182.832102
 20
259.598389
 40
3.5
  1
運転圧力：「高」
 41
0.833333
  7
STANDARD
100
AcDbText
  0
TEXT
  5
73
100
AcDbEntity
  8
DD0
100
AcDbText
 10
182.832102
 20
254.098389
 40
3.5
  1
（制御圧力３４０ｋＰａ）
 41
0.833333
  7
STANDARD
100
AcDbText
  0
LEADER
  5
74
100
AcDbEntity
  8
DD0
100
AcDbLeader
  3
LEADSTYL
 76
     3
 10
266.599274
 20
124.610291
 10
272.996979
 20
141.410294
 10
316.996979
 20
141.410294
340
75
 77
     4
  0
TEXT
  5
75
100
AcDbEntity
  8
DD0
100
AcDbText
 10
274.288645
 20
142.410294
 40
3.5
  1
運転圧力：「標準」
 41
0.833333
  7
STANDARD
100
AcDbText
  0
TEXT
  5
76
100
AcDbEntity
  8
DD0
100
AcDbText
 10
274.288645
 20
136.910294
 40
3.5
  1
（制御圧力２４０ｋＰａ）
 41
0.833333
  7
STANDARD
100
AcDbText
  0
LEADER
  5
77
100
AcDbEntity
  8
DD0
100
AcDbLeader
  3
LEADSTYL
 76
     3
 10
48.224186
 20
238.998398
 10
69.319725
 20
251.598389
 10
113.319725
 20
251.598389
340
78
 77
     4
  0
TEXT
  5
78
100
AcDbEntity
  8
DD0
100
AcDbText
 10
70.611392
 20
252.598389
 40
3.5
  1
運転圧力：「高」
 41
0.833333
  7
STANDARD
100
AcDbText
  0
TEXT
  5
79
100
AcDbEntity
  8
DD0
100
AcDbText
 10
70.611392
 20
247.098389
 40
3.5
  1
（制御圧力３４０ｋＰａ）
 41
0.833333
  7
STANDARD
100
AcDbText
  0
LEADER
  5
7A
100
AcDbEntity
  8
DD0
100
AcDbLeader
  3
LEADSTYL
 76
     3
 10
70.776718
 20
216.598404
 10
79.718323
 20
223.598404
 10
123.718323
 20
223.598404
340
7B
 77
     4
  0
TEXT
  5
7B
100
AcDbEntity
  8
DD0
100
AcDbText
 10
81.009989
 20
224.598404
 40
3.5
  1
運転圧力：「低」
 41
0.833333
  7
STANDARD
100
AcDbText
  0
TEXT
  5
7C
100
AcDbEntity
  8
DD0
100
AcDbText
 10
81.009989
 20
219.098404
 40
3.5
  1
（制御圧力１８０ｋＰａ）
 41
0.833333
  7
STANDARD
100
AcDbText
  0
TEXT
  5
7D
100
AcDbEntity
  8
M0
100
AcDbText
 10
32.755297
 20
273.662565
 40
7.0
  1
揚水性能
 41
0.780952
  7
STANDARD
100
AcDbText
  0
LINE
  5
7E
100
AcDbEntity
  8
M0
100
AcDbLine
 10
60.328629
 20
282.162552
 11
30.328629
 21
282.162552
  0
LINE
  5
7F
100
AcDbEntity
  8
M0
100
AcDbLine
 10
60.328629
 20
272.162552
 11
60.328629
 21
282.162552
  0
LINE
  5
80
100
AcDbEntity
  8
M0
100
AcDbLine
 10
30.328629
 20
272.162552
 11
60.328629
 21
272.162552
  0
LINE
  5
81
100
AcDbEntity
  8
M0
100
AcDbLine
 10
30.328629
 20
282.162552
 11
30.328629
 21
272.162552
  0
TEXT
  5
82
100
AcDbEntity
  8
M0
100
AcDbText
 10
40.213341
 20
266.507462
 40
3.528
  1
【標準ジェットＪ４０－７Ｙ組合わせ時】
 41
0.777778
  7
STANDARD
100
AcDbText
  0
TEXT
  5
83
100
AcDbEntity
  8
M0
100
AcDbText
 10
43.640539
 20
261.572281
 40
3.528
  1
吸上高さ７ｍ
 41
0.777778
  7
STANDARD
100
AcDbText
  0
LINE
  5
84
100
AcDbEntity
  8
M0
100
AcDbLine
 10
167.901765
 20
130.910294
 11
166.641765
 21
133.010294
  0
LINE
  5
85
100
AcDbEntity
  8
M0
100
AcDbLine
 10
170.701765
 20
123.210294
 11
167.901765
 21
130.910294
  0
LINE
  5
86
100
AcDbEntity
  8
M0
100
AcDbLine
 10
172.101765
 20
113.410294
 11
170.701765
 21
123.210294
  0
LINE
  5
87
100
AcDbEntity
  8
M0
100
AcDbLine
 10
172.101765
 20
113.410294
 11
172.101765
 21
106.411976
  0
LINE
  5
88
100
AcDbEntity
  8
M0
 62
     5
100
AcDbLine
 10
153.901765
 20
124.610294
 11
170.192674
 21
124.610294
  0
TEXT
  5
89
100
AcDbEntity
  8
M0
100
AcDbText
 10
287.148828
 20
48.236757
 40
3.6
  1
揚水量（Ｌ／分）
 41
0.63786
  7
STANDARD
100
AcDbText
  0
TEXT
  5
8A
100
AcDbEntity
  8
M0
100
AcDbText
 10
257.837569
 20
52.737215
 40
3.6
  1
０
 41
0.601852
  7
STANDARD
100
AcDbText
  0
TEXT
  5
8B
100
AcDbEntity
  8
M0
100
AcDbText
 10
270.855156
 20
52.737215
 40
3.6
  1
１０
 41
0.601852
  7
STANDARD
100
AcDbText
  0
TEXT
  5
8C
100
AcDbEntity
  8
M0
100
AcDbText
 10
284.855159
 20
52.737215
 40
3.6
  1
２０
 41
0.601852
  7
STANDARD
100
AcDbText
  0
TEXT
  5
8D
100
AcDbEntity
  8
M0
100
AcDbText
 10
298.855156
 20
52.737215
 40
3.6
  1
３０
 41
0.601852
  7
STANDARD
100
AcDbText
  0
TEXT
  5
8E
100
AcDbEntity
  8
M0
100
AcDbText
 10
312.855153
 20
52.737215
 40
3.6
  1
４０
 41
0.601852
  7
STANDARD
100
AcDbText
  0
TEXT
  5
8F
100
AcDbEntity
  8
M0
100
AcDbText
 10
326.855153
 20
52.737215
 40
3.6
  1
５０
 41
0.601852
  7
STANDARD
100
AcDbText
  0
TEXT
  5
90
100
AcDbEntity
  8
M0
100
AcDbText
 10
155.661583
 20
261.572281
 40
3.528
  1
吸上高さ１２ｍ
 41
0.777778
  7
STANDARD
100
AcDbText
  0
TEXT
  5
91
100
AcDbEntity
  8
M0
100
AcDbText
 10
152.234374
 20
266.507462
 40
3.528
  1
【標準ジェットＪ４０－７Ｙ組合わせ時】
 41
0.777778
  7
STANDARD
100
AcDbText
  0
LINE
  5
92
100
AcDbEntity
  8
M0
 62
   234
100
AcDbLine
 10
153.901765
 20
254.398398
 11
153.901765
 21
181.598398
  0
LINE
  5
93
100
AcDbEntity
  8
M0
 62
   234
100
AcDbLine
 10
226.701765
 20
181.598398
 11
153.901765
 21
181.598398
  0
LINE
  5
94
100
AcDbEntity
  8
M0
 62
   234
100
AcDbLine
 10
167.901765
 20
254.398398
 11
167.901765
 21
181.598398
  0
LINE
  5
95
100
AcDbEntity
  8
M0
 62
   234
100
AcDbLine
 10
181.901765
 20
254.398398
 11
181.901765
 21
181.598398
  0
LINE
  5
96
100
AcDbEntity
  8
M0
 62
   234
100
AcDbLine
 10
153.901765
 20
195.598398
 11
226.701765
 21
195.598398
  0
LINE
  5
97
100
AcDbEntity
  8
M0
 62
   234
100
AcDbLine
 10
195.901765
 20
254.398398
 11
195.901765
 21
249.699654
  0
LINE
  5
98
100
AcDbEntity
  8
M0
 62
   234
100
AcDbLine
 10
153.901765
 20
209.598398
 11
226.701765
 21
209.598398
  0
LINE
  5
99
100
AcDbEntity
  8
M0
 62
   234
100
AcDbLine
 10
209.901765
 20
181.598398
 11
209.901765
 21
225.410786
  0
LINE
  5
9A
100
AcDbEntity
  8
M0
 62
   234
100
AcDbLine
 10
153.901765
 20
237.598398
 11
223.901765
 21
237.598398
  0
LINE
  5
9B
100
AcDbEntity
  8
M0
 62
   234
100
AcDbLine
 10
223.901765
 20
181.598398
 11
223.901765
 21
225.410786
  0
LINE
  5
9C
100
AcDbEntity
  8
M0
 62
   234
100
AcDbLine
 10
153.901765
 20
251.598398
 11
223.901765
 21
251.598398
  0
LINE
  5
9D
100
AcDbEntity
  8
M0
 62
   234
100
AcDbLine
 10
226.701765
 20
223.598398
 11
198.544149
 21
223.598398
  0
LINE
  5
9E
100
AcDbEntity
  8
M0
 62
   234
100
AcDbLine
 10
195.901765
 20
239.496523
 11
195.901765
 21
181.598398
  0
LINE
  5
9F
100
AcDbEntity
  8
M0
 62
   234
100
AcDbLine
 10
209.901765
 20
249.699654
 11
209.901765
 21
254.398398
  0
LINE
  5
A0
100
AcDbEntity
  8
M0
 62
   234
100
AcDbLine
 10
223.901765
 20
249.699654
 11
223.901765
 21
254.398398
  0
LINE
  5
A1
100
AcDbEntity
  8
M0
 62
   234
100
AcDbLine
 10
209.901765
 20
235.343037
 11
209.901765
 21
239.496523
  0
LINE
  5
A2
100
AcDbEntity
  8
M0
 62
   234
100
AcDbLine
 10
223.901765
 20
235.343037
 11
223.901765
 21
239.496523
  0
LINE
  5
A3
100
AcDbEntity
  8
M0
 62
   234
100
AcDbLine
 10
258.996976
 20
113.410294
 11
331.796976
 21
113.410294
  0
LINE
  5
A4
100
AcDbEntity
  8
M0
 62
   234
100
AcDbLine
 10
286.996976
 20
137.328482
 11
286.996976
 21
132.814929
  0
LINE
  5
A5
100
AcDbEntity
  8
M0
 62
   234
100
AcDbLine
 10
258.996976
 20
99.410294
 11
331.796976
 21
99.410294
  0
LINE
  5
A6
100
AcDbEntity
  8
M0
 62
   234
100
AcDbLine
 10
314.996976
 20
57.410294
 11
314.996976
 21
121.4298
  0
LINE
  5
A7
100
AcDbEntity
  8
M0
 62
   234
100
AcDbLine
 10
331.796976
 20
57.410294
 11
258.996976
 21
57.410294
  0
LINE
  5
A8
100
AcDbEntity
  8
M0
 62
   234
100
AcDbLine
 10
258.996976
 20
71.410294
 11
331.796976
 21
71.410294
  0
LINE
  5
A9
100
AcDbEntity
  8
M0
 62
   234
100
AcDbLine
 10
258.996976
 20
85.410294
 11
331.796976
 21
85.410294
  0
LINE
  5
AA
100
AcDbEntity
  8
M0
 62
   234
100
AcDbLine
 10
328.996976
 20
57.410294
 11
328.996976
 21
137.328482
  0
LINE
  5
AB
100
AcDbEntity
  8
M0
 62
   234
100
AcDbLine
 10
272.996976
 20
138.666158
 11
272.996976
 21
57.410294
  0
LINE
  5
AC
100
AcDbEntity
  8
M0
 62
   234
100
AcDbLine
 10
258.996976
 20
144.210294
 11
258.996976
 21
57.410294
  0
LINE
  5
AD
100
AcDbEntity
  8
M0
 62
   234
100
AcDbLine
 10
258.996976
 20
85.410294
 11
311.572802
 21
85.410294
  0
LINE
  5
AE
100
AcDbEntity
  8
M0
 62
   234
100
AcDbLine
 10
258.996976
 20
127.410294
 11
276.437531
 21
127.410294
  0
LINE
  5
AF
100
AcDbEntity
  8
M0
 62
   234
100
AcDbLine
 10
258.996976
 20
141.410294
 11
270.920809
 21
141.410294
  0
LINE
  5
B0
100
AcDbEntity
  8
M0
 62
   234
100
AcDbLine
 10
300.996976
 20
137.328482
 11
300.996976
 21
133.319333
  0
LINE
  5
B1
100
AcDbEntity
  8
M0
 62
   234
100
AcDbLine
 10
286.996976
 20
121.645973
 11
286.996976
 21
57.410294
  0
LINE
  5
B2
100
AcDbEntity
  8
M0
 62
   234
100
AcDbLine
 10
300.996976
 20
121.141569
 11
300.996976
 21
57.410294
  0
LINE
  5
B3
100
AcDbEntity
  8
M0
 62
   234
100
AcDbLine
 10
314.996976
 20
133.463449
 11
314.996976
 21
137.328482
  0
LINE
  5
B4
100
AcDbEntity
  8
M0
 62
     2
100
AcDbLine
 10
41.880718
 20
224.998398
 11
69.320718
 21
224.998398
  0
TEXT
  5
B5
100
AcDbEntity
  8
M0
100
AcDbText
 10
40.213327
 20
151.919352
 40
3.528
  1
【深井戸ジェットＪ７５－２４Ｘ組合わせ時】
 41
0.777778
  7
STANDARD
100
AcDbText
  0
TEXT
  5
B6
100
AcDbEntity
  8
M0
100
AcDbText
 10
43.640537
 20
146.984183
 40
3.528
  1
吸上高さ２４ｍ
 41
0.777778
  7
STANDARD
100
AcDbText
  0
TEXT
  5
B7
100
AcDbEntity
  8
M0
100
AcDbText
 10
250.78444
 20
78.201758
 40
3.6
  1
（　）
 50
90.000003
 41
0.63786
  7
STANDARD
100
AcDbText
  0
TEXT
  5
B8
100
AcDbEntity
  8
M0
100
AcDbText
 10
247.51602
 20
95.810294
 40
3.6
  1
全
 41
0.833333
  7
STANDARD
100
AcDbText
  0
TEXT
  5
B9
100
AcDbEntity
  8
M0
100
AcDbText
 10
247.51602
 20
92.054739
 40
3.6
  1
揚
 41
0.833333
  7
STANDARD
100
AcDbText
  0
TEXT
  5
BA
100
AcDbEntity
  8
M0
100
AcDbText
 10
247.51602
 20
88.299183
 40
3.6
  1
程
 41
0.833333
  7
STANDARD
100
AcDbText
  0
TEXT
  5
BB
100
AcDbEntity
  8
M0
100
AcDbText
 10
247.51602
 20
84.543628
 40
3.6
  1
　
 41
0.833333
  7
STANDARD
100
AcDbText
  0
TEXT
  5
BC
100
AcDbEntity
  8
M0
100
AcDbText
 10
247.51602
 20
80.788072
 40
3.6
  1
ｍ
 41
0.833333
  7
STANDARD
100
AcDbText
  0
LINE
  5
BD
100
AcDbEntity
  8
M0
 62
     7
100
AcDbLine
 10
106.280718
 20
191.398398
 11
106.280718
 21
204.409815
  0
LINE
  5
BE
100
AcDbEntity
  8
M0
 62
     7
100
AcDbLine
 10
52.557174
 20
238.682924
 11
75.948124
 21
219.588271
  0
LINE
  5
BF
100
AcDbEntity
  8
M0
 62
     7
100
AcDbLine
 10
76.314995
 20
219.129844
 11
80.078412
 21
211.603011
  0
LINE
  5
C0
100
AcDbEntity
  8
M0
 62
     7
100
AcDbLine
 10
81.042196
 20
210.85914
 11
105.169133
 21
205.779785
  0
ARC
  5
C1
100
AcDbEntity
  8
M0
 62
     7
100
AcDbCircle
 10
75.062797
 20
218.503745
 40
1.4
100
AcDbArc
 50
26.565051
 51
50.774326
  0
ARC
  5
C2
100
AcDbEntity
  8
M0
 62
     7
100
AcDbCircle
 10
104.880718
 20
204.409815
 40
1.4
100
AcDbArc
 50
0.0
 51
78.111342
  0
ARC
  5
C3
100
AcDbEntity
  8
M0
 62
     7
100
AcDbCircle
 10
81.33061
 20
212.22911
 40
1.4
100
AcDbArc
 50
206.565051
 51
258.111342
  0
ARC
  5
C4
100
AcDbEntity
  8
M0
 62
     7
100
AcDbCircle
 10
51.671847
 20
237.598398
 40
1.4
100
AcDbArc
 50
50.774326
 51
90.0
  0
LINE
  5
C5
100
AcDbEntity
  8
M0
 62
     7
100
AcDbLine
 10
165.520586
 20
245.760879
 11
209.281919
 21
216.392162
  0
LINE
  5
C6
100
AcDbEntity
  8
M0
 62
     7
100
AcDbLine
 10
209.901765
 20
215.229682
 11
209.901765
 21
197.998398
  0
ARC
  5
C7
100
AcDbEntity
  8
M0
 62
     7
100
AcDbCircle
 10
164.740432
 20
244.598398
 40
1.4
100
AcDbArc
 50
56.133999
 51
90.0
  0
ARC
  5
C8
100
AcDbEntity
  8
M0
 62
     7
100
AcDbCircle
 10
208.501765
 20
215.229682
 40
1.4
100
AcDbArc
 50
0.0
 51
56.133999
  0
LINE
  5
C9
100
AcDbEntity
  8
M0
 62
   234
100
AcDbLine
 10
41.880718
 20
254.398398
 11
41.880718
 21
181.598398
  0
LINE
  5
CA
100
AcDbEntity
  8
M0
 62
   234
100
AcDbLine
 10
114.680718
 20
181.598398
 11
41.880718
 21
181.598398
  0
LINE
  5
CB
100
AcDbEntity
  8
M0
 62
   234
100
AcDbLine
 10
55.880718
 20
254.398398
 11
55.880718
 21
181.598398
  0
LINE
  5
CC
100
AcDbEntity
  8
M0
 62
   234
100
AcDbLine
 10
69.880718
 20
246.646209
 11
69.880718
 21
181.598398
  0
LINE
  5
CD
100
AcDbEntity
  8
M0
 62
   234
100
AcDbLine
 10
41.880718
 20
195.598398
 11
114.680718
 21
195.598398
  0
LINE
  5
CE
100
AcDbEntity
  8
M0
 62
   234
100
AcDbLine
 10
41.880718
 20
209.598398
 11
94.456544
 21
209.598398
  0
LINE
  5
CF
100
AcDbEntity
  8
M0
 62
   234
100
AcDbLine
 10
41.880718
 20
223.598398
 11
77.880718
 21
223.598398
  0
LINE
  5
D0
100
AcDbEntity
  8
M0
 62
   234
100
AcDbLine
 10
83.880718
 20
246.646209
 11
83.880718
 21
244.067292
  0
LINE
  5
D1
100
AcDbEntity
  8
M0
 62
   234
100
AcDbLine
 10
41.880718
 20
209.598398
 11
114.680718
 21
209.598398
  0
LINE
  5
D2
100
AcDbEntity
  8
M0
 62
   234
100
AcDbLine
 10
97.880718
 20
181.598398
 11
97.880718
 21
218.38791
  0
LINE
  5
D3
100
AcDbEntity
  8
M0
 62
   234
100
AcDbLine
 10
41.880718
 20
237.598398
 11
73.880718
 21
237.598398
  0
LINE
  5
D4
100
AcDbEntity
  8
M0
 62
   234
100
AcDbLine
 10
111.880718
 20
181.598398
 11
111.880718
 21
218.38791
  0
LINE
  5
D5
100
AcDbEntity
  8
M0
 62
   234
100
AcDbLine
 10
41.880718
 20
251.598398
 11
68.17522
 21
251.598398
  0
LINE
  5
D6
100
AcDbEntity
  8
M0
 62
   234
100
AcDbLine
 10
83.880718
 20
232.297575
 11
83.880718
 21
228.781946
  0
LINE
  5
D7
100
AcDbEntity
  8
M0
 62
   234
100
AcDbLine
 10
97.880718
 20
244.067292
 11
97.880718
 21
246.646209
  0
LINE
  5
D8
100
AcDbEntity
  8
M0
 62
   234
100
AcDbLine
 10
111.880718
 20
244.067292
 11
111.880718
 21
246.646209
  0
LINE
  5
D9
100
AcDbEntity
  8
M0
 62
   234
100
AcDbLine
 10
111.880718
 20
228.781946
 11
111.880718
 21
232.297575
  0
LINE
  5
DA
100
AcDbEntity
  8
M0
 62
   234
100
AcDbLine
 10
97.880718
 20
228.781946
 11
97.880718
 21
232.297575
  0
LINE
  5
DB
100
AcDbEntity
  8
M0
 62
   234
100
AcDbLine
 10
83.880718
 20
218.38791
 11
83.880718
 21
181.598398
  0
TEXT
  5
DC
100
AcDbEntity
  8
M0
100
AcDbText
 10
152.234386
 20
151.919352
 40
3.528
  1
【深井戸ジェットＪ７５－３５Ｘ組合わせ時】
 41
0.777778
  7
STANDARD
100
AcDbText
  0
TEXT
  5
DD
100
AcDbEntity
  8
M0
100
AcDbText
 10
155.661583
 20
146.984183
 40
3.528
  1
吸上高さ３０ｍ
 41
0.777778
  7
STANDARD
100
AcDbText
  0
TEXT
  5
DE
100
AcDbEntity
  8
M0
100
AcDbText
 10
38.605442
 20
179.525319
 40
3.6
  1
０
 41
0.601852
  7
STANDARD
100
AcDbText
  0
TEXT
  5
DF
100
AcDbEntity
  8
M0
100
AcDbText
 10
36.2567
 20
193.889376
 40
3.6
  1
１０
 41
0.601852
  7
STANDARD
100
AcDbText
  0
TEXT
  5
E0
100
AcDbEntity
  8
M0
100
AcDbText
 10
36.2567
 20
207.889382
 40
3.6
  1
２０
 41
0.601852
  7
STANDARD
100
AcDbText
  0
TEXT
  5
E1
100
AcDbEntity
  8
M0
100
AcDbText
 10
36.2567
 20
221.889382
 40
3.6
  1
３０
 41
0.601852
  7
STANDARD
100
AcDbText
  0
TEXT
  5
E2
100
AcDbEntity
  8
M0
100
AcDbText
 10
36.15515
 20
235.801284
 40
3.6
  1
４０
 41
0.601852
  7
STANDARD
100
AcDbText
  0
TEXT
  5
E3
100
AcDbEntity
  8
M0
100
AcDbText
 10
36.15515
 20
249.801284
 40
3.6
  1
５０
 41
0.601852
  7
STANDARD
100
AcDbText
  0
LINE
  5
E4
100
AcDbEntity
  8
M0
 62
     2
100
AcDbLine
 10
153.901765
 20
231.998398
 11
186.027593
 21
231.998398
  0
LINE
  5
E5
100
AcDbEntity
  8
M0
 62
     2
100
AcDbLine
 10
41.880718
 20
124.610294
 11
60.000627
 21
124.610294
  0
ARC
  5
E6
100
AcDbEntity
  8
M0
 62
     2
100
AcDbCircle
 10
60.000627
 20
123.210294
 40
1.4
100
AcDbArc
 50
32.804941
 51
90.0
  0
LINE
  5
E7
100
AcDbEntity
  8
M0
 62
     5
100
AcDbLine
 10
41.880718
 20
116.210294
 11
65.415083
 21
116.210294
  0
ARC
  5
E8
100
AcDbEntity
  8
M0
 62
     5
100
AcDbCircle
 10
65.415083
 20
114.810294
 40
1.4
100
AcDbArc
 50
32.804941
 51
90.0
  0
LINE
  5
E9
100
AcDbEntity
  8
M0
 62
     2
100
AcDbLine
 10
153.901765
 20
133.010294
 11
166.641765
 21
133.010294
  0
LINE
  5
EA
100
AcDbEntity
  8
M0
 62
   234
100
AcDbLine
 10
41.880718
 20
113.410294
 11
114.680718
 21
113.410294
  0
LINE
  5
EB
100
AcDbEntity
  8
M0
 62
   234
100
AcDbLine
 10
69.880718
 20
136.183655
 11
69.880718
 21
57.410294
  0
LINE
  5
EC
100
AcDbEntity
  8
M0
 62
   234
100
AcDbLine
 10
41.880718
 20
99.410294
 11
114.680718
 21
99.410294
  0
LINE
  5
ED
100
AcDbEntity
  8
M0
 62
   234
100
AcDbLine
 10
83.880718
 20
136.183655
 11
83.880718
 21
132.734833
  0
LINE
  5
EE
100
AcDbEntity
  8
M0
 62
   234
100
AcDbLine
 10
97.880718
 20
57.410294
 11
97.880718
 21
121.480782
  0
LINE
  5
EF
100
AcDbEntity
  8
M0
 62
   234
100
AcDbLine
 10
114.680718
 20
57.410294
 11
41.880718
 21
57.410294
  0
LINE
  5
F0
100
AcDbEntity
  8
M0
 62
   234
100
AcDbLine
 10
41.880718
 20
71.410294
 11
114.680718
 21
71.410294
  0
LINE
  5
F1
100
AcDbEntity
  8
M0
 62
   234
100
AcDbLine
 10
41.880718
 20
85.410294
 11
114.680718
 21
85.410294
  0
LINE
  5
F2
100
AcDbEntity
  8
M0
 62
   234
100
AcDbLine
 10
111.880718
 20
57.410294
 11
111.880718
 21
121.480782
  0
LINE
  5
F3
100
AcDbEntity
  8
M0
 62
   234
100
AcDbLine
 10
55.880718
 20
144.210294
 11
55.880718
 21
57.410294
  0
LINE
  5
F4
100
AcDbEntity
  8
M0
 62
   234
100
AcDbLine
 10
41.880718
 20
144.210294
 11
41.880718
 21
57.410294
  0
LINE
  5
F5
100
AcDbEntity
  8
M0
 62
   234
100
AcDbLine
 10
41.880718
 20
85.410294
 11
94.456544
 21
85.410294
  0
LINE
  5
F6
100
AcDbEntity
  8
M0
 62
   234
100
AcDbLine
 10
41.880718
 20
127.410294
 11
72.262572
 21
127.410294
  0
LINE
  5
F7
100
AcDbEntity
  8
M0
 62
   234
100
AcDbLine
 10
41.880718
 20
141.410294
 11
67.750948
 21
141.410294
  0
LINE
  5
F8
100
AcDbEntity
  8
M0
 62
   234
100
AcDbLine
 10
83.880718
 20
121.480782
 11
83.880718
 21
57.410294
  0
LINE
  5
F9
100
AcDbEntity
  8
M0
 62
   234
100
AcDbLine
 10
97.880718
 20
132.734833
 11
97.880718
 21
136.183655
  0
LINE
  5
FA
100
AcDbEntity
  8
M0
 62
   234
100
AcDbLine
 10
111.880718
 20
132.734833
 11
111.880718
 21
136.183655
  0
LINE
  5
FB
100
AcDbEntity
  8
M0
100
AcDbLine
 10
67.983128
 20
113.410294
 11
61.177355
 21
123.968787
  0
LINE
  5
FC
100
AcDbEntity
  8
M0
100
AcDbLine
 10
67.983128
 20
113.410294
 11
69.880718
 21
99.410294
  0
LINE
  5
FD
100
AcDbEntity
  8
M0
100
AcDbLine
 10
69.880718
 20
99.410294
 11
69.880718
 21
95.210294
  0
TEXT
  5
FE
100
AcDbEntity
  8
M0
100
AcDbText
 10
260.756794
 20
146.984183
 40
3.528
  1
吸上高さ２４ｍ
 41
0.777778
  7
STANDARD
100
AcDbText
  0
TEXT
  5
FF
100
AcDbEntity
  8
M0
100
AcDbText
 10
257.329585
 20
151.919352
 40
3.528
  1
【深井戸用特殊ジェットＪ４０－２４ＳＸ組合わせ時】
 41
0.777778
  7
STANDARD
100
AcDbText
  0
LINE
  5
100
100
AcDbEntity
  8
M0
100
AcDbLine
 10
270.718943
 20
122.356525
 11
272.996976
 21
106.410294
  0
LINE
  5
101
100
AcDbEntity
  8
M0
100
AcDbLine
 10
272.996976
 20
106.410294
 11
272.996976
 21
91.010294
  0
LINE
  5
102
100
AcDbEntity
  8
M0
 62
     5
100
AcDbLine
 10
258.996976
 20
116.210294
 11
270.382762
 21
116.210294
  0
ARC
  5
103
100
AcDbEntity
  8
M0
 62
     5
100
AcDbCircle
 10
270.382762
 20
114.810294
 40
1.4
100
AcDbArc
 50
8.130102
 51
90.0
  0
LINE
  5
104
100
AcDbEntity
  8
M0
 62
     5
100
AcDbLine
 10
198.544149
 20
223.598398
 11
153.901765
 21
223.598398
  0
TEXT
  5
105
100
AcDbEntity
  8
M0
100
AcDbText
 10
182.053617
 20
172.424861
 40
3.6
  1
揚水量（Ｌ／分）
 41
0.63786
  7
STANDARD
100
AcDbText
  0
LINE
  5
106
100
AcDbEntity
  8
M0
 62
   234
100
AcDbLine
 10
153.901765
 20
113.410294
 11
212.701765
 21
113.410294
  0
LINE
  5
107
100
AcDbEntity
  8
M0
 62
   234
100
AcDbLine
 10
181.901765
 20
136.35038
 11
181.901765
 21
132.952866
  0
LINE
  5
108
100
AcDbEntity
  8
M0
 62
   234
100
AcDbLine
 10
153.901765
 20
99.410294
 11
212.701765
 21
99.410294
  0
LINE
  5
109
100
AcDbEntity
  8
M0
 62
   234
100
AcDbLine
 10
195.901765
 20
136.35038
 11
195.901765
 21
132.952866
  0
LINE
  5
10A
100
AcDbEntity
  8
M0
 62
   234
100
AcDbLine
 10
212.701765
 20
57.410294
 11
153.901765
 21
57.410294
  0
LINE
  5
10B
100
AcDbEntity
  8
M0
 62
   234
100
AcDbLine
 10
153.901765
 20
71.410294
 11
212.701765
 21
71.410294
  0
LINE
  5
10C
100
AcDbEntity
  8
M0
 62
   234
100
AcDbLine
 10
153.901765
 20
85.410294
 11
195.901765
 21
85.410294
  0
LINE
  5
10D
100
AcDbEntity
  8
M0
 62
   234
100
AcDbLine
 10
167.901765
 20
135.844367
 11
167.901765
 21
57.410294
  0
LINE
  5
10E
100
AcDbEntity
  8
M0
 62
   234
100
AcDbLine
 10
153.901765
 20
144.210294
 11
153.901765
 21
57.410294
  0
LINE
  5
10F
100
AcDbEntity
  8
M0
 62
   234
100
AcDbLine
 10
153.901765
 20
85.410294
 11
212.701765
 21
85.410294
  0
LINE
  5
110
100
AcDbEntity
  8
M0
 62
   234
100
AcDbLine
 10
153.901765
 20
127.410294
 11
178.537204
 21
127.410294
  0
LINE
  5
111
100
AcDbEntity
  8
M0
 62
   234
100
AcDbLine
 10
153.901765
 20
141.410294
 11
166.248324
 21
141.410294
  0
LINE
  5
112
100
AcDbEntity
  8
M0
 62
   234
100
AcDbLine
 10
209.901765
 20
136.35038
 11
209.901765
 21
132.952866
  0
LINE
  5
113
100
AcDbEntity
  8
M0
 62
   234
100
AcDbLine
 10
209.901765
 20
122.109737
 11
209.901765
 21
57.410294
  0
LINE
  5
114
100
AcDbEntity
  8
M0
 62
   234
100
AcDbLine
 10
195.901765
 20
122.109737
 11
195.901765
 21
57.410294
  0
LINE
  5
115
100
AcDbEntity
  8
M0
 62
   234
100
AcDbLine
 10
181.901765
 20
122.109737
 11
181.901765
 21
57.410294
  0
TEXT
  5
116
100
AcDbEntity
  8
M0
100
AcDbText
 10
40.721312
 20
176.925319
 40
3.6
  1
０
 41
0.601852
  7
STANDARD
100
AcDbText
  0
TEXT
  5
117
100
AcDbEntity
  8
M0
100
AcDbText
 10
53.738899
 20
176.925319
 40
3.6
  1
１０
 41
0.601852
  7
STANDARD
100
AcDbText
  0
TEXT
  5
118
100
AcDbEntity
  8
M0
100
AcDbText
 10
67.738902
 20
176.925319
 40
3.6
  1
２０
 41
0.601852
  7
STANDARD
100
AcDbText
  0
TEXT
  5
119
100
AcDbEntity
  8
M0
100
AcDbText
 10
81.738899
 20
176.925319
 40
3.6
  1
３０
 41
0.601852
  7
STANDARD
100
AcDbText
  0
TEXT
  5
11A
100
AcDbEntity
  8
M0
100
AcDbText
 10
95.738896
 20
176.925319
 40
3.6
  1
４０
 41
0.601852
  7
STANDARD
100
AcDbText
  0
TEXT
  5
11B
100
AcDbEntity
  8
M0
100
AcDbText
 10
109.738896
 20
176.925319
 40
3.6
  1
５０
 41
0.601852
  7
STANDARD
100
AcDbText
  0
TEXT
  5
11C
100
AcDbEntity
  8
M0
100
AcDbText
 10
70.03257
 20
172.424861
 40
3.6
  1
揚水量（Ｌ／分）
 41
0.63786
  7
STANDARD
100
AcDbText
  0
TEXT
  5
11D
100
AcDbEntity
  8
M0
100
AcDbText
 10
33.668183
 20
202.389862
 40
3.6
  1
（　）
 50
90.000003
 41
0.63786
  7
STANDARD
100
AcDbText
  0
TEXT
  5
11E
100
AcDbEntity
  8
M0
100
AcDbText
 10
30.399762
 20
219.998398
 40
3.6
  1
全
 41
0.833333
  7
STANDARD
100
AcDbText
  0
TEXT
  5
11F
100
AcDbEntity
  8
M0
100
AcDbText
 10
30.399762
 20
216.242843
 40
3.6
  1
揚
 41
0.833333
  7
STANDARD
100
AcDbText
  0
TEXT
  5
120
100
AcDbEntity
  8
M0
100
AcDbText
 10
30.399762
 20
212.487288
 40
3.6
  1
程
 41
0.833333
  7
STANDARD
100
AcDbText
  0
TEXT
  5
121
100
AcDbEntity
  8
M0
100
AcDbText
 10
30.399762
 20
208.731732
 40
3.6
  1
　
 41
0.833333
  7
STANDARD
100
AcDbText
  0
TEXT
  5
122
100
AcDbEntity
  8
M0
100
AcDbText
 10
30.399762
 20
204.976177
 40
3.6
  1
ｍ
 41
0.833333
  7
STANDARD
100
AcDbText
  0
TEXT
  5
123
100
AcDbEntity
  8
M0
100
AcDbText
 10
152.742358
 20
176.925319
 40
3.6
  1
０
 41
0.601852
  7
STANDARD
100
AcDbText
  0
TEXT
  5
124
100
AcDbEntity
  8
M0
100
AcDbText
 10
165.759946
 20
176.925319
 40
3.6
  1
１０
 41
0.601852
  7
STANDARD
100
AcDbText
  0
TEXT
  5
125
100
AcDbEntity
  8
M0
100
AcDbText
 10
179.759949
 20
176.925319
 40
3.6
  1
２０
 41
0.601852
  7
STANDARD
100
AcDbText
  0
TEXT
  5
126
100
AcDbEntity
  8
M0
100
AcDbText
 10
193.759946
 20
176.925319
 40
3.6
  1
３０
 41
0.601852
  7
STANDARD
100
AcDbText
  0
TEXT
  5
127
100
AcDbEntity
  8
M0
100
AcDbText
 10
207.759943
 20
176.925319
 40
3.6
  1
４０
 41
0.601852
  7
STANDARD
100
AcDbText
  0
TEXT
  5
128
100
AcDbEntity
  8
M0
100
AcDbText
 10
221.759943
 20
176.925319
 40
3.6
  1
５０
 41
0.601852
  7
STANDARD
100
AcDbText
  0
TEXT
  5
129
100
AcDbEntity
  8
M0
100
AcDbText
 10
150.626489
 20
179.525319
 40
3.6
  1
０
 41
0.601852
  7
STANDARD
100
AcDbText
  0
TEXT
  5
12A
100
AcDbEntity
  8
M0
100
AcDbText
 10
148.277747
 20
193.889376
 40
3.6
  1
１０
 41
0.601852
  7
STANDARD
100
AcDbText
  0
TEXT
  5
12B
100
AcDbEntity
  8
M0
100
AcDbText
 10
148.277747
 20
207.889382
 40
3.6
  1
２０
 41
0.601852
  7
STANDARD
100
AcDbText
  0
TEXT
  5
12C
100
AcDbEntity
  8
M0
100
AcDbText
 10
148.277747
 20
221.889382
 40
3.6
  1
３０
 41
0.601852
  7
STANDARD
100
AcDbText
  0
TEXT
  5
12D
100
AcDbEntity
  8
M0
100
AcDbText
 10
148.176196
 20
235.801284
 40
3.6
  1
４０
 41
0.601852
  7
STANDARD
100
AcDbText
  0
TEXT
  5
12E
100
AcDbEntity
  8
M0
100
AcDbText
 10
148.176196
 20
249.801284
 40
3.6
  1
５０
 41
0.601852
  7
STANDARD
100
AcDbText
  0
TEXT
  5
12F
100
AcDbEntity
  8
M0
100
AcDbText
 10
145.689229
 20
202.389862
 40
3.6
  1
（　）
 50
90.000003
 41
0.63786
  7
STANDARD
100
AcDbText
  0
TEXT
  5
130
100
AcDbEntity
  8
M0
100
AcDbText
 10
142.420809
 20
219.998398
 40
3.6
  1
全
 41
0.833333
  7
STANDARD
100
AcDbText
  0
TEXT
  5
131
100
AcDbEntity
  8
M0
100
AcDbText
 10
142.420809
 20
216.242843
 40
3.6
  1
揚
 41
0.833333
  7
STANDARD
100
AcDbText
  0
TEXT
  5
132
100
AcDbEntity
  8
M0
100
AcDbText
 10
142.420809
 20
212.487288
 40
3.6
  1
程
 41
0.833333
  7
STANDARD
100
AcDbText
  0
TEXT
  5
133
100
AcDbEntity
  8
M0
100
AcDbText
 10
142.420809
 20
208.731732
 40
3.6
  1
　
 41
0.833333
  7
STANDARD
100
AcDbText
  0
TEXT
  5
134
100
AcDbEntity
  8
M0
100
AcDbText
 10
142.420809
 20
204.976177
 40
3.6
  1
ｍ
 41
0.833333
  7
STANDARD
100
AcDbText
  0
LINE
  5
135
100
AcDbEntity
  8
M0
 62
     1
100
AcDbLine
 10
153.901765
 20
245.998398
 11
164.740432
 21
245.998398
  0
LINE
  5
136
100
AcDbEntity
  8
M0
 62
     2
100
AcDbLine
 10
258.996976
 20
124.610294
 11
268.120325
 21
124.610294
  0
ARC
  5
137
100
AcDbEntity
  8
M0
 62
     2
100
AcDbCircle
 10
268.120325
 20
121.985294
 40
2.625
100
AcDbArc
 50
8.130102
 51
90.0
  0
TEXT
  5
138
100
AcDbEntity
  8
M0
100
AcDbText
 10
33.668183
 20
78.201758
 40
3.6
  1
（　）
 50
90.000003
 41
0.63786
  7
STANDARD
100
AcDbText
  0
TEXT
  5
139
100
AcDbEntity
  8
M0
100
AcDbText
 10
30.399762
 20
95.810294
 40
3.6
  1
全
 41
0.833333
  7
STANDARD
100
AcDbText
  0
TEXT
  5
13A
100
AcDbEntity
  8
M0
100
AcDbText
 10
30.399762
 20
92.054739
 40
3.6
  1
揚
 41
0.833333
  7
STANDARD
100
AcDbText
  0
TEXT
  5
13B
100
AcDbEntity
  8
M0
100
AcDbText
 10
30.399762
 20
88.299183
 40
3.6
  1
程
 41
0.833333
  7
STANDARD
100
AcDbText
  0
TEXT
  5
13C
100
AcDbEntity
  8
M0
100
AcDbText
 10
30.399762
 20
84.543628
 40
3.6
  1
　
 41
0.833333
  7
STANDARD
100
AcDbText
  0
TEXT
  5
13D
100
AcDbEntity
  8
M0
100
AcDbText
 10
30.399762
 20
80.788072
 40
3.6
  1
ｍ
 41
0.833333
  7
STANDARD
100
AcDbText
  0
TEXT
  5
13E
100
AcDbEntity
  8
M0
100
AcDbText
 10
40.721312
 20
52.737215
 40
3.6
  1
０
 41
0.601852
  7
STANDARD
100
AcDbText
  0
TEXT
  5
13F
100
AcDbEntity
  8
M0
100
AcDbText
 10
53.738899
 20
52.737215
 40
3.6
  1
１０
 41
0.601852
  7
STANDARD
100
AcDbText
  0
TEXT
  5
140
100
AcDbEntity
  8
M0
100
AcDbText
 10
67.738902
 20
52.737215
 40
3.6
  1
２０
 41
0.601852
  7
STANDARD
100
AcDbText
  0
TEXT
  5
141
100
AcDbEntity
  8
M0
100
AcDbText
 10
81.738899
 20
52.737215
 40
3.6
  1
３０
 41
0.601852
  7
STANDARD
100
AcDbText
  0
TEXT
  5
142
100
AcDbEntity
  8
M0
100
AcDbText
 10
95.738896
 20
52.737215
 40
3.6
  1
４０
 41
0.601852
  7
STANDARD
100
AcDbText
  0
TEXT
  5
143
100
AcDbEntity
  8
M0
100
AcDbText
 10
109.738896
 20
52.737215
 40
3.6
  1
５０
 41
0.601852
  7
STANDARD
100
AcDbText
  0
TEXT
  5
144
100
AcDbEntity
  8
M0
100
AcDbText
 10
70.03257
 20
48.236757
 40
3.6
  1
揚水量（Ｌ／分）
 41
0.63786
  7
STANDARD
100
AcDbText
  0
LINE
  5
145
100
AcDbEntity
  8
M0
 62
     1
100
AcDbLine
 10
41.880718
 20
238.998398
 11
52.170718
 21
238.998398
  0
LINE
  5
146
100
AcDbEntity
  8
M0
 62
     5
100
AcDbLine
 10
41.880718
 20
216.598398
 11
77.580718
 21
216.598398
  0
TEXT
  5
147
100
AcDbEntity
  8
M0
100
AcDbText
 10
145.689229
 20
78.201758
 40
3.6
  1
（　）
 50
90.000003
 41
0.63786
  7
STANDARD
100
AcDbText
  0
TEXT
  5
148
100
AcDbEntity
  8
M0
100
AcDbText
 10
142.420809
 20
95.810294
 40
3.6
  1
全
 41
0.833333
  7
STANDARD
100
AcDbText
  0
TEXT
  5
149
100
AcDbEntity
  8
M0
100
AcDbText
 10
142.420809
 20
92.054739
 40
3.6
  1
揚
 41
0.833333
  7
STANDARD
100
AcDbText
  0
TEXT
  5
14A
100
AcDbEntity
  8
M0
100
AcDbText
 10
142.420809
 20
88.299183
 40
3.6
  1
程
 41
0.833333
  7
STANDARD
100
AcDbText
  0
TEXT
  5
14B
100
AcDbEntity
  8
M0
100
AcDbText
 10
142.420809
 20
84.543628
 40
3.6
  1
　
 41
0.833333
  7
STANDARD
100
AcDbText
  0
TEXT
  5
14C
100
AcDbEntity
  8
M0
100
AcDbText
 10
142.420809
 20
80.788072
 40
3.6
  1
ｍ
 41
0.833333
  7
STANDARD
100
AcDbText
  0
TEXT
  5
14D
100
AcDbEntity
  8
M0
100
AcDbText
 10
255.7217
 20
55.337215
 40
3.6
  1
０
 41
0.601852
  7
STANDARD
100
AcDbText
  0
TEXT
  5
14E
100
AcDbEntity
  8
M0
100
AcDbText
 10
253.372957
 20
69.701271
 40
3.6
  1
１０
 41
0.601852
  7
STANDARD
100
AcDbText
  0
TEXT
  5
14F
100
AcDbEntity
  8
M0
100
AcDbText
 10
253.372957
 20
83.701277
 40
3.6
  1
２０
 41
0.601852
  7
STANDARD
100
AcDbText
  0
TEXT
  5
150
100
AcDbEntity
  8
M0
100
AcDbText
 10
253.372957
 20
97.701277
 40
3.6
  1
３０
 41
0.601852
  7
STANDARD
100
AcDbText
  0
TEXT
  5
151
100
AcDbEntity
  8
M0
100
AcDbText
 10
253.271407
 20
111.613179
 40
3.6
  1
４０
 41
0.601852
  7
STANDARD
100
AcDbText
  0
TEXT
  5
152
100
AcDbEntity
  8
M0
100
AcDbText
 10
253.271407
 20
125.613179
 40
3.6
  1
５０
 41
0.601852
  7
STANDARD
100
AcDbText
  0
TEXT
  5
153
100
AcDbEntity
  8
M0
100
AcDbText
 10
253.271407
 20
139.613179
 40
3.6
  1
６０
 41
0.601852
  7
STANDARD
100
AcDbText
  0
TEXT
  5
154
100
AcDbEntity
  8
M0
100
AcDbText
 10
182.053617
 20
48.236757
 40
3.6
  1
揚水量（Ｌ／分）
 41
0.63786
  7
STANDARD
100
AcDbText
  0
TEXT
  5
155
100
AcDbEntity
  8
M0
100
AcDbText
 10
150.626489
 20
55.337215
 40
3.6
  1
０
 41
0.601852
  7
STANDARD
100
AcDbText
  0
TEXT
  5
156
100
AcDbEntity
  8
M0
100
AcDbText
 10
148.277747
 20
69.701271
 40
3.6
  1
１０
 41
0.601852
  7
STANDARD
100
AcDbText
  0
TEXT
  5
157
100
AcDbEntity
  8
M0
100
AcDbText
 10
148.277747
 20
83.701277
 40
3.6
  1
２０
 41
0.601852
  7
STANDARD
100
AcDbText
  0
TEXT
  5
158
100
AcDbEntity
  8
M0
100
AcDbText
 10
148.277747
 20
97.701277
 40
3.6
  1
３０
 41
0.601852
  7
STANDARD
100
AcDbText
  0
TEXT
  5
159
100
AcDbEntity
  8
M0
100
AcDbText
 10
148.176196
 20
111.613179
 40
3.6
  1
４０
 41
0.601852
  7
STANDARD
100
AcDbText
  0
TEXT
  5
15A
100
AcDbEntity
  8
M0
100
AcDbText
 10
148.176196
 20
125.613179
 40
3.6
  1
５０
 41
0.601852
  7
STANDARD
100
AcDbText
  0
TEXT
  5
15B
100
AcDbEntity
  8
M0
100
AcDbText
 10
148.176196
 20
139.613179
 40
3.6
  1
６０
 41
0.601852
  7
STANDARD
100
AcDbText
  0
TEXT
  5
15C
100
AcDbEntity
  8
M0
100
AcDbText
 10
38.605442
 20
55.337215
 40
3.6
  1
０
 41
0.601852
  7
STANDARD
100
AcDbText
  0
TEXT
  5
15D
100
AcDbEntity
  8
M0
100
AcDbText
 10
36.2567
 20
69.701271
 40
3.6
  1
１０
 41
0.601852
  7
STANDARD
100
AcDbText
  0
TEXT
  5
15E
100
AcDbEntity
  8
M0
100
AcDbText
 10
36.2567
 20
83.701277
 40
3.6
  1
２０
 41
0.601852
  7
STANDARD
100
AcDbText
  0
TEXT
  5
15F
100
AcDbEntity
  8
M0
100
AcDbText
 10
36.2567
 20
97.701277
 40
3.6
  1
３０
 41
0.601852
  7
STANDARD
100
AcDbText
  0
TEXT
  5
160
100
AcDbEntity
  8
M0
100
AcDbText
 10
36.15515
 20
111.613179
 40
3.6
  1
４０
 41
0.601852
  7
STANDARD
100
AcDbText
  0
TEXT
  5
161
100
AcDbEntity
  8
M0
100
AcDbText
 10
36.15515
 20
125.613179
 40
3.6
  1
５０
 41
0.601852
  7
STANDARD
100
AcDbText
  0
TEXT
  5
162
100
AcDbEntity
  8
M0
100
AcDbText
 10
36.15515
 20
139.613179
 40
3.6
  1
６０
 41
0.601852
  7
STANDARD
100
AcDbText
  0
TEXT
  5
163
100
AcDbEntity
  8
M0
100
AcDbText
 10
152.742358
 20
52.737215
 40
3.6
  1
０
 41
0.601852
  7
STANDARD
100
AcDbText
  0
TEXT
  5
164
100
AcDbEntity
  8
M0
100
AcDbText
 10
165.759946
 20
52.737215
 40
3.6
  1
１０
 41
0.601852
  7
STANDARD
100
AcDbText
  0
TEXT
  5
165
100
AcDbEntity
  8
M0
100
AcDbText
 10
179.759949
 20
52.737215
 40
3.6
  1
２０
 41
0.601852
  7
STANDARD
100
AcDbText
  0
TEXT
  5
166
100
AcDbEntity
  8
M0
100
AcDbText
 10
193.759946
 20
52.737215
 40
3.6
  1
３０
 41
0.601852
  7
STANDARD
100
AcDbText
  0
TEXT
  5
167
100
AcDbEntity
  8
M0
100
AcDbText
 10
207.759943
 20
52.737215
 40
3.6
  1
４０
 41
0.601852
  7
STANDARD
100
AcDbText
  0
ENDSEC
  0
SECTION
  2
OBJECTS
  0
DICTIONARY
  5
C
100
AcDbDictionary
  3
ACAD_GROUP
350
D
  3
ACAD_MLINESTYLE
350
E
  0
DICTIONARY
  5
D
102
{ACAD_REACTORS
330
C
102
}
100
AcDbDictionary
  0
DICTIONARY
  5
E
102
{ACAD_REACTORS
330
C
102
}
100
AcDbDictionary
  3
STANDARD
350
13
  0
MLINESTYLE
  5
13
102
{ACAD_REACTORS
330
E
102
}
100
AcDbMlineStyle
  2
STANDARD
 70
     0
  3

 62
     0
 51
90.0
 52
90.0
 71
     2
 49
0.5
 62
   256
  6
BYLAYER
 49
-0.5
 62
   256
  6
BYLAYER
  0
ENDSEC
  0
EOF
