  0
SECTION
  2
HEADER
  9
$ACADVER
  1
AC1012
  9
$INSBASE
 10
0.000000
 20
0.000000
 30
0.0
  9
$VIEWCTR
 10
7.531722
 20
4.5
  9
$VIEWSIZE
 40
9.0
  9
$SNAPMODE
 70
     0
  9
$SNAPUNIT
 10
1.0
 20
1.0
  9
$SNAPBASE
 10
0.0
 20
0.0
  9
$SNAPANG
 50
0.0
  9
$SNAPSTYLE
 70
     0
  9
$SNAPISOPAIR
 70
     0
  9
$GRIDMODE
 70
     0
  9
$GRIDUNIT
 10
0.0
 20
0.0
  9
$ORTHOMODE
 70
     0
  9
$REGENMODE
 70
     1
  9
$FILLMODE
 70
     1
  9
$QTEXTMODE
 70
     0
  9
$DRAGMODE
 70
     2
  9
$LTSCALE
  40
     1.000000
  9
$OSMODE
 70
     0
  9
$ATTMODE
 70
     1
  9
$TEXTSIZE
 40
0.2
  9
$TRACEWID
 40
0.05
  9
$TEXTSTYLE
  7
STANDARD
  9
$CELTYPE
  6
BYLAYER
  9
$CECOLOR
 62
   256
  9
$DIMSCALE
 40
1.0
  9
$DIMASZ
 40
0.18
  9
$DIMEXO
 40
0.0625
  9
$DIMDLI
 40
0.38
  9
$DIMRND
 40
0.0
  9
$DIMDLE
 40
0.0
  9
$DIMEXE
 40
0.18
  9
$DIMTP
 40
0.0
  9
$DIMTM
 40
0.0
  9
$DIMTXT
 40
0.18
  9
$DIMCEN
 40
0.09
  9
$DIMTSZ
 40
0.0
  9
$DIMTOL
 70
     0
  9
$DIMLIM
 70
     0
  9
$DIMTIH
 70
     1
  9
$DIMTOH
 70
     1
  9
$DIMSE1
 70
     0
  9
$DIMSE2
 70
     0
  9
$DIMTAD
 70
     0
  9
$DIMZIN
 70
     0
  9
$DIMBLK
  1

  9
$LUNITS
 70
     2
  9
$LUPREC
 70
     4
  9
$AXISMODE
 70
     0
  9
$AXISUNIT
 10
0.0
 20
0.0
  9
$SKETCHINC
 40
0.1
  9
$FILLETRAD
 40
0.0
  9
$AUNITS
 70
     0
  9
$AUPREC
 70
     0
  9
$MENU
  1
ACAD
  9
$ELEVATION
 40
0.0
  9
$THICKNESS
 40
0.0
  9
$VIEWDIR
 10
0.0
 20
0.0
 30
1.0
  9
$LIMCHECK
 70
     0
  9
$BLIPMODE
 70
     1
  9
$CHAMFERA
 40
0.0
  9
$CHAMFERB
 40
0.0
  9
$FASTZOOM
 70
     1
  9
$SKPOLY
 70
     0
  9
$TDCREATE
 40
0000000.0000000000
  9
$TDUPDATE
 40
0000000.0000000000
  9
$TDINDWG
 40
0.0000000000
  9
$TDUSRTIMER
 40
0.0000000000
  9
$USRTIMER
 70
     1
  9
$ANGBASE
 50
0.0
  9
$ANGDIR
 70
     0
  9
$PDMODE
 70
     0
  9
$PDSIZE
 40
0.0
  9
$PLINEWID
 40
0.0
  9
$COORDS
 70
     0
  9
$USERI1
 70
     0
  9
$USERI2
 70
     0
  9
$USERI3
 70
     0
  9
$USERI4
 70
     0
  9
$USERI5
 70
     0
  9
$USERR1
 40
0.0
  9
$USERR2
 40
0.0
  9
$USERR3
 40
0.0
  9
$USERR4
 40
0.0
  9
$USERR5
 40
0.0
  9
$CLAYER
  8
M0
  9
$EXTMIN
 10
0.0
 20
0.0
  9
$EXTMAX
 10
420.0
 20
297.0
  9
$LIMMIN
 10
0.0
 20
0.0
  9
$LIMMAX
 10
420.0
 20
297.0
  9
$HANDSEED
  5
158
  0
ENDSEC
  0
SECTION
  2
CLASSES
  0
ENDSEC
  0
SECTION
  2
TABLES
  0
TABLE
  2
VPORT
  5
8
100
AcDbSymbolTable
 70
     2
  0
VPORT
  5
14
100
AcDbSymbolTableRecord
100
AcDbViewportTableRecord
  2
*ACTIVE
 70
     0
 10
0.0
 20
0.0
 11
1.0
 21
1.0
 12
484.0
 22
297.0
 13
0.0
 23
0.0
 14
1.0
 24
1.0
 15
0.0
 25
0.0
 16
0.0
 26
0.0
 36
1.0
 17
0.0
 27
0.0
 37
0.0
 40
594.0
 41
2.0
 42
50.0
 43
0.0
 44
0.0
 50
0.0
 51
0.0
 71
     0
 72
   100
 73
     1
 74
     1
 75
     0
 76
     0
 77
     0
 78
     0
  0
ENDTAB
  0
TABLE
  2
LTYPE
  5
5
100
AcDbSymbolTable
 70
     5
  0
LTYPE
  5
15
100
AcDbSymbolTableRecord
100
AcDbLinetypeTableRecord
  2
BYBLOCK
 70
     0
  3

 72
    65
 73
     0
 40
0.0
  0
LTYPE
  5
16
100
AcDbSymbolTableRecord
100
AcDbLinetypeTableRecord
  2
BYLAYER
 70
     0
  3

 72
    65
 73
     0
 40
0.0
  0
LTYPE
  5
17
100
AcDbSymbolTableRecord
100
AcDbLinetypeTableRecord
  2
CONTINUOUS
 70
    64
  3
Solid line
 72
    65
 73
     0
 40
0.0
  0
LTYPE
  5
18
100
AcDbSymbolTableRecord
100
AcDbLinetypeTableRecord
  2
DASHED
 70
    64
  3
__ __ __ __ __ __ __ __ __ __ __ __ __ __ __ __
 72
    65
 73
     2
 40
0.75
 49
0.5
 74
     0
 49
-0.25
 74
     0
  0
LTYPE
  5
19
100
AcDbSymbolTableRecord
100
AcDbLinetypeTableRecord
  2
DASHDOT
 70
    64
  3
__ . __ . __ . __ . __ . __ . __ . __ . __ . __
 72
    65
 73
     4
 40
1.0
 49
0.5
 74
     0
 49
-0.25
 74
     0
 49
0.0
 74
     0
 49
-0.25
 74
     0
  0
LTYPE
  5
1A
100
AcDbSymbolTableRecord
100
AcDbLinetypeTableRecord
  2
DIVIDE
 70
    64
  3
____ . . ____ . . ____ . . ____ . . ____ . . __
 72
    65
 73
     6
 40
1.25
 49
0.5
 74
     0
 49
-0.25
 74
     0
 49
0.0
 74
     0
 49
-0.25
 74
     0
 49
0.0
 74
     0
 49
-0.25
 74
     0
  0
LTYPE
  5
1B
100
AcDbSymbolTableRecord
100
AcDbLinetypeTableRecord
  2
DOT
 70
    64
  3
. . . . . . . . . . . . . . . . . . . . . . . .
 72
    65
 73
     2
 40
0.25
 49
0.0
 74
     0
 49
-0.25
 74
     0
  0
ENDTAB
  0
TABLE
  2
LAYER
  5
2
100
AcDbSymbolTable
 70
   102
  0
LAYER
  5
F
100
AcDbSymbolTableRecord
100
AcDbLayerTableRecord
  2
0
 70
     0
 62
     7
  6
CONTINUOUS
  0
LAYER
  5
1C
100
AcDbSymbolTableRecord
100
AcDbLayerTableRecord
  2
DEFPOINTS
 70
     0
 62
     7
  6
CONTINUOUS
  0
LAYER
  5
1D
100
AcDbSymbolTableRecord
100
AcDbLayerTableRecord
  2
M0
 70
     0
 62
     3
  6
CONTINUOUS
  0
LAYER
  5
1E
100
AcDbSymbolTableRecord
100
AcDbLayerTableRecord
  2
DD0
 70
     0
 62
     4
  6
CONTINUOUS
  0
ENDTAB
  0
TABLE
  2
STYLE
  5
3
100
AcDbSymbolTable
 70
     2
  0
STYLE
  5
10
100
AcDbSymbolTableRecord
100
AcDbTextStyleTableRecord
  2
STANDARD
 70
     0
 40
0.0
 41
1.0
 50
0.0
 71
     0
 42
0.2
  3
txt
  4
BIGFONT
  0
ENDTAB
  0
TABLE
  2
VIEW
  5
6
100
AcDbSymbolTable
 70
     0
  0
ENDTAB
  0
TABLE
  2
UCS
  5
7
100
AcDbSymbolTable
 70
     0
  0
ENDTAB
  0
TABLE
  2
APPID
  5
9
100
AcDbSymbolTable
 70
     1
  0
APPID
  5
11
100
AcDbSymbolTableRecord
100
AcDbRegAppTableRecord
  2
ACAD
 70
     0
  0
ENDTAB
  0
TABLE
  2
DIMSTYLE
  5
A
100
AcDbSymbolTable
 70
     2
  0
DIMSTYLE
105
25
100
AcDbSymbolTableRecord
100
AcDbDimStyleTableRecord
  2
STANDARD
 70
     0
  3

  4

  5

  6
_OPEN
  7
_OPEN
 40
1.0
 41
3.0
 42
0.0
 43
8.0
 44
1.5
 45
0.0
 46
0.0
 47
0.0
 48
0.0
140
3.5
141
0.09
142
0.0
143
0.03937
144
1.0
145
0.0
146
1.0
147
1.0
 71
     0
 72
     0
 73
     1
 74
     1
 75
     0
 76
     0
 77
     3
 78
     8
170
     0
171
     2
172
     0
173
     1
174
     0
175
     0
176
     0
177
     0
178
     0
270
     2
271
     2
272
     4
273
     2
274
     2
340
10
275
     0
280
     0
281
     0
282
     0
283
     1
284
     0
285
     0
286
     0
287
     3
288
     0
  0
DIMSTYLE
105
26
100
AcDbSymbolTableRecord
100
AcDbDimStyleTableRecord
  2
LEADSTYL
 70
     0
  3

  4

  5

  6
_OPEN
  7
_OPEN
 40
1.0
 41
3.0
 42
0.0625
 43
0.38
 44
0.18
 45
0.0
 46
0.0
 47
0.0
 48
0.0
140
3.2
141
0.09
142
0.0
143
25.4
144
1.0
145
0.0
146
1.0
147
1.0
 71
     0
 72
     0
 73
     1
 74
     1
 75
     0
 76
     0
 77
     0
 78
     0
170
     0
171
     2
172
     0
173
     1
174
     0
175
     0
176
     0
177
     0
178
     0
270
     2
271
     4
272
     4
273
     2
274
     2
340
10
275
     0
280
     0
281
     0
282
     0
283
     1
284
     0
285
     0
286
     0
287
     3
288
     0
  0
ENDTAB
  0
TABLE
  2
BLOCK_RECORD
  5
1
100
AcDbSymbolTable
 70
     8
  0
BLOCK_RECORD
  5
1F
100
AcDbSymbolTableRecord
100
AcDbBlockTableRecord
  2
*MODEL_SPACE
  0
BLOCK_RECORD
  5
22
100
AcDbSymbolTableRecord
100
AcDbBlockTableRecord
  2
*PAPER_SPACE
  0
BLOCK_RECORD
  5
27
100
AcDbSymbolTableRecord
100
AcDbBlockTableRecord
  2
_NONE
  0
BLOCK_RECORD
  5
2B
100
AcDbSymbolTableRecord
100
AcDbBlockTableRecord
  2
_OPEN
  0
BLOCK_RECORD
  5
31
100
AcDbSymbolTableRecord
100
AcDbBlockTableRecord
  2
_CLOSED
  0
BLOCK_RECORD
  5
38
100
AcDbSymbolTableRecord
100
AcDbBlockTableRecord
  2
_ORIGIN
  0
BLOCK_RECORD
  5
3D
100
AcDbSymbolTableRecord
100
AcDbBlockTableRecord
  2
_DOT
  0
BLOCK_RECORD
  5
45
100
AcDbSymbolTableRecord
100
AcDbBlockTableRecord
  2
_OBLIQUE
  0
BLOCK_RECORD
  5
6D
100
AcDbSymbolTableRecord
100
AcDbBlockTableRecord
  2
DIMS0
  0
BLOCK_RECORD
  5
75
100
AcDbSymbolTableRecord
100
AcDbBlockTableRecord
  2
DIMS1
  0
ENDTAB
  0
ENDSEC
  0
SECTION
  2
BLOCKS
  0
BLOCK
  5
20
100
AcDbEntity
  8
0
100
AcDbBlockBegin
  2
*MODEL_SPACE
 70
     0
 10
0.0
 20
0.0
 30
0.0
  3
*MODEL_SPACE
  1

  0
ENDBLK
  5
21
100
AcDbEntity
  8
0
100
AcDbBlockEnd
  0
BLOCK
  5
23
100
AcDbEntity
 67
     1
  8
0
100
AcDbBlockBegin
  2
*PAPER_SPACE
 70
     0
 10
0.0
 20
0.0
 30
0.0
  3
*PAPER_SPACE
  1

  0
ENDBLK
  5
24
100
AcDbEntity
 67
     1
  8
0
100
AcDbBlockEnd
  0
BLOCK
  5
28
100
AcDbEntity
  8
0
100
AcDbBlockBegin
  2
_NONE
 70
     0
 10
0.0
 20
0.0
  0
CIRCLE
  5
29
100
AcDbEntity
  8
0
 62
     0
100
AcDbCircle
 10
0.0
 20
0.0
 40
0.25
  0
ENDBLK
  5
2A
100
AcDbEntity
  8
0
100
AcDbBlockEnd
  0
BLOCK
  5
2C
100
AcDbEntity
  8
0
100
AcDbBlockBegin
  2
_OPEN
 70
     0
 10
0.0
 20
0.0
  0
LINE
  5
2D
100
AcDbEntity
  8
0
 62
     0
100
AcDbLine
 10
-0.965926
 20
0.258819
 11
0.0
 21
0.0
  0
LINE
  5
2E
100
AcDbEntity
  8
0
 62
     0
100
AcDbLine
 10
0.0
 20
0.0
 11
-0.965926
 21
-0.258819
  0
LINE
  5
2F
100
AcDbEntity
  8
0
 62
     0
100
AcDbLine
 10
0.0
 20
0.0
 11
-1.0
 21
0.0
  0
ENDBLK
  5
30
100
AcDbEntity
  8
0
100
AcDbBlockEnd
  0
BLOCK
  5
32
100
AcDbEntity
  8
0
100
AcDbBlockBegin
  2
_CLOSED
 70
     0
 10
0.0
 20
0.0
  0
LINE
  5
33
100
AcDbEntity
  8
0
 62
     0
100
AcDbLine
 10
-0.965926
 20
0.258819
 11
0.0
 21
0.0
  0
LINE
  5
34
100
AcDbEntity
  8
0
 62
     0
100
AcDbLine
 10
0.0
 20
0.0
 11
-0.965926
 21
-0.258819
  0
LINE
  5
35
100
AcDbEntity
  8
0
 62
     0
100
AcDbLine
 10
-0.965926
 20
0.258819
 11
-0.965926
 21
-0.258819
  0
LINE
  5
36
100
AcDbEntity
  8
0
 62
     0
100
AcDbLine
 10
0.0
 20
0.0
 11
-1.0
 21
0.0
  0
ENDBLK
  5
37
100
AcDbEntity
  8
0
100
AcDbBlockEnd
  0
BLOCK
  5
39
100
AcDbEntity
  8
0
100
AcDbBlockBegin
  2
_ORIGIN
 70
     0
 10
0.0
 20
0.0
  0
CIRCLE
  5
3A
100
AcDbEntity
  8
0
 62
     0
100
AcDbCircle
 10
0.0
 20
0.0
 40
0.5
  0
LINE
  5
3B
100
AcDbEntity
  8
0
 62
     0
100
AcDbLine
 10
0.0
 20
0.0
 11
-1.0
 21
0.0
  0
ENDBLK
  5
3C
100
AcDbEntity
  8
0
100
AcDbBlockEnd
  0
BLOCK
  5
3E
100
AcDbEntity
  8
0
100
AcDbBlockBegin
  2
_DOT
 70
     0
 10
0.0
 20
0.0
  0
POLYLINE
  5
3F
100
AcDbEntity
  8
0
 62
     0
100
AcDb2dPolyline
 66
     1
 70
     1
 40
0.5
 41
0.5
  0
VERTEX
  5
40
100
AcDbEntity
  8
0
 62
     0
100
AcDbVertex
100
AcDb2dVertex
 10
-0.25
 20
0.0
 42
1.0
  0
VERTEX
  5
41
100
AcDbEntity
  8
0
 62
     0
100
AcDbVertex
100
AcDb2dVertex
 10
0.25
 20
0.0
 42
1.0
  0
SEQEND
  5
42
100
AcDbEntity
  8
0
 62
     0
  0
LINE
  5
43
100
AcDbEntity
  8
0
 62
     0
100
AcDbLine
 10
-0.5
 20
0.0
 11
-1.0
 21
0.0
  0
ENDBLK
  5
44
100
AcDbEntity
  8
0
100
AcDbBlockEnd
  0
BLOCK
  5
46
100
AcDbEntity
  8
0
100
AcDbBlockBegin
  2
_OBLIQUE
 70
     0
 10
0.0
 20
0.0
  0
LINE
  5
47
100
AcDbEntity
  8
0
 62
     0
100
AcDbLine
 10
-0.353553
 20
-0.353553
 11
0.353553
 21
0.353553
  0
ENDBLK
  5
48
100
AcDbEntity
  8
0
100
AcDbBlockEnd
  0
BLOCK
  5
6E
100
AcDbEntity
  8
DD0
100
AcDbBlockBegin
  2
DIMS0
 70
     0
 10
0.0
 20
0.0
  0
LINE
  5
6F
100
AcDbEntity
  8
DD0
100
AcDbLine
 10
162.055634
 20
268.846924
 11
164.055633
 21
272.846924
  0
LINE
  5
70
100
AcDbEntity
  8
DD0
100
AcDbLine
 10
164.055633
 20
272.846924
 11
166.055634
 21
268.846924
  0
LINE
  5
71
100
AcDbEntity
  8
DD0
100
AcDbLine
 10
166.055634
 20
268.846924
 11
162.055634
 21
268.846924
  0
TEXT
  5
72
100
AcDbEntity
  8
DD0
100
AcDbText
 10
163.338967
 20
269.166925
 40
1.8
  1
Ａ
 41
0.796296
  7
STANDARD
100
AcDbText
  0
ENDBLK
  5
73
100
AcDbEntity
  8
DD0
100
AcDbBlockEnd
  0
BLOCK
  5
76
100
AcDbEntity
  8
DD0
100
AcDbBlockBegin
  2
DIMS1
 70
     0
 10
0.0
 20
0.0
  0
LINE
  5
77
100
AcDbEntity
  8
DD0
100
AcDbLine
 10
33.691868
 20
268.217346
 11
35.691868
 21
272.217346
  0
LINE
  5
78
100
AcDbEntity
  8
DD0
100
AcDbLine
 10
35.691868
 20
272.217346
 11
37.691868
 21
268.217346
  0
LINE
  5
79
100
AcDbEntity
  8
DD0
100
AcDbLine
 10
37.691868
 20
268.217346
 11
33.691868
 21
268.217346
  0
TEXT
  5
7A
100
AcDbEntity
  8
DD0
100
AcDbText
 10
34.975201
 20
268.537347
 40
1.8
  1
Ａ
 41
0.796296
  7
STANDARD
100
AcDbText
  0
ENDBLK
  5
7B
100
AcDbEntity
  8
DD0
100
AcDbBlockEnd
  0
ENDSEC
  0
SECTION
  2
ENTITIES
  0
LEADER
  5
49
100
AcDbEntity
  8
DD0
100
AcDbLeader
  3
LEADSTYL
 76
     3
 10
66.7117
 20
225.696121
 10
83.468697
 20
238.296127
 10
127.468697
 20
238.296127
340
4A
 77
     4
  0
TEXT
  5
4A
100
AcDbEntity
  8
DD0
100
AcDbText
 10
84.760363
 20
239.296127
 40
3.5
  1
運転圧力：「標準」
 41
0.833333
  7
STANDARD
100
AcDbText
  0
TEXT
  5
4B
100
AcDbEntity
  8
DD0
100
AcDbText
 10
84.760363
 20
233.796127
 40
3.5
  1
（制御圧力２４０ｋＰａ）
 41
0.833333
  7
STANDARD
100
AcDbText
  0
LEADER
  5
4C
100
AcDbEntity
  8
DD0
100
AcDbLeader
  3
LEADSTYL
 76
     3
 10
216.611938
 20
224.296127
 10
228.619095
 20
228.766159
 10
272.61911
 20
228.766159
340
4D
 77
     4
  0
TEXT
  5
4D
100
AcDbEntity
  8
DD0
100
AcDbText
 10
229.910762
 20
229.766159
 40
3.5
  1
運転圧力：「低」
 41
0.833333
  7
STANDARD
100
AcDbText
  0
TEXT
  5
4E
100
AcDbEntity
  8
DD0
100
AcDbText
 10
229.910762
 20
224.266159
 40
3.5
  1
（制御圧力１８０ｋＰａ）
 41
0.833333
  7
STANDARD
100
AcDbText
  0
LEADER
  5
4F
100
AcDbEntity
  8
DD0
100
AcDbLeader
  3
LEADSTYL
 76
     3
 10
61.619305
 20
116.90802
 10
72.723495
 20
142.108017
 10
116.723495
 20
142.108017
340
50
 77
     4
  0
TEXT
  5
50
100
AcDbEntity
  8
DD0
100
AcDbText
 10
74.015162
 20
143.108017
 40
3.5
  1
運転圧力：「低」
 41
0.833333
  7
STANDARD
100
AcDbText
  0
TEXT
  5
51
100
AcDbEntity
  8
DD0
100
AcDbText
 10
74.015162
 20
137.608017
 40
3.5
  1
（制御圧力１８０ｋＰａ）
 41
0.833333
  7
STANDARD
100
AcDbText
  0
LEADER
  5
52
100
AcDbEntity
  8
DD0
100
AcDbLeader
  3
LEADSTYL
 76
     3
 10
53.70002
 20
125.308022
 10
63.248848
 20
156.108017
 10
107.248848
 20
156.108017
340
53
 77
     4
  0
TEXT
  5
53
100
AcDbEntity
  8
DD0
100
AcDbText
 10
64.540515
 20
157.108017
 40
3.5
  1
運転圧力：「標準」
 41
0.833333
  7
STANDARD
100
AcDbText
  0
TEXT
  5
54
100
AcDbEntity
  8
DD0
100
AcDbText
 10
64.540515
 20
151.608017
 40
3.5
  1
（制御圧力２４０ｋＰａ）
 41
0.833333
  7
STANDARD
100
AcDbText
  0
LEADER
  5
55
100
AcDbEntity
  8
DD0
100
AcDbLeader
  3
LEADSTYL
 76
     3
 10
177.352936
 20
140.708023
 10
183.873459
 20
156.108032
 10
227.873459
 20
156.108032
340
56
 77
     4
  0
TEXT
  5
56
100
AcDbEntity
  8
DD0
100
AcDbText
 10
185.165126
 20
157.108032
 40
3.5
  1
運転圧力：「標準」
 41
0.833333
  7
STANDARD
100
AcDbText
  0
TEXT
  5
57
100
AcDbEntity
  8
DD0
100
AcDbText
 10
185.165126
 20
151.608032
 40
3.5
  1
（制御圧力２４０ｋＰａ）
 41
0.833333
  7
STANDARD
100
AcDbText
  0
LEADER
  5
58
100
AcDbEntity
  8
DD0
100
AcDbLeader
  3
LEADSTYL
 76
     3
 10
204.886475
 20
232.696121
 10
222.81041
 20
241.296127
 10
266.810394
 20
241.296127
340
59
 77
     4
  0
TEXT
  5
59
100
AcDbEntity
  8
DD0
100
AcDbText
 10
224.102076
 20
242.296127
 40
3.5
  1
運転圧力：「標準」
 41
0.833333
  7
STANDARD
100
AcDbText
  0
TEXT
  5
5A
100
AcDbEntity
  8
DD0
100
AcDbText
 10
224.102076
 20
236.796127
 40
3.5
  1
（制御圧力２４０ｋＰａ）
 41
0.833333
  7
STANDARD
100
AcDbText
  0
LEADER
  5
5B
100
AcDbEntity
  8
DD0
100
AcDbLeader
  3
LEADSTYL
 76
     3
 10
186.391403
 20
246.696121
 10
217.297226
 20
255.296127
 10
261.297241
 20
255.296127
340
5C
 77
     4
  0
TEXT
  5
5C
100
AcDbEntity
  8
DD0
100
AcDbText
 10
218.588893
 20
256.296143
 40
3.5
  1
運転圧力：「高」
 41
0.833333
  7
STANDARD
100
AcDbText
  0
TEXT
  5
5D
100
AcDbEntity
  8
DD0
100
AcDbText
 10
218.588893
 20
250.796143
 40
3.5
  1
（制御圧力３４０ｋＰａ）
 41
0.833333
  7
STANDARD
100
AcDbText
  0
LEADER
  5
5E
100
AcDbEntity
  8
DD0
100
AcDbLeader
  3
LEADSTYL
 76
     3
 10
58.136307
 20
239.696121
 10
70.831657
 20
252.296127
 10
104.331657
 20
252.296127
340
5F
 77
     4
  0
TEXT
  5
5F
100
AcDbEntity
  8
DD0
100
AcDbText
 10
72.123324
 20
253.296127
 40
3.5
  1
運転圧力：「高」
 41
0.833333
  7
STANDARD
100
AcDbText
  0
TEXT
  5
60
100
AcDbEntity
  8
DD0
100
AcDbText
 10
72.123324
 20
247.796127
 40
3.5
  1
（制御圧力３４０）
 41
0.833333
  7
STANDARD
100
AcDbText
  0
LEADER
  5
61
100
AcDbEntity
  8
DD0
100
AcDbLeader
  3
LEADSTYL
 76
     3
 10
83.647118
 20
217.296127
 10
90.365593
 20
224.296127
 10
134.365585
 20
224.296127
340
62
 77
     4
  0
TEXT
  5
62
100
AcDbEntity
  8
DD0
100
AcDbText
 10
91.65726
 20
225.296127
 40
3.5
  1
運転圧力：「低」
 41
0.833333
  7
STANDARD
100
AcDbText
  0
TEXT
  5
63
100
AcDbEntity
  8
DD0
100
AcDbText
 10
91.65726
 20
219.796127
 40
3.5
  1
（制御圧力１８０ｋＰａ）
 41
0.833333
  7
STANDARD
100
AcDbText
  0
LEADER
  5
64
100
AcDbEntity
  8
DD0
100
AcDbLeader
  3
LEADSTYL
 76
     3
 10
299.108185
 20
125.308022
 10
312.558685
 20
156.108032
 10
356.558685
 20
156.108032
340
65
 77
     4
  0
TEXT
  5
65
100
AcDbEntity
  8
DD0
100
AcDbText
 10
313.850352
 20
157.108032
 40
3.5
  1
運転圧力：「標準」
 41
0.833333
  7
STANDARD
100
AcDbText
  0
TEXT
  5
66
100
AcDbEntity
  8
DD0
100
AcDbText
 10
313.850352
 20
151.608032
 40
3.5
  1
（制御圧力２４０ｋＰａ）
 41
0.833333
  7
STANDARD
100
AcDbText
  0
LEADER
  5
67
100
AcDbEntity
  8
DD0
100
AcDbLeader
  3
LEADSTYL
 76
     3
 10
296.751495
 20
116.90802
 10
311.95224
 20
142.108017
 10
355.95224
 20
142.108017
340
68
 77
     4
  0
TEXT
  5
68
100
AcDbEntity
  8
DD0
100
AcDbText
 10
313.243907
 20
143.108017
 40
3.5
  1
運転圧力：「低」
 41
0.833333
  7
STANDARD
100
AcDbText
  0
TEXT
  5
69
100
AcDbEntity
  8
DD0
100
AcDbText
 10
313.243907
 20
137.608017
 40
3.5
  1
（制御圧力１８０ｋＰａ）
 41
0.833333
  7
STANDARD
100
AcDbText
  0
LEADER
  5
6A
100
AcDbEntity
  8
DD0
100
AcDbLeader
  3
LEADSTYL
 76
     3
 10
181.133636
 20
132.308014
 10
189.297226
 20
142.108017
 10
233.297226
 20
142.108017
340
6B
 77
     4
  0
TEXT
  5
6B
100
AcDbEntity
  8
DD0
100
AcDbText
 10
190.588893
 20
143.108017
 40
3.5
  1
運転圧力：「低」
 41
0.833333
  7
STANDARD
100
AcDbText
  0
TEXT
  5
6C
100
AcDbEntity
  8
DD0
100
AcDbText
 10
190.588893
 20
137.608017
 40
3.5
  1
（制御圧力１８０ｋＰａ）
 41
0.833333
  7
STANDARD
100
AcDbText
  0
INSERT
  5
74
100
AcDbEntity
  8
DD0
100
AcDbBlockReference
  2
DIMS0
 10
0.0
 20
0.0
  0
INSERT
  5
7C
100
AcDbEntity
  8
DD0
100
AcDbBlockReference
  2
DIMS1
 10
0.0
 20
0.0
  0
TEXT
  5
7D
100
AcDbEntity
  8
M0
100
AcDbText
 10
34.150751
 20
274.360278
 40
7.0
  1
揚水性能
 41
0.780952
  7
STANDARD
100
AcDbText
  0
LINE
  5
7E
100
AcDbEntity
  8
M0
100
AcDbLine
 10
61.724083
 20
282.860279
 11
31.724084
 21
282.860279
  0
LINE
  5
7F
100
AcDbEntity
  8
M0
100
AcDbLine
 10
61.724083
 20
272.86028
 11
61.724083
 21
282.860279
  0
LINE
  5
80
100
AcDbEntity
  8
M0
100
AcDbLine
 10
31.724084
 20
272.86028
 11
61.724083
 21
272.86028
  0
LINE
  5
81
100
AcDbEntity
  8
M0
100
AcDbLine
 10
31.724084
 20
282.860279
 11
31.724084
 21
272.86028
  0
LINE
  5
82
100
AcDbEntity
  8
M0
 62
     2
100
AcDbLine
 10
39.276173
 20
225.696126
 11
81.713673
 21
225.696126
  0
LINE
  5
83
100
AcDbEntity
  8
M0
 62
   234
100
AcDbLine
 10
290.620555
 20
114.108021
 11
335.420555
 21
114.108021
  0
LINE
  5
84
100
AcDbEntity
  8
M0
 62
   234
100
AcDbLine
 10
290.620555
 20
100.108021
 11
335.420555
 21
100.108021
  0
LINE
  5
85
100
AcDbEntity
  8
M0
 62
   234
100
AcDbLine
 10
335.420555
 20
58.108021
 11
290.620555
 21
58.108021
  0
LINE
  5
86
100
AcDbEntity
  8
M0
 62
   234
100
AcDbLine
 10
290.620555
 20
72.108021
 11
335.420555
 21
72.108021
  0
LINE
  5
87
100
AcDbEntity
  8
M0
 62
   234
100
AcDbLine
 10
290.620555
 20
86.108021
 11
335.337411
 21
86.108021
  0
LINE
  5
88
100
AcDbEntity
  8
M0
 62
   234
100
AcDbLine
 10
304.620555
 20
139.363885
 11
304.620555
 21
58.108021
  0
LINE
  5
89
100
AcDbEntity
  8
M0
 62
   234
100
AcDbLine
 10
290.620555
 20
144.908021
 11
290.620555
 21
58.108021
  0
LINE
  5
8A
100
AcDbEntity
  8
M0
 62
   234
100
AcDbLine
 10
290.620555
 20
86.108021
 11
335.420555
 21
86.108021
  0
LINE
  5
8B
100
AcDbEntity
  8
M0
 62
   234
100
AcDbLine
 10
290.620555
 20
128.108021
 11
335.858935
 21
128.108021
  0
LINE
  5
8C
100
AcDbEntity
  8
M0
 62
   234
100
AcDbLine
 10
290.620555
 20
142.108021
 11
302.544389
 21
142.108021
  0
LINE
  5
8D
100
AcDbEntity
  8
M0
 62
   234
100
AcDbLine
 10
318.620555
 20
133.705355
 11
318.620555
 21
58.108021
  0
LINE
  5
8E
100
AcDbEntity
  8
M0
 62
   234
100
AcDbLine
 10
332.620555
 20
133.705355
 11
332.620555
 21
58.108021
  0
TEXT
  5
8F
100
AcDbEntity
  8
M0
100
AcDbText
 10
38.116766
 20
177.623046
 40
3.6
  1
０
 41
0.601852
  7
STANDARD
100
AcDbText
  0
TEXT
  5
90
100
AcDbEntity
  8
M0
100
AcDbText
 10
51.134353
 20
177.623046
 40
3.6
  1
１０
 41
0.601852
  7
STANDARD
100
AcDbText
  0
TEXT
  5
91
100
AcDbEntity
  8
M0
100
AcDbText
 10
65.134357
 20
177.623046
 40
3.6
  1
２０
 41
0.601852
  7
STANDARD
100
AcDbText
  0
TEXT
  5
92
100
AcDbEntity
  8
M0
100
AcDbText
 10
79.134353
 20
177.623046
 40
3.6
  1
３０
 41
0.601852
  7
STANDARD
100
AcDbText
  0
TEXT
  5
93
100
AcDbEntity
  8
M0
100
AcDbText
 10
93.13435
 20
177.623046
 40
3.6
  1
４０
 41
0.601852
  7
STANDARD
100
AcDbText
  0
TEXT
  5
94
100
AcDbEntity
  8
M0
100
AcDbText
 10
107.13435
 20
177.623046
 40
3.6
  1
５０
 41
0.601852
  7
STANDARD
100
AcDbText
  0
TEXT
  5
95
100
AcDbEntity
  8
M0
100
AcDbText
 10
121.13435
 20
177.623046
 40
3.6
  1
６０
 41
0.601852
  7
STANDARD
100
AcDbText
  0
TEXT
  5
96
100
AcDbEntity
  8
M0
100
AcDbText
 10
31.063637
 20
78.899485
 40
3.6
  1
（　）
 50
90.000003
 41
0.63786
  7
STANDARD
100
AcDbText
  0
TEXT
  5
97
100
AcDbEntity
  8
M0
100
AcDbText
 10
27.795217
 20
96.508021
 40
3.6
  1
全
 41
0.833333
  7
STANDARD
100
AcDbText
  0
TEXT
  5
98
100
AcDbEntity
  8
M0
100
AcDbText
 10
27.795217
 20
92.752466
 40
3.6
  1
揚
 41
0.833333
  7
STANDARD
100
AcDbText
  0
TEXT
  5
99
100
AcDbEntity
  8
M0
100
AcDbText
 10
27.795217
 20
88.996911
 40
3.6
  1
程
 41
0.833333
  7
STANDARD
100
AcDbText
  0
TEXT
  5
9A
100
AcDbEntity
  8
M0
100
AcDbText
 10
27.795217
 20
85.241355
 40
3.6
  1
　
 41
0.833333
  7
STANDARD
100
AcDbText
  0
TEXT
  5
9B
100
AcDbEntity
  8
M0
100
AcDbText
 10
27.795217
 20
81.4858
 40
3.6
  1
ｍ
 41
0.833333
  7
STANDARD
100
AcDbText
  0
TEXT
  5
9C
100
AcDbEntity
  8
M0
100
AcDbText
 10
38.116766
 20
53.434942
 40
3.6
  1
０
 41
0.601852
  7
STANDARD
100
AcDbText
  0
TEXT
  5
9D
100
AcDbEntity
  8
M0
100
AcDbText
 10
51.134353
 20
53.434942
 40
3.6
  1
１０
 41
0.601852
  7
STANDARD
100
AcDbText
  0
TEXT
  5
9E
100
AcDbEntity
  8
M0
100
AcDbText
 10
65.134357
 20
53.434942
 40
3.6
  1
２０
 41
0.601852
  7
STANDARD
100
AcDbText
  0
TEXT
  5
9F
100
AcDbEntity
  8
M0
100
AcDbText
 10
79.134353
 20
53.434942
 40
3.6
  1
３０
 41
0.601852
  7
STANDARD
100
AcDbText
  0
TEXT
  5
A0
100
AcDbEntity
  8
M0
100
AcDbText
 10
93.13435
 20
53.434942
 40
3.6
  1
４０
 41
0.601852
  7
STANDARD
100
AcDbText
  0
LINE
  5
A1
100
AcDbEntity
  8
M0
100
AcDbLine
 10
302.192271
 20
124.106011
 11
304.620555
 21
107.108021
  0
LINE
  5
A2
100
AcDbEntity
  8
M0
100
AcDbLine
 10
304.620555
 20
107.108021
 11
304.620555
 21
91.708021
  0
TEXT
  5
A3
100
AcDbEntity
  8
M0
100
AcDbText
 10
282.40802
 20
78.899485
 40
3.6
  1
（　）
 50
90.000003
 41
0.63786
  7
STANDARD
100
AcDbText
  0
TEXT
  5
A4
100
AcDbEntity
  8
M0
100
AcDbText
 10
279.139599
 20
96.508021
 40
3.6
  1
全
 41
0.833333
  7
STANDARD
100
AcDbText
  0
TEXT
  5
A5
100
AcDbEntity
  8
M0
100
AcDbText
 10
279.139599
 20
92.752466
 40
3.6
  1
揚
 41
0.833333
  7
STANDARD
100
AcDbText
  0
TEXT
  5
A6
100
AcDbEntity
  8
M0
100
AcDbText
 10
279.139599
 20
88.996911
 40
3.6
  1
程
 41
0.833333
  7
STANDARD
100
AcDbText
  0
TEXT
  5
A7
100
AcDbEntity
  8
M0
100
AcDbText
 10
279.139599
 20
85.241355
 40
3.6
  1
　
 41
0.833333
  7
STANDARD
100
AcDbText
  0
TEXT
  5
A8
100
AcDbEntity
  8
M0
100
AcDbText
 10
279.139599
 20
81.4858
 40
3.6
  1
ｍ
 41
0.833333
  7
STANDARD
100
AcDbText
  0
TEXT
  5
A9
100
AcDbEntity
  8
M0
100
AcDbText
 10
289.461149
 20
53.434942
 40
3.6
  1
０
 41
0.601852
  7
STANDARD
100
AcDbText
  0
TEXT
  5
AA
100
AcDbEntity
  8
M0
100
AcDbText
 10
302.478736
 20
53.434942
 40
3.6
  1
１０
 41
0.601852
  7
STANDARD
100
AcDbText
  0
TEXT
  5
AB
100
AcDbEntity
  8
M0
100
AcDbText
 10
316.478739
 20
53.434942
 40
3.6
  1
２０
 41
0.601852
  7
STANDARD
100
AcDbText
  0
TEXT
  5
AC
100
AcDbEntity
  8
M0
100
AcDbText
 10
330.478734
 20
53.434942
 40
3.6
  1
３０
 41
0.601852
  7
STANDARD
100
AcDbText
  0
LINE
  5
AD
100
AcDbEntity
  8
M0
 62
     5
100
AcDbLine
 10
229.741664
 20
224.296126
 11
168.29722
 21
224.296126
  0
LINE
  5
AE
100
AcDbEntity
  8
M0
 62
     5
100
AcDbLine
 10
71.076173
 20
116.908021
 11
39.276173
 21
116.908021
  0
LINE
  5
AF
100
AcDbEntity
  8
M0
 62
     2
100
AcDbLine
 10
39.276173
 20
125.308021
 11
60.276173
 21
125.308021
  0
LINE
  5
B0
100
AcDbEntity
  8
M0
100
AcDbLine
 10
72.876173
 20
115.508021
 11
72.876173
 21
95.908021
  0
LINE
  5
B1
100
AcDbEntity
  8
M0
100
AcDbLine
 10
72.876173
 20
115.508021
 11
60.276173
 21
125.308021
  0
LINE
  5
B2
100
AcDbEntity
  8
M0
 62
   234
100
AcDbLine
 10
39.276173
 20
252.296126
 11
39.276173
 21
182.296126
  0
LINE
  5
B3
100
AcDbEntity
  8
M0
 62
   234
100
AcDbLine
 10
126.076173
 20
182.296126
 11
39.276173
 21
182.296126
  0
LINE
  5
B4
100
AcDbEntity
  8
M0
 62
   234
100
AcDbLine
 10
53.276173
 20
252.296126
 11
53.276173
 21
182.296126
  0
LINE
  5
B5
100
AcDbEntity
  8
M0
 62
   234
100
AcDbLine
 10
67.276173
 20
246.071932
 11
67.276173
 21
182.296126
  0
LINE
  5
B6
100
AcDbEntity
  8
M0
 62
   234
100
AcDbLine
 10
39.276173
 20
196.296126
 11
126.076173
 21
196.296126
  0
LINE
  5
B7
100
AcDbEntity
  8
M0
 62
   234
100
AcDbLine
 10
39.276173
 20
210.296126
 11
91.851999
 21
210.296126
  0
LINE
  5
B8
100
AcDbEntity
  8
M0
 62
   234
100
AcDbLine
 10
39.276173
 20
224.296126
 11
86.541556
 21
224.296126
  0
LINE
  5
B9
100
AcDbEntity
  8
M0
 62
   234
100
AcDbLine
 10
81.276173
 20
245.454181
 11
81.276173
 21
243.60093
  0
LINE
  5
BA
100
AcDbEntity
  8
M0
 62
   234
100
AcDbLine
 10
39.276173
 20
210.296126
 11
126.076173
 21
210.296126
  0
LINE
  5
BB
100
AcDbEntity
  8
M0
 62
   234
100
AcDbLine
 10
95.276173
 20
182.296126
 11
95.276173
 21
217.660867
  0
LINE
  5
BC
100
AcDbEntity
  8
M0
 62
   234
100
AcDbLine
 10
39.276173
 20
238.296126
 11
77.204465
 21
238.296126
  0
LINE
  5
BD
100
AcDbEntity
  8
M0
 62
   234
100
AcDbLine
 10
109.276173
 20
182.296126
 11
109.276173
 21
217.660867
  0
LINE
  5
BE
100
AcDbEntity
  8
M0
 62
   234
100
AcDbLine
 10
123.276173
 20
182.296126
 11
123.276173
 21
217.660867
  0
LINE
  5
BF
100
AcDbEntity
  8
M0
 62
   234
100
AcDbLine
 10
39.276173
 20
252.296126
 11
63.613954
 21
252.296126
  0
LINE
  5
C0
100
AcDbEntity
  8
M0
 62
   234
100
AcDbLine
 10
102.910099
 20
252.296126
 11
123.276173
 21
252.296126
  0
LINE
  5
C1
100
AcDbEntity
  8
M0
 62
   234
100
AcDbLine
 10
95.276173
 20
243.95393
 11
95.276173
 21
246.071932
  0
LINE
  5
C2
100
AcDbEntity
  8
M0
 62
   234
100
AcDbLine
 10
109.276173
 20
244.21868
 11
109.276173
 21
252.296126
  0
LINE
  5
C3
100
AcDbEntity
  8
M0
 62
   234
100
AcDbLine
 10
81.276173
 20
232.04017
 11
81.276173
 21
182.296126
  0
LINE
  5
C4
100
AcDbEntity
  8
M0
 62
   234
100
AcDbLine
 10
123.276173
 20
243.697875
 11
123.276173
 21
252.296126
  0
LINE
  5
C5
100
AcDbEntity
  8
M0
 62
   234
100
AcDbLine
 10
95.276173
 20
230.97621
 11
95.276173
 21
232.21667
  0
LINE
  5
C6
100
AcDbEntity
  8
M0
 62
   234
100
AcDbLine
 10
109.276173
 20
230.97621
 11
109.276173
 21
232.569671
  0
LINE
  5
C7
100
AcDbEntity
  8
M0
 62
   234
100
AcDbLine
 10
123.276173
 20
230.97621
 11
123.276173
 21
233.774976
  0
TEXT
  5
C8
100
AcDbEntity
  8
M0
100
AcDbText
 10
292.380374
 20
161.681911
 40
3.528
  1
吸上高さ２４ｍ
 41
0.777778
  7
STANDARD
100
AcDbText
  0
TEXT
  5
C9
100
AcDbEntity
  8
M0
100
AcDbText
 10
288.953164
 20
166.617079
 40
3.528
  1
【深井戸用特殊ジェットＪ４０－２４ＳＸ組合わせ時】
 41
0.777778
  7
STANDARD
100
AcDbText
  0
LINE
  5
CA
100
AcDbEntity
  8
M0
 62
     7
100
AcDbLine
 10
232.69722
 20
221.012618
 11
232.69722
 21
199.096126
  0
ARC
  5
CB
100
AcDbEntity
  8
M0
 62
     7
100
AcDbCircle
 10
231.29722
 20
221.012618
 40
1.4
100
AcDbArc
 50
0.0
 51
48.012788
  0
LINE
  5
CC
100
AcDbEntity
  8
M0
 62
     7
100
AcDbLine
 10
58.859924
 20
239.494616
 11
111.39979
 21
207.772433
  0
ARC
  5
CD
100
AcDbEntity
  8
M0
 62
     7
100
AcDbCircle
 10
58.136307
 20
238.296126
 40
1.4
100
AcDbArc
 50
58.87753
 51
90.0
  0
LINE
  5
CE
100
AcDbEntity
  8
M0
 62
     7
100
AcDbLine
 10
112.076173
 20
192.096126
 11
112.076173
 21
206.573942
  0
ARC
  5
CF
100
AcDbEntity
  8
M0
 62
     7
100
AcDbCircle
 10
110.676173
 20
206.573942
 40
1.4
100
AcDbArc
 50
0.0
 51
58.87753
  0
LINE
  5
D0
100
AcDbEntity
  8
M0
 62
     7
100
AcDbLine
 10
195.519442
 20
243.792422
 11
210.29722
 21
236.896126
  0
LINE
  5
D1
100
AcDbEntity
  8
M0
 62
     7
100
AcDbLine
 10
210.29722
 20
236.896126
 11
222.89722
 21
229.896126
  0
LINE
  5
D2
100
AcDbEntity
  8
M0
 62
     7
100
AcDbLine
 10
222.89722
 20
229.896126
 11
224.933583
 21
228.623398
  0
LINE
  5
D3
100
AcDbEntity
  8
M0
 62
   234
100
AcDbLine
 10
168.29722
 20
252.296126
 11
168.29722
 21
182.296126
  0
LINE
  5
D4
100
AcDbEntity
  8
M0
 62
   234
100
AcDbLine
 10
255.09722
 20
182.296126
 11
168.29722
 21
182.296126
  0
LINE
  5
D5
100
AcDbEntity
  8
M0
 62
   234
100
AcDbLine
 10
182.29722
 20
252.296126
 11
182.29722
 21
182.296126
  0
LINE
  5
D6
100
AcDbEntity
  8
M0
 62
   234
100
AcDbLine
 10
196.29722
 20
252.296126
 11
196.29722
 21
182.296126
  0
LINE
  5
D7
100
AcDbEntity
  8
M0
 62
   234
100
AcDbLine
 10
168.29722
 20
196.296126
 11
255.09722
 21
196.296126
  0
LINE
  5
D8
100
AcDbEntity
  8
M0
 62
   234
100
AcDbLine
 10
210.29722
 20
250.551515
 11
210.29722
 21
182.296126
  0
LINE
  5
D9
100
AcDbEntity
  8
M0
 62
   234
100
AcDbLine
 10
168.29722
 20
210.296126
 11
255.09722
 21
210.296126
  0
LINE
  5
DA
100
AcDbEntity
  8
M0
 62
   234
100
AcDbLine
 10
224.29722
 20
182.296126
 11
224.29722
 21
220.771333
  0
LINE
  5
DB
100
AcDbEntity
  8
M0
 62
   234
100
AcDbLine
 10
168.29722
 20
238.296126
 11
214.576203
 21
238.296126
  0
LINE
  5
DC
100
AcDbEntity
  8
M0
 62
   234
100
AcDbLine
 10
238.29722
 20
182.296126
 11
238.29722
 21
220.771333
  0
LINE
  5
DD
100
AcDbEntity
  8
M0
 62
   234
100
AcDbLine
 10
252.29722
 20
182.296126
 11
252.29722
 21
220.771333
  0
LINE
  5
DE
100
AcDbEntity
  8
M0
 62
   234
100
AcDbLine
 10
168.29722
 20
252.296126
 11
199.775274
 21
252.296126
  0
LINE
  5
DF
100
AcDbEntity
  8
M0
 62
   234
100
AcDbLine
 10
252.29722
 20
246.271728
 11
252.29722
 21
250.551515
  0
LINE
  5
E0
100
AcDbEntity
  8
M0
 62
   234
100
AcDbLine
 10
238.29722
 20
246.271728
 11
238.29722
 21
250.551515
  0
LINE
  5
E1
100
AcDbEntity
  8
M0
 62
   234
100
AcDbLine
 10
224.29722
 20
246.271728
 11
224.29722
 21
250.551515
  0
LINE
  5
E2
100
AcDbEntity
  8
M0
 62
   234
100
AcDbLine
 10
252.29722
 20
233.610693
 11
252.29722
 21
235.215613
  0
LINE
  5
E3
100
AcDbEntity
  8
M0
 62
   234
100
AcDbLine
 10
238.29722
 20
233.610693
 11
238.29722
 21
235.215613
  0
LINE
  5
E4
100
AcDbEntity
  8
M0
 62
   234
100
AcDbLine
 10
224.29722
 20
233.610693
 11
224.29722
 21
235.215613
  0
LINE
  5
E5
100
AcDbEntity
  8
M0
 62
     2
100
AcDbLine
 10
168.29722
 20
140.708021
 11
180.485455
 21
140.708021
  0
TEXT
  5
E6
100
AcDbEntity
  8
M0
100
AcDbText
 10
60.428025
 20
48.934484
 40
3.6
  1
揚水量（Ｌ／分）
 41
0.63786
  7
STANDARD
100
AcDbText
  0
TEXT
  5
E7
100
AcDbEntity
  8
M0
100
AcDbText
 10
36.000897
 20
56.034942
 40
3.6
  1
０
 41
0.601852
  7
STANDARD
100
AcDbText
  0
TEXT
  5
E8
100
AcDbEntity
  8
M0
100
AcDbText
 10
33.652154
 20
70.398999
 40
3.6
  1
１０
 41
0.601852
  7
STANDARD
100
AcDbText
  0
TEXT
  5
E9
100
AcDbEntity
  8
M0
100
AcDbText
 10
33.652154
 20
84.399005
 40
3.6
  1
２０
 41
0.601852
  7
STANDARD
100
AcDbText
  0
TEXT
  5
EA
100
AcDbEntity
  8
M0
100
AcDbText
 10
33.652154
 20
98.399005
 40
3.6
  1
３０
 41
0.601852
  7
STANDARD
100
AcDbText
  0
TEXT
  5
EB
100
AcDbEntity
  8
M0
100
AcDbText
 10
33.550604
 20
112.310907
 40
3.6
  1
４０
 41
0.601852
  7
STANDARD
100
AcDbText
  0
TEXT
  5
EC
100
AcDbEntity
  8
M0
100
AcDbText
 10
33.550604
 20
126.310907
 40
3.6
  1
５０
 41
0.601852
  7
STANDARD
100
AcDbText
  0
TEXT
  5
ED
100
AcDbEntity
  8
M0
100
AcDbText
 10
33.550604
 20
140.310907
 40
3.6
  1
６０
 41
0.601852
  7
STANDARD
100
AcDbText
  0
LINE
  5
EE
100
AcDbEntity
  8
M0
 62
     7
100
AcDbLine
 10
187.89722
 20
246.696126
 11
195.519442
 21
243.792422
  0
LINE
  5
EF
100
AcDbEntity
  8
M0
 62
     7
100
AcDbLine
 10
224.933583
 20
228.623398
 11
232.23377
 21
222.05323
  0
LINE
  5
F0
100
AcDbEntity
  8
M0
 62
     2
100
AcDbLine
 10
168.29722
 20
232.696126
 11
217.85722
 21
232.696126
  0
LINE
  5
F1
100
AcDbEntity
  8
M0
 62
     1
100
AcDbLine
 10
168.29722
 20
246.696126
 11
187.89722
 21
246.696126
  0
TEXT
  5
F2
100
AcDbEntity
  8
M0
100
AcDbText
 10
170.057035
 20
161.681909
 40
3.528
  1
吸上高さ３５ｍ
 41
0.777778
  7
STANDARD
100
AcDbText
  0
TEXT
  5
F3
100
AcDbEntity
  8
M0
100
AcDbText
 10
166.629837
 20
166.617077
 40
3.528
  1
【深井戸ジェットＪ７５－３５Ｘ組合わせ時】
 41
0.777778
  7
STANDARD
100
AcDbText
  0
LINE
  5
F4
100
AcDbEntity
  8
M0
 62
     1
100
AcDbLine
 10
39.276173
 20
239.696126
 11
58.136307
 21
239.696126
  0
ARC
  5
F5
100
AcDbEntity
  8
M0
 62
     1
100
AcDbCircle
 10
50.14985
 20
238.296126
 40
1.4
100
AcDbArc
 50
63.75865
 51
90.0
  0
TEXT
  5
F6
100
AcDbEntity
  8
M0
100
AcDbText
 10
37.608787
 20
166.617077
 40
3.528
  1
【深井戸ジェットＪ７５－２４Ｘ組合わせ時】
 41
0.777778
  7
STANDARD
100
AcDbText
  0
TEXT
  5
F7
100
AcDbEntity
  8
M0
100
AcDbText
 10
41.03599
 20
161.681909
 40
3.528
  1
吸上高さ２４ｍ
 41
0.777778
  7
STANDARD
100
AcDbText
  0
TEXT
  5
F8
100
AcDbEntity
  8
M0
100
AcDbText
 10
170.057037
 20
262.270007
 40
3.528
  1
吸上高さ１２ｍ
 41
0.777778
  7
STANDARD
100
AcDbText
  0
TEXT
  5
F9
100
AcDbEntity
  8
M0
100
AcDbText
 10
166.629829
 20
267.205175
 40
3.528
  1
【深井戸ジェットＪ７５－７Ｙ組合わせ時】
 41
0.777778
  7
STANDARD
100
AcDbText
  0
TEXT
  5
FA
100
AcDbEntity
  8
M0
100
AcDbText
 10
37.608789
 20
267.205175
 40
3.528
  1
【浅井戸ジェットＪ７５－７Ｙ組合わせ時】
 41
0.777778
  7
STANDARD
100
AcDbText
  0
TEXT
  5
FB
100
AcDbEntity
  8
M0
100
AcDbText
 10
41.035992
 20
262.270007
 40
3.528
  1
吸上高さ７ｍ
 41
0.777778
  7
STANDARD
100
AcDbText
  0
TEXT
  5
FC
100
AcDbEntity
  8
M0
100
AcDbText
 10
165.021941
 20
56.034942
 40
3.6
  1
０
 41
0.601852
  7
STANDARD
100
AcDbText
  0
TEXT
  5
FD
100
AcDbEntity
  8
M0
100
AcDbText
 10
162.673199
 20
70.398999
 40
3.6
  1
１０
 41
0.601852
  7
STANDARD
100
AcDbText
  0
TEXT
  5
FE
100
AcDbEntity
  8
M0
100
AcDbText
 10
162.673199
 20
84.399005
 40
3.6
  1
２０
 41
0.601852
  7
STANDARD
100
AcDbText
  0
TEXT
  5
FF
100
AcDbEntity
  8
M0
100
AcDbText
 10
162.673199
 20
98.399005
 40
3.6
  1
３０
 41
0.601852
  7
STANDARD
100
AcDbText
  0
TEXT
  5
100
100
AcDbEntity
  8
M0
100
AcDbText
 10
162.571648
 20
112.310907
 40
3.6
  1
４０
 41
0.601852
  7
STANDARD
100
AcDbText
  0
TEXT
  5
101
100
AcDbEntity
  8
M0
100
AcDbText
 10
162.571648
 20
126.310907
 40
3.6
  1
５０
 41
0.601852
  7
STANDARD
100
AcDbText
  0
TEXT
  5
102
100
AcDbEntity
  8
M0
100
AcDbText
 10
162.571648
 20
140.310907
 40
3.6
  1
６０
 41
0.601852
  7
STANDARD
100
AcDbText
  0
TEXT
  5
103
100
AcDbEntity
  8
M0
100
AcDbText
 10
160.084681
 20
78.899485
 40
3.6
  1
（　）
 50
90.000003
 41
0.63786
  7
STANDARD
100
AcDbText
  0
TEXT
  5
104
100
AcDbEntity
  8
M0
100
AcDbText
 10
156.816261
 20
96.508021
 40
3.6
  1
全
 41
0.833333
  7
STANDARD
100
AcDbText
  0
TEXT
  5
105
100
AcDbEntity
  8
M0
100
AcDbText
 10
156.816261
 20
92.752466
 40
3.6
  1
揚
 41
0.833333
  7
STANDARD
100
AcDbText
  0
TEXT
  5
106
100
AcDbEntity
  8
M0
100
AcDbText
 10
156.816261
 20
88.996911
 40
3.6
  1
程
 41
0.833333
  7
STANDARD
100
AcDbText
  0
TEXT
  5
107
100
AcDbEntity
  8
M0
100
AcDbText
 10
156.816261
 20
85.241355
 40
3.6
  1
　
 41
0.833333
  7
STANDARD
100
AcDbText
  0
TEXT
  5
108
100
AcDbEntity
  8
M0
100
AcDbText
 10
156.816261
 20
81.4858
 40
3.6
  1
ｍ
 41
0.833333
  7
STANDARD
100
AcDbText
  0
TEXT
  5
109
100
AcDbEntity
  8
M0
100
AcDbText
 10
167.13781
 20
53.434942
 40
3.6
  1
０
 41
0.601852
  7
STANDARD
100
AcDbText
  0
TEXT
  5
10A
100
AcDbEntity
  8
M0
100
AcDbText
 10
180.155401
 20
53.434942
 40
3.6
  1
１０
 41
0.601852
  7
STANDARD
100
AcDbText
  0
TEXT
  5
10B
100
AcDbEntity
  8
M0
100
AcDbText
 10
194.155404
 20
53.434942
 40
3.6
  1
２０
 41
0.601852
  7
STANDARD
100
AcDbText
  0
TEXT
  5
10C
100
AcDbEntity
  8
M0
100
AcDbText
 10
208.155401
 20
53.434942
 40
3.6
  1
３０
 41
0.601852
  7
STANDARD
100
AcDbText
  0
LINE
  5
10D
100
AcDbEntity
  8
M0
 62
     5
100
AcDbLine
 10
39.276173
 20
217.296126
 11
95.626173
 21
217.296126
  0
LINE
  5
10E
100
AcDbEntity
  8
M0
100
AcDbLine
 10
180.485455
 20
140.708021
 11
188.59722
 21
123.470521
  0
LINE
  5
10F
100
AcDbEntity
  8
M0
100
AcDbLine
 10
188.59722
 20
123.470521
 11
188.59722
 21
114.108021
  0
TEXT
  5
110
100
AcDbEntity
  8
M0
100
AcDbText
 10
167.137813
 20
177.623046
 40
3.6
  1
０
 41
0.601852
  7
STANDARD
100
AcDbText
  0
TEXT
  5
111
100
AcDbEntity
  8
M0
100
AcDbText
 10
180.1554
 20
177.623046
 40
3.6
  1
１０
 41
0.601852
  7
STANDARD
100
AcDbText
  0
TEXT
  5
112
100
AcDbEntity
  8
M0
100
AcDbText
 10
194.155403
 20
177.623046
 40
3.6
  1
２０
 41
0.601852
  7
STANDARD
100
AcDbText
  0
TEXT
  5
113
100
AcDbEntity
  8
M0
100
AcDbText
 10
208.155403
 20
177.623046
 40
3.6
  1
３０
 41
0.601852
  7
STANDARD
100
AcDbText
  0
TEXT
  5
114
100
AcDbEntity
  8
M0
100
AcDbText
 10
222.155397
 20
177.623046
 40
3.6
  1
４０
 41
0.601852
  7
STANDARD
100
AcDbText
  0
TEXT
  5
115
100
AcDbEntity
  8
M0
100
AcDbText
 10
236.155397
 20
177.623046
 40
3.6
  1
５０
 41
0.601852
  7
STANDARD
100
AcDbText
  0
TEXT
  5
116
100
AcDbEntity
  8
M0
100
AcDbText
 10
250.155397
 20
177.623046
 40
3.6
  1
６０
 41
0.601852
  7
STANDARD
100
AcDbText
  0
TEXT
  5
117
100
AcDbEntity
  8
M0
100
AcDbText
 10
196.449071
 20
173.122589
 40
3.6
  1
揚水量（Ｌ／分）
 41
0.63786
  7
STANDARD
100
AcDbText
  0
TEXT
  5
118
100
AcDbEntity
  8
M0
100
AcDbText
 10
160.084684
 20
203.087589
 40
3.6
  1
（　）
 50
90.000003
 41
0.63786
  7
STANDARD
100
AcDbText
  0
TEXT
  5
119
100
AcDbEntity
  8
M0
100
AcDbText
 10
156.816263
 20
220.696126
 40
3.6
  1
全
 41
0.833333
  7
STANDARD
100
AcDbText
  0
TEXT
  5
11A
100
AcDbEntity
  8
M0
100
AcDbText
 10
156.816263
 20
216.94057
 40
3.6
  1
揚
 41
0.833333
  7
STANDARD
100
AcDbText
  0
TEXT
  5
11B
100
AcDbEntity
  8
M0
100
AcDbText
 10
156.816263
 20
213.185015
 40
3.6
  1
程
 41
0.833333
  7
STANDARD
100
AcDbText
  0
TEXT
  5
11C
100
AcDbEntity
  8
M0
100
AcDbText
 10
156.816263
 20
209.429459
 40
3.6
  1
　
 41
0.833333
  7
STANDARD
100
AcDbText
  0
TEXT
  5
11D
100
AcDbEntity
  8
M0
100
AcDbText
 10
156.816263
 20
205.673904
 40
3.6
  1
ｍ
 41
0.833333
  7
STANDARD
100
AcDbText
  0
LINE
  5
11E
100
AcDbEntity
  8
M0
 62
   234
100
AcDbLine
 10
39.276173
 20
114.108021
 11
98.076173
 21
114.108021
  0
LINE
  5
11F
100
AcDbEntity
  8
M0
 62
   234
100
AcDbLine
 10
67.276173
 20
137.166903
 11
67.276173
 21
58.108021
  0
LINE
  5
120
100
AcDbEntity
  8
M0
 62
   234
100
AcDbLine
 10
39.276173
 20
100.108021
 11
98.076173
 21
100.108021
  0
LINE
  5
121
100
AcDbEntity
  8
M0
 62
   234
100
AcDbLine
 10
95.276173
 20
58.108021
 11
95.276173
 21
135.542179
  0
LINE
  5
122
100
AcDbEntity
  8
M0
 62
   234
100
AcDbLine
 10
98.076173
 20
58.108021
 11
39.276173
 21
58.108021
  0
LINE
  5
123
100
AcDbEntity
  8
M0
 62
   234
100
AcDbLine
 10
39.276173
 20
72.108021
 11
98.076173
 21
72.108021
  0
LINE
  5
124
100
AcDbEntity
  8
M0
 62
   234
100
AcDbLine
 10
39.276173
 20
86.108021
 11
98.076173
 21
86.108021
  0
LINE
  5
125
100
AcDbEntity
  8
M0
 62
   234
100
AcDbLine
 10
53.276173
 20
144.908021
 11
53.276173
 21
58.108021
  0
LINE
  5
126
100
AcDbEntity
  8
M0
 62
   234
100
AcDbLine
 10
39.276173
 20
144.908021
 11
39.276173
 21
58.108021
  0
LINE
  5
127
100
AcDbEntity
  8
M0
 62
   234
100
AcDbLine
 10
39.276173
 20
86.108021
 11
91.851999
 21
86.108021
  0
LINE
  5
128
100
AcDbEntity
  8
M0
 62
   234
100
AcDbLine
 10
39.276173
 20
128.108021
 11
97.771264
 21
128.108021
  0
LINE
  5
129
100
AcDbEntity
  8
M0
 62
   234
100
AcDbLine
 10
39.276173
 20
142.108021
 11
64.417158
 21
142.108021
  0
LINE
  5
12A
100
AcDbEntity
  8
M0
 62
   234
100
AcDbLine
 10
81.276173
 20
135.542179
 11
81.276173
 21
58.108021
  0
TEXT
  5
12B
100
AcDbEntity
  8
M0
100
AcDbText
 10
36.000897
 20
180.223046
 40
3.6
  1
０
 41
0.601852
  7
STANDARD
100
AcDbText
  0
TEXT
  5
12C
100
AcDbEntity
  8
M0
100
AcDbText
 10
33.652154
 20
194.587103
 40
3.6
  1
１０
 41
0.601852
  7
STANDARD
100
AcDbText
  0
TEXT
  5
12D
100
AcDbEntity
  8
M0
100
AcDbText
 10
33.652154
 20
208.587109
 40
3.6
  1
２０
 41
0.601852
  7
STANDARD
100
AcDbText
  0
TEXT
  5
12E
100
AcDbEntity
  8
M0
100
AcDbText
 10
33.652154
 20
222.587109
 40
3.6
  1
３０
 41
0.601852
  7
STANDARD
100
AcDbText
  0
TEXT
  5
12F
100
AcDbEntity
  8
M0
100
AcDbText
 10
33.550604
 20
236.499011
 40
3.6
  1
４０
 41
0.601852
  7
STANDARD
100
AcDbText
  0
TEXT
  5
130
100
AcDbEntity
  8
M0
100
AcDbText
 10
33.550604
 20
250.499011
 40
3.6
  1
５０
 41
0.601852
  7
STANDARD
100
AcDbText
  0
LINE
  5
131
100
AcDbEntity
  8
M0
 62
   234
100
AcDbLine
 10
168.29722
 20
114.108021
 11
213.09722
 21
114.108021
  0
LINE
  5
132
100
AcDbEntity
  8
M0
 62
   234
100
AcDbLine
 10
168.29722
 20
100.108021
 11
213.09722
 21
100.108021
  0
LINE
  5
133
100
AcDbEntity
  8
M0
 62
   234
100
AcDbLine
 10
213.09722
 20
58.108021
 11
168.29722
 21
58.108021
  0
LINE
  5
134
100
AcDbEntity
  8
M0
 62
   234
100
AcDbLine
 10
168.29722
 20
72.108021
 11
213.09722
 21
72.108021
  0
LINE
  5
135
100
AcDbEntity
  8
M0
 62
   234
100
AcDbLine
 10
182.29722
 20
144.908021
 11
182.29722
 21
58.108021
  0
LINE
  5
136
100
AcDbEntity
  8
M0
 62
   234
100
AcDbLine
 10
168.29722
 20
144.908021
 11
168.29722
 21
58.108021
  0
LINE
  5
137
100
AcDbEntity
  8
M0
 62
   234
100
AcDbLine
 10
168.29722
 20
86.108021
 11
213.09722
 21
86.108021
  0
LINE
  5
138
100
AcDbEntity
  8
M0
 62
   234
100
AcDbLine
 10
168.29722
 20
128.108021
 11
213.09722
 21
128.108021
  0
LINE
  5
139
100
AcDbEntity
  8
M0
 62
   234
100
AcDbLine
 10
168.29722
 20
142.108021
 11
186.192594
 21
142.108021
  0
LINE
  5
13A
100
AcDbEntity
  8
M0
 62
   234
100
AcDbLine
 10
196.29722
 20
135.566583
 11
196.29722
 21
58.108021
  0
LINE
  5
13B
100
AcDbEntity
  8
M0
 62
   234
100
AcDbLine
 10
210.29722
 20
135.566583
 11
210.29722
 21
58.108021
  0
TEXT
  5
13C
100
AcDbEntity
  8
M0
100
AcDbText
 10
182.449069
 20
48.934484
 40
3.6
  1
揚水量（Ｌ／分）
 41
0.63786
  7
STANDARD
100
AcDbText
  0
TEXT
  5
13D
100
AcDbEntity
  8
M0
100
AcDbText
 10
67.428025
 20
173.122589
 40
3.6
  1
揚水量（Ｌ／分）
 41
0.63786
  7
STANDARD
100
AcDbText
  0
LINE
  5
13E
100
AcDbEntity
  8
M0
 62
     2
100
AcDbLine
 10
290.620555
 20
125.308021
 11
300.806342
 21
125.308021
  0
ARC
  5
13F
100
AcDbEntity
  8
M0
 62
     2
100
AcDbCircle
 10
300.806342
 20
123.908021
 40
1.4
100
AcDbArc
 50
8.130102
 51
90.0
  0
TEXT
  5
140
100
AcDbEntity
  8
M0
100
AcDbText
 10
318.772407
 20
48.934484
 40
3.6
  1
揚水量（Ｌ／分）
 41
0.63786
  7
STANDARD
100
AcDbText
  0
LINE
  5
141
100
AcDbEntity
  8
M0
 62
     5
100
AcDbLine
 10
290.620555
 20
116.908021
 11
302.006342
 21
116.908021
  0
ARC
  5
142
100
AcDbEntity
  8
M0
 62
     5
100
AcDbCircle
 10
302.006342
 20
115.508021
 40
1.4
100
AcDbArc
 50
8.130102
 51
90.0
  0
TEXT
  5
143
100
AcDbEntity
  8
M0
100
AcDbText
 10
165.021944
 20
180.223046
 40
3.6
  1
０
 41
0.601852
  7
STANDARD
100
AcDbText
  0
TEXT
  5
144
100
AcDbEntity
  8
M0
100
AcDbText
 10
162.673201
 20
194.587103
 40
3.6
  1
１０
 41
0.601852
  7
STANDARD
100
AcDbText
  0
TEXT
  5
145
100
AcDbEntity
  8
M0
100
AcDbText
 10
162.673201
 20
208.587109
 40
3.6
  1
２０
 41
0.601852
  7
STANDARD
100
AcDbText
  0
TEXT
  5
146
100
AcDbEntity
  8
M0
100
AcDbText
 10
162.673201
 20
222.587109
 40
3.6
  1
３０
 41
0.601852
  7
STANDARD
100
AcDbText
  0
TEXT
  5
147
100
AcDbEntity
  8
M0
100
AcDbText
 10
162.571651
 20
236.499011
 40
3.6
  1
４０
 41
0.601852
  7
STANDARD
100
AcDbText
  0
TEXT
  5
148
100
AcDbEntity
  8
M0
100
AcDbText
 10
162.571651
 20
250.499011
 40
3.6
  1
５０
 41
0.601852
  7
STANDARD
100
AcDbText
  0
TEXT
  5
149
100
AcDbEntity
  8
M0
100
AcDbText
 10
31.063637
 20
203.087589
 40
3.6
  1
（　）
 50
90.000003
 41
0.63786
  7
STANDARD
100
AcDbText
  0
TEXT
  5
14A
100
AcDbEntity
  8
M0
100
AcDbText
 10
27.795217
 20
220.696126
 40
3.6
  1
全
 41
0.833333
  7
STANDARD
100
AcDbText
  0
TEXT
  5
14B
100
AcDbEntity
  8
M0
100
AcDbText
 10
27.795217
 20
216.94057
 40
3.6
  1
揚
 41
0.833333
  7
STANDARD
100
AcDbText
  0
TEXT
  5
14C
100
AcDbEntity
  8
M0
100
AcDbText
 10
27.795217
 20
213.185015
 40
3.6
  1
程
 41
0.833333
  7
STANDARD
100
AcDbText
  0
TEXT
  5
14D
100
AcDbEntity
  8
M0
100
AcDbText
 10
27.795217
 20
209.429459
 40
3.6
  1
　
 41
0.833333
  7
STANDARD
100
AcDbText
  0
TEXT
  5
14E
100
AcDbEntity
  8
M0
100
AcDbText
 10
27.795217
 20
205.673904
 40
3.6
  1
ｍ
 41
0.833333
  7
STANDARD
100
AcDbText
  0
TEXT
  5
14F
100
AcDbEntity
  8
M0
100
AcDbText
 10
287.34528
 20
56.034942
 40
3.6
  1
０
 41
0.601852
  7
STANDARD
100
AcDbText
  0
TEXT
  5
150
100
AcDbEntity
  8
M0
100
AcDbText
 10
284.996537
 20
70.398999
 40
3.6
  1
１０
 41
0.601852
  7
STANDARD
100
AcDbText
  0
TEXT
  5
151
100
AcDbEntity
  8
M0
100
AcDbText
 10
284.996537
 20
84.399005
 40
3.6
  1
２０
 41
0.601852
  7
STANDARD
100
AcDbText
  0
TEXT
  5
152
100
AcDbEntity
  8
M0
100
AcDbText
 10
284.996537
 20
98.399005
 40
3.6
  1
３０
 41
0.601852
  7
STANDARD
100
AcDbText
  0
TEXT
  5
153
100
AcDbEntity
  8
M0
100
AcDbText
 10
284.894987
 20
112.310907
 40
3.6
  1
４０
 41
0.601852
  7
STANDARD
100
AcDbText
  0
TEXT
  5
154
100
AcDbEntity
  8
M0
100
AcDbText
 10
284.894987
 20
126.310907
 40
3.6
  1
５０
 41
0.601852
  7
STANDARD
100
AcDbText
  0
TEXT
  5
155
100
AcDbEntity
  8
M0
100
AcDbText
 10
284.894987
 20
140.310907
 40
3.6
  1
６０
 41
0.601852
  7
STANDARD
100
AcDbText
  0
LINE
  5
156
100
AcDbEntity
  8
M0
 62
     5
100
AcDbLine
 10
168.29722
 20
132.308021
 11
184.438396
 21
132.308021
  0
ENDSEC
  0
SECTION
  2
OBJECTS
  0
DICTIONARY
  5
C
100
AcDbDictionary
  3
ACAD_GROUP
350
D
  3
ACAD_MLINESTYLE
350
E
  0
DICTIONARY
  5
D
102
{ACAD_REACTORS
330
C
102
}
100
AcDbDictionary
  0
DICTIONARY
  5
E
102
{ACAD_REACTORS
330
C
102
}
100
AcDbDictionary
  3
STANDARD
350
13
  0
MLINESTYLE
  5
13
102
{ACAD_REACTORS
330
E
102
}
100
AcDbMlineStyle
  2
STANDARD
 70
     0
  3

 62
     0
 51
90.0
 52
90.0
 71
     2
 49
0.5
 62
   256
  6
BYLAYER
 49
-0.5
 62
   256
  6
BYLAYER
  0
ENDSEC
  0
EOF
