  0
SECTION
  2
HEADER
  9
$ACADVER
  1
AC1012
  9
$INSBASE
 10
0.000000
 20
0.000000
 30
0.0
  9
$VIEWCTR
 10
7.531722
 20
4.5
  9
$VIEWSIZE
 40
9.0
  9
$SNAPMODE
 70
     0
  9
$SNAPUNIT
 10
1.0
 20
1.0
  9
$SNAPBASE
 10
0.0
 20
0.0
  9
$SNAPANG
 50
0.0
  9
$SNAPSTYLE
 70
     0
  9
$SNAPISOPAIR
 70
     0
  9
$GRIDMODE
 70
     0
  9
$GRIDUNIT
 10
0.0
 20
0.0
  9
$ORTHOMODE
 70
     0
  9
$REGENMODE
 70
     1
  9
$FILLMODE
 70
     1
  9
$QTEXTMODE
 70
     0
  9
$DRAGMODE
 70
     2
  9
$LTSCALE
  40
     1.000000
  9
$OSMODE
 70
     0
  9
$ATTMODE
 70
     1
  9
$TEXTSIZE
 40
0.2
  9
$TRACEWID
 40
0.05
  9
$TEXTSTYLE
  7
STANDARD
  9
$CELTYPE
  6
BYLAYER
  9
$CECOLOR
 62
   256
  9
$DIMSCALE
 40
1.0
  9
$DIMASZ
 40
0.18
  9
$DIMEXO
 40
0.0625
  9
$DIMDLI
 40
0.38
  9
$DIMRND
 40
0.0
  9
$DIMDLE
 40
0.0
  9
$DIMEXE
 40
0.18
  9
$DIMTP
 40
0.0
  9
$DIMTM
 40
0.0
  9
$DIMTXT
 40
0.18
  9
$DIMCEN
 40
0.09
  9
$DIMTSZ
 40
0.0
  9
$DIMTOL
 70
     0
  9
$DIMLIM
 70
     0
  9
$DIMTIH
 70
     1
  9
$DIMTOH
 70
     1
  9
$DIMSE1
 70
     0
  9
$DIMSE2
 70
     0
  9
$DIMTAD
 70
     0
  9
$DIMZIN
 70
     0
  9
$DIMBLK
  1

  9
$LUNITS
 70
     2
  9
$LUPREC
 70
     4
  9
$AXISMODE
 70
     0
  9
$AXISUNIT
 10
0.0
 20
0.0
  9
$SKETCHINC
 40
0.1
  9
$FILLETRAD
 40
0.0
  9
$AUNITS
 70
     0
  9
$AUPREC
 70
     0
  9
$MENU
  1
ACAD
  9
$ELEVATION
 40
0.0
  9
$THICKNESS
 40
0.0
  9
$VIEWDIR
 10
0.0
 20
0.0
 30
1.0
  9
$LIMCHECK
 70
     0
  9
$BLIPMODE
 70
     1
  9
$CHAMFERA
 40
0.0
  9
$CHAMFERB
 40
0.0
  9
$FASTZOOM
 70
     1
  9
$SKPOLY
 70
     0
  9
$TDCREATE
 40
0000000.0000000000
  9
$TDUPDATE
 40
0000000.0000000000
  9
$TDINDWG
 40
0.0000000000
  9
$TDUSRTIMER
 40
0.0000000000
  9
$USRTIMER
 70
     1
  9
$ANGBASE
 50
0.0
  9
$ANGDIR
 70
     0
  9
$PDMODE
 70
     0
  9
$PDSIZE
 40
0.0
  9
$PLINEWID
 40
0.0
  9
$COORDS
 70
     0
  9
$USERI1
 70
     0
  9
$USERI2
 70
     0
  9
$USERI3
 70
     0
  9
$USERI4
 70
     0
  9
$USERI5
 70
     0
  9
$USERR1
 40
0.0
  9
$USERR2
 40
0.0
  9
$USERR3
 40
0.0
  9
$USERR4
 40
0.0
  9
$USERR5
 40
0.0
  9
$CLAYER
  8
M0
  9
$EXTMIN
 10
0.0
 20
0.0
  9
$EXTMAX
 10
420.0
 20
297.0
  9
$LIMMIN
 10
0.0
 20
0.0
  9
$LIMMAX
 10
420.0
 20
297.0
  9
$HANDSEED
  5
144
  0
ENDSEC
  0
SECTION
  2
CLASSES
  0
ENDSEC
  0
SECTION
  2
TABLES
  0
TABLE
  2
VPORT
  5
8
100
AcDbSymbolTable
 70
     2
  0
VPORT
  5
14
100
AcDbSymbolTableRecord
100
AcDbViewportTableRecord
  2
*ACTIVE
 70
     0
 10
0.0
 20
0.0
 11
1.0
 21
1.0
 12
484.0
 22
297.0
 13
0.0
 23
0.0
 14
1.0
 24
1.0
 15
0.0
 25
0.0
 16
0.0
 26
0.0
 36
1.0
 17
0.0
 27
0.0
 37
0.0
 40
594.0
 41
2.0
 42
50.0
 43
0.0
 44
0.0
 50
0.0
 51
0.0
 71
     0
 72
   100
 73
     1
 74
     1
 75
     0
 76
     0
 77
     0
 78
     0
  0
ENDTAB
  0
TABLE
  2
LTYPE
  5
5
100
AcDbSymbolTable
 70
     5
  0
LTYPE
  5
15
100
AcDbSymbolTableRecord
100
AcDbLinetypeTableRecord
  2
BYBLOCK
 70
     0
  3

 72
    65
 73
     0
 40
0.0
  0
LTYPE
  5
16
100
AcDbSymbolTableRecord
100
AcDbLinetypeTableRecord
  2
BYLAYER
 70
     0
  3

 72
    65
 73
     0
 40
0.0
  0
LTYPE
  5
17
100
AcDbSymbolTableRecord
100
AcDbLinetypeTableRecord
  2
CONTINUOUS
 70
    64
  3
Solid line
 72
    65
 73
     0
 40
0.0
  0
LTYPE
  5
18
100
AcDbSymbolTableRecord
100
AcDbLinetypeTableRecord
  2
DASHED
 70
    64
  3
__ __ __ __ __ __ __ __ __ __ __ __ __ __ __ __
 72
    65
 73
     2
 40
0.75
 49
0.5
 74
     0
 49
-0.25
 74
     0
  0
LTYPE
  5
19
100
AcDbSymbolTableRecord
100
AcDbLinetypeTableRecord
  2
DASHDOT
 70
    64
  3
__ . __ . __ . __ . __ . __ . __ . __ . __ . __
 72
    65
 73
     4
 40
1.0
 49
0.5
 74
     0
 49
-0.25
 74
     0
 49
0.0
 74
     0
 49
-0.25
 74
     0
  0
LTYPE
  5
1A
100
AcDbSymbolTableRecord
100
AcDbLinetypeTableRecord
  2
DIVIDE
 70
    64
  3
____ . . ____ . . ____ . . ____ . . ____ . . __
 72
    65
 73
     6
 40
1.25
 49
0.5
 74
     0
 49
-0.25
 74
     0
 49
0.0
 74
     0
 49
-0.25
 74
     0
 49
0.0
 74
     0
 49
-0.25
 74
     0
  0
LTYPE
  5
1B
100
AcDbSymbolTableRecord
100
AcDbLinetypeTableRecord
  2
DOT
 70
    64
  3
. . . . . . . . . . . . . . . . . . . . . . . .
 72
    65
 73
     2
 40
0.25
 49
0.0
 74
     0
 49
-0.25
 74
     0
  0
ENDTAB
  0
TABLE
  2
LAYER
  5
2
100
AcDbSymbolTable
 70
   102
  0
LAYER
  5
F
100
AcDbSymbolTableRecord
100
AcDbLayerTableRecord
  2
0
 70
     0
 62
     7
  6
CONTINUOUS
  0
LAYER
  5
1C
100
AcDbSymbolTableRecord
100
AcDbLayerTableRecord
  2
DEFPOINTS
 70
     0
 62
     7
  6
CONTINUOUS
  0
LAYER
  5
1D
100
AcDbSymbolTableRecord
100
AcDbLayerTableRecord
  2
M0
 70
     0
 62
     3
  6
CONTINUOUS
  0
LAYER
  5
1E
100
AcDbSymbolTableRecord
100
AcDbLayerTableRecord
  2
DD0
 70
     0
 62
     4
  6
CONTINUOUS
  0
ENDTAB
  0
TABLE
  2
STYLE
  5
3
100
AcDbSymbolTable
 70
     2
  0
STYLE
  5
10
100
AcDbSymbolTableRecord
100
AcDbTextStyleTableRecord
  2
STANDARD
 70
     0
 40
0.0
 41
1.0
 50
0.0
 71
     0
 42
0.2
  3
txt
  4
BIGFONT
  0
ENDTAB
  0
TABLE
  2
VIEW
  5
6
100
AcDbSymbolTable
 70
     0
  0
ENDTAB
  0
TABLE
  2
UCS
  5
7
100
AcDbSymbolTable
 70
     0
  0
ENDTAB
  0
TABLE
  2
APPID
  5
9
100
AcDbSymbolTable
 70
     1
  0
APPID
  5
11
100
AcDbSymbolTableRecord
100
AcDbRegAppTableRecord
  2
ACAD
 70
     0
  0
ENDTAB
  0
TABLE
  2
DIMSTYLE
  5
A
100
AcDbSymbolTable
 70
     2
  0
DIMSTYLE
105
25
100
AcDbSymbolTableRecord
100
AcDbDimStyleTableRecord
  2
STANDARD
 70
     0
  3

  4

  5

  6
_OPEN
  7
_OPEN
 40
1.0
 41
3.0
 42
0.0
 43
8.0
 44
1.5
 45
0.0
 46
0.0
 47
0.0
 48
0.0
140
3.5
141
0.09
142
0.0
143
0.03937
144
1.0
145
0.0
146
1.0
147
1.0
 71
     0
 72
     0
 73
     1
 74
     1
 75
     0
 76
     0
 77
     3
 78
     8
170
     0
171
     2
172
     0
173
     1
174
     0
175
     0
176
     0
177
     0
178
     0
270
     2
271
     2
272
     4
273
     2
274
     2
340
10
275
     0
280
     0
281
     0
282
     0
283
     1
284
     0
285
     0
286
     0
287
     3
288
     0
  0
DIMSTYLE
105
26
100
AcDbSymbolTableRecord
100
AcDbDimStyleTableRecord
  2
LEADSTYL
 70
     0
  3

  4

  5

  6
_OPEN
  7
_OPEN
 40
1.0
 41
3.0
 42
0.0625
 43
0.38
 44
0.18
 45
0.0
 46
0.0
 47
0.0
 48
0.0
140
3.2
141
0.09
142
0.0
143
25.4
144
1.0
145
0.0
146
1.0
147
1.0
 71
     0
 72
     0
 73
     1
 74
     1
 75
     0
 76
     0
 77
     0
 78
     0
170
     0
171
     2
172
     0
173
     1
174
     0
175
     0
176
     0
177
     0
178
     0
270
     2
271
     4
272
     4
273
     2
274
     2
340
10
275
     0
280
     0
281
     0
282
     0
283
     1
284
     0
285
     0
286
     0
287
     3
288
     0
  0
ENDTAB
  0
TABLE
  2
BLOCK_RECORD
  5
1
100
AcDbSymbolTable
 70
     6
  0
BLOCK_RECORD
  5
1F
100
AcDbSymbolTableRecord
100
AcDbBlockTableRecord
  2
*MODEL_SPACE
  0
BLOCK_RECORD
  5
22
100
AcDbSymbolTableRecord
100
AcDbBlockTableRecord
  2
*PAPER_SPACE
  0
BLOCK_RECORD
  5
27
100
AcDbSymbolTableRecord
100
AcDbBlockTableRecord
  2
_NONE
  0
BLOCK_RECORD
  5
2B
100
AcDbSymbolTableRecord
100
AcDbBlockTableRecord
  2
_OPEN
  0
BLOCK_RECORD
  5
31
100
AcDbSymbolTableRecord
100
AcDbBlockTableRecord
  2
_CLOSED
  0
BLOCK_RECORD
  5
38
100
AcDbSymbolTableRecord
100
AcDbBlockTableRecord
  2
_ORIGIN
  0
BLOCK_RECORD
  5
3D
100
AcDbSymbolTableRecord
100
AcDbBlockTableRecord
  2
_DOT
  0
BLOCK_RECORD
  5
45
100
AcDbSymbolTableRecord
100
AcDbBlockTableRecord
  2
_OBLIQUE
  0
ENDTAB
  0
ENDSEC
  0
SECTION
  2
BLOCKS
  0
BLOCK
  5
20
100
AcDbEntity
  8
0
100
AcDbBlockBegin
  2
*MODEL_SPACE
 70
     0
 10
0.0
 20
0.0
 30
0.0
  3
*MODEL_SPACE
  1

  0
ENDBLK
  5
21
100
AcDbEntity
  8
0
100
AcDbBlockEnd
  0
BLOCK
  5
23
100
AcDbEntity
 67
     1
  8
0
100
AcDbBlockBegin
  2
*PAPER_SPACE
 70
     0
 10
0.0
 20
0.0
 30
0.0
  3
*PAPER_SPACE
  1

  0
ENDBLK
  5
24
100
AcDbEntity
 67
     1
  8
0
100
AcDbBlockEnd
  0
BLOCK
  5
28
100
AcDbEntity
  8
0
100
AcDbBlockBegin
  2
_NONE
 70
     0
 10
0.0
 20
0.0
  0
CIRCLE
  5
29
100
AcDbEntity
  8
0
 62
     0
100
AcDbCircle
 10
0.0
 20
0.0
 40
0.25
  0
ENDBLK
  5
2A
100
AcDbEntity
  8
0
100
AcDbBlockEnd
  0
BLOCK
  5
2C
100
AcDbEntity
  8
0
100
AcDbBlockBegin
  2
_OPEN
 70
     0
 10
0.0
 20
0.0
  0
LINE
  5
2D
100
AcDbEntity
  8
0
 62
     0
100
AcDbLine
 10
-0.965926
 20
0.258819
 11
0.0
 21
0.0
  0
LINE
  5
2E
100
AcDbEntity
  8
0
 62
     0
100
AcDbLine
 10
0.0
 20
0.0
 11
-0.965926
 21
-0.258819
  0
LINE
  5
2F
100
AcDbEntity
  8
0
 62
     0
100
AcDbLine
 10
0.0
 20
0.0
 11
-1.0
 21
0.0
  0
ENDBLK
  5
30
100
AcDbEntity
  8
0
100
AcDbBlockEnd
  0
BLOCK
  5
32
100
AcDbEntity
  8
0
100
AcDbBlockBegin
  2
_CLOSED
 70
     0
 10
0.0
 20
0.0
  0
LINE
  5
33
100
AcDbEntity
  8
0
 62
     0
100
AcDbLine
 10
-0.965926
 20
0.258819
 11
0.0
 21
0.0
  0
LINE
  5
34
100
AcDbEntity
  8
0
 62
     0
100
AcDbLine
 10
0.0
 20
0.0
 11
-0.965926
 21
-0.258819
  0
LINE
  5
35
100
AcDbEntity
  8
0
 62
     0
100
AcDbLine
 10
-0.965926
 20
0.258819
 11
-0.965926
 21
-0.258819
  0
LINE
  5
36
100
AcDbEntity
  8
0
 62
     0
100
AcDbLine
 10
0.0
 20
0.0
 11
-1.0
 21
0.0
  0
ENDBLK
  5
37
100
AcDbEntity
  8
0
100
AcDbBlockEnd
  0
BLOCK
  5
39
100
AcDbEntity
  8
0
100
AcDbBlockBegin
  2
_ORIGIN
 70
     0
 10
0.0
 20
0.0
  0
CIRCLE
  5
3A
100
AcDbEntity
  8
0
 62
     0
100
AcDbCircle
 10
0.0
 20
0.0
 40
0.5
  0
LINE
  5
3B
100
AcDbEntity
  8
0
 62
     0
100
AcDbLine
 10
0.0
 20
0.0
 11
-1.0
 21
0.0
  0
ENDBLK
  5
3C
100
AcDbEntity
  8
0
100
AcDbBlockEnd
  0
BLOCK
  5
3E
100
AcDbEntity
  8
0
100
AcDbBlockBegin
  2
_DOT
 70
     0
 10
0.0
 20
0.0
  0
POLYLINE
  5
3F
100
AcDbEntity
  8
0
 62
     0
100
AcDb2dPolyline
 66
     1
 70
     1
 40
0.5
 41
0.5
  0
VERTEX
  5
40
100
AcDbEntity
  8
0
 62
     0
100
AcDbVertex
100
AcDb2dVertex
 10
-0.25
 20
0.0
 42
1.0
  0
VERTEX
  5
41
100
AcDbEntity
  8
0
 62
     0
100
AcDbVertex
100
AcDb2dVertex
 10
0.25
 20
0.0
 42
1.0
  0
SEQEND
  5
42
100
AcDbEntity
  8
0
 62
     0
  0
LINE
  5
43
100
AcDbEntity
  8
0
 62
     0
100
AcDbLine
 10
-0.5
 20
0.0
 11
-1.0
 21
0.0
  0
ENDBLK
  5
44
100
AcDbEntity
  8
0
100
AcDbBlockEnd
  0
BLOCK
  5
46
100
AcDbEntity
  8
0
100
AcDbBlockBegin
  2
_OBLIQUE
 70
     0
 10
0.0
 20
0.0
  0
LINE
  5
47
100
AcDbEntity
  8
0
 62
     0
100
AcDbLine
 10
-0.353553
 20
-0.353553
 11
0.353553
 21
0.353553
  0
ENDBLK
  5
48
100
AcDbEntity
  8
0
100
AcDbBlockEnd
  0
ENDSEC
  0
SECTION
  2
ENTITIES
  0
LEADER
  5
49
100
AcDbEntity
  8
DD0
100
AcDbLeader
  3
LEADSTYL
 76
     3
 10
51.984329
 20
124.95916
 10
62.132019
 20
141.759155
 10
116.632019
 20
141.759155
340
4A
 77
     4
  0
TEXT
  5
4A
100
AcDbEntity
  8
DD0
100
AcDbText
 10
63.423686
 20
142.759155
 40
3.5
  1
「標準」ＯＦＦ圧　２４０ｋＰａ
 41
0.833333
  7
STANDARD
100
AcDbText
  0
LEADER
  5
4B
100
AcDbEntity
  8
DD0
100
AcDbLeader
  3
LEADSTYL
 76
     3
 10
168.378799
 20
140.359161
 10
166.309006
 20
151.559158
 10
220.809006
 20
151.559158
340
4C
 77
     4
  0
TEXT
  5
4C
100
AcDbEntity
  8
DD0
100
AcDbText
 10
167.600672
 20
152.559158
 40
3.5
  1
「標準」ＯＦＦ圧　２４０ｋＰａ
 41
0.833333
  7
STANDARD
100
AcDbText
  0
LEADER
  5
4D
100
AcDbEntity
  8
DD0
100
AcDbLeader
  3
LEADSTYL
 76
     3
 10
198.171631
 20
232.34726
 10
225.857574
 20
248.297714
 10
280.357574
 20
248.297714
340
4E
 77
     4
  0
TEXT
  5
4E
100
AcDbEntity
  8
DD0
100
AcDbText
 10
227.149241
 20
249.297714
 40
3.5
  1
「標準」ＯＦＦ圧　２４０ｋＰａ
 41
0.833333
  7
STANDARD
100
AcDbText
  0
LEADER
  5
4F
100
AcDbEntity
  8
DD0
100
AcDbLeader
  3
LEADSTYL
 76
     3
 10
58.627777
 20
225.34726
 10
71.910522
 20
250.306686
 10
126.410522
 20
250.306686
340
50
 77
     4
  0
TEXT
  5
50
100
AcDbEntity
  8
DD0
100
AcDbText
 10
73.202189
 20
251.306686
 40
3.5
  1
「標準」ＯＦＦ圧　２４０ｋＰａ
 41
0.833333
  7
STANDARD
100
AcDbText
  0
LEADER
  5
51
100
AcDbEntity
  8
DD0
100
AcDbLeader
  3
LEADSTYL
 76
     3
 10
289.134155
 20
124.95916
 10
295.53186
 20
141.759155
 10
350.03186
 20
141.759155
340
52
 77
     4
  0
TEXT
  5
52
100
AcDbEntity
  8
DD0
100
AcDbText
 10
296.823527
 20
142.759155
 40
3.5
  1
「標準」ＯＦＦ圧　２４０ｋＰａ
 41
0.833333
  7
STANDARD
100
AcDbText
  0
LEADER
  5
53
100
AcDbEntity
  8
DD0
100
AcDbLeader
  3
LEADSTYL
 76
     3
 10
52.731804
 20
239.34726
 10
73.361351
 20
255.932877
 10
124.361351
 20
255.932877
340
54
 77
     4
  0
TEXT
  5
54
100
AcDbEntity
  8
DD0
100
AcDbText
 10
74.653018
 20
256.932861
 40
3.5
  1
「高」ＯＦＦ圧　３４０ｋＰａ
 41
0.833333
  7
STANDARD
100
AcDbText
  0
LEADER
  5
55
100
AcDbEntity
  8
DD0
100
AcDbLeader
  3
LEADSTYL
 76
     3
 10
198.766281
 20
246.34726
 10
211.242783
 20
258.397736
 10
262.242798
 20
258.397736
340
56
 77
     4
  0
TEXT
  5
56
100
AcDbEntity
  8
DD0
100
AcDbText
 10
212.534449
 20
259.397736
 40
3.5
  1
「高」ＯＦＦ圧　３４０ｋＰａ
 41
0.833333
  7
STANDARD
100
AcDbText
  0
LEADER
  5
57
100
AcDbEntity
  8
DD0
100
AcDbLeader
  3
LEADSTYL
 76
     3
 10
84.354248
 20
219.747269
 10
93.64399
 20
243.969147
 10
144.643997
 20
243.969147
340
58
 77
     4
  0
TEXT
  5
58
100
AcDbEntity
  8
DD0
100
AcDbText
 10
94.935656
 20
244.969147
 40
3.5
  1
「低」ＯＦＦ圧　２００ｋＰａ
 41
0.833333
  7
STANDARD
100
AcDbText
  0
LEADER
  5
59
100
AcDbEntity
  8
DD0
100
AcDbLeader
  3
LEADSTYL
 76
     3
 10
225.715302
 20
226.747269
 10
242.39534
 20
242.072235
 10
293.395355
 20
242.072235
340
5A
 77
     4
  0
TEXT
  5
5A
100
AcDbEntity
  8
DD0
100
AcDbText
 10
243.687007
 20
243.072235
 40
3.5
  1
「低」ＯＦＦ圧　２００ｋＰａ
 41
0.833333
  7
STANDARD
100
AcDbText
  0
LEADER
  5
5B
100
AcDbEntity
  8
DD0
100
AcDbLeader
  3
LEADSTYL
 76
     3
 10
62.655285
 20
119.359161
 10
72.957664
 20
134.684143
 10
123.957664
 20
134.684143
340
5C
 77
     4
  0
TEXT
  5
5C
100
AcDbEntity
  8
DD0
100
AcDbText
 10
74.249331
 20
135.684143
 40
3.5
  1
「低」ＯＦＦ圧　２００ｋＰａ
 41
0.833333
  7
STANDARD
100
AcDbText
  0
LEADER
  5
5D
100
AcDbEntity
  8
DD0
100
AcDbLeader
  3
LEADSTYL
 76
     3
 10
172.093567
 20
134.759155
 10
178.306442
 20
144.000931
 10
229.306442
 20
144.000931
340
5E
 77
     4
  0
TEXT
  5
5E
100
AcDbEntity
  8
DD0
100
AcDbText
 10
179.598109
 20
145.000931
 40
3.5
  1
「低」ＯＦＦ圧　２００ｋＰａ
 41
0.833333
  7
STANDARD
100
AcDbText
  0
LEADER
  5
5F
100
AcDbEntity
  8
DD0
100
AcDbLeader
  3
LEADSTYL
 76
     3
 10
288.438324
 20
119.359161
 10
299.385315
 20
133.457458
 10
350.385315
 20
133.457458
340
60
 77
     4
  0
TEXT
  5
60
100
AcDbEntity
  8
DD0
100
AcDbText
 10
300.676982
 20
134.457458
 40
3.5
  1
「低」ＯＦＦ圧　２００ｋＰａ
 41
0.833333
  7
STANDARD
100
AcDbText
  0
LINE
  5
61
100
AcDbEntity
  8
M0
 62
   234
100
AcDbLine
 10
41.531855
 20
113.759158
 11
114.331855
 21
113.759158
  0
LINE
  5
62
100
AcDbEntity
  8
M0
 62
   234
100
AcDbLine
 10
69.531855
 20
129.159158
 11
69.531855
 21
57.759158
  0
LINE
  5
63
100
AcDbEntity
  8
M0
 62
   234
100
AcDbLine
 10
41.531855
 20
99.759158
 11
114.331855
 21
99.759158
  0
LINE
  5
64
100
AcDbEntity
  8
M0
 62
   234
100
AcDbLine
 10
97.531855
 20
57.759158
 11
97.531855
 21
129.159158
  0
LINE
  5
65
100
AcDbEntity
  8
M0
 62
   234
100
AcDbLine
 10
114.331855
 20
57.759158
 11
41.531855
 21
57.759158
  0
LINE
  5
66
100
AcDbEntity
  8
M0
 62
   234
100
AcDbLine
 10
41.531855
 20
71.759158
 11
114.331855
 21
71.759158
  0
LINE
  5
67
100
AcDbEntity
  8
M0
 62
   234
100
AcDbLine
 10
41.531855
 20
85.759158
 11
114.331855
 21
85.759158
  0
LINE
  5
68
100
AcDbEntity
  8
M0
 62
   234
100
AcDbLine
 10
111.531855
 20
57.759158
 11
111.531855
 21
129.159158
  0
LINE
  5
69
100
AcDbEntity
  8
M0
 62
   234
100
AcDbLine
 10
55.531855
 20
129.159158
 11
55.531855
 21
57.759158
  0
LINE
  5
6A
100
AcDbEntity
  8
M0
 62
   234
100
AcDbLine
 10
41.531855
 20
148.759158
 11
41.531855
 21
57.759158
  0
LINE
  5
6B
100
AcDbEntity
  8
M0
 62
   234
100
AcDbLine
 10
41.531855
 20
85.759158
 11
94.107681
 21
85.759158
  0
LINE
  5
6C
100
AcDbEntity
  8
M0
 62
   234
100
AcDbLine
 10
41.531855
 20
127.759158
 11
114.331855
 21
127.759158
  0
LINE
  5
6D
100
AcDbEntity
  8
M0
 62
   234
100
AcDbLine
 10
41.531855
 20
141.759158
 11
53.822609
 21
141.759158
  0
LINE
  5
6E
100
AcDbEntity
  8
M0
 62
   234
100
AcDbLine
 10
83.531855
 20
129.159158
 11
83.531855
 21
57.759158
  0
TEXT
  5
6F
100
AcDbEntity
  8
M0
100
AcDbText
 10
40.372448
 20
53.086079
 40
3.6
  1
０
 41
0.601852
  7
STANDARD
100
AcDbText
  0
TEXT
  5
70
100
AcDbEntity
  8
M0
100
AcDbText
 10
53.390035
 20
53.086079
 40
3.6
  1
１０
 41
0.601852
  7
STANDARD
100
AcDbText
  0
TEXT
  5
71
100
AcDbEntity
  8
M0
100
AcDbText
 10
67.390038
 20
53.086079
 40
3.6
  1
２０
 41
0.601852
  7
STANDARD
100
AcDbText
  0
TEXT
  5
72
100
AcDbEntity
  8
M0
100
AcDbText
 10
81.390035
 20
53.086079
 40
3.6
  1
３０
 41
0.601852
  7
STANDARD
100
AcDbText
  0
TEXT
  5
73
100
AcDbEntity
  8
M0
100
AcDbText
 10
95.390032
 20
53.086079
 40
3.6
  1
４０
 41
0.601852
  7
STANDARD
100
AcDbText
  0
TEXT
  5
74
100
AcDbEntity
  8
M0
100
AcDbText
 10
109.390032
 20
53.086079
 40
3.6
  1
５０
 41
0.601852
  7
STANDARD
100
AcDbText
  0
TEXT
  5
75
100
AcDbEntity
  8
M0
100
AcDbText
 10
39.864471
 20
265.856312
 40
3.528
  1
【標準ジェットＪ７５－７Ｙ組合わせ時】
 41
0.777778
  7
STANDARD
100
AcDbText
  0
TEXT
  5
76
100
AcDbEntity
  8
M0
100
AcDbText
 10
43.291668
 20
260.921143
 40
3.528
  1
吸上高さ７ｍ
 41
0.777778
  7
STANDARD
100
AcDbText
  0
LINE
  5
77
100
AcDbEntity
  8
M0
 62
   234
100
AcDbLine
 10
161.531855
 20
253.745833
 11
161.531855
 21
181.947262
  0
LINE
  5
78
100
AcDbEntity
  8
M0
 62
   234
100
AcDbLine
 10
248.331855
 20
181.947262
 11
161.531855
 21
181.947262
  0
LINE
  5
79
100
AcDbEntity
  8
M0
 62
   234
100
AcDbLine
 10
175.531855
 20
253.745833
 11
175.531855
 21
181.947262
  0
LINE
  5
7A
100
AcDbEntity
  8
M0
 62
   234
100
AcDbLine
 10
189.531855
 20
253.745833
 11
189.531855
 21
181.947262
  0
LINE
  5
7B
100
AcDbEntity
  8
M0
 62
   234
100
AcDbLine
 10
161.531855
 20
195.947262
 11
248.331855
 21
195.947262
  0
LINE
  5
7C
100
AcDbEntity
  8
M0
 62
   234
100
AcDbLine
 10
203.531855
 20
253.745833
 11
203.531855
 21
181.947262
  0
LINE
  5
7D
100
AcDbEntity
  8
M0
 62
   234
100
AcDbLine
 10
161.531855
 20
209.947262
 11
248.331855
 21
209.947262
  0
LINE
  5
7E
100
AcDbEntity
  8
M0
 62
   234
100
AcDbLine
 10
217.531855
 20
181.947262
 11
217.531855
 21
253.745833
  0
LINE
  5
7F
100
AcDbEntity
  8
M0
 62
   234
100
AcDbLine
 10
161.531855
 20
237.947262
 11
248.331855
 21
237.947262
  0
LINE
  5
80
100
AcDbEntity
  8
M0
 62
   234
100
AcDbLine
 10
161.531855
 20
251.947262
 11
219.535503
 21
251.947262
  0
LINE
  5
81
100
AcDbEntity
  8
M0
 62
   234
100
AcDbLine
 10
248.331855
 20
223.947262
 11
161.531855
 21
223.947262
  0
LINE
  5
82
100
AcDbEntity
  8
M0
 62
   234
100
AcDbLine
 10
231.531855
 20
181.947262
 11
231.531855
 21
239.898877
  0
LINE
  5
83
100
AcDbEntity
  8
M0
 62
   234
100
AcDbLine
 10
245.531855
 20
181.947262
 11
245.531855
 21
239.898877
  0
LINE
  5
84
100
AcDbEntity
  8
M0
 62
   234
100
AcDbLine
 10
161.531855
 20
113.759158
 11
220.331855
 21
113.759158
  0
LINE
  5
85
100
AcDbEntity
  8
M0
 62
   234
100
AcDbLine
 10
161.531855
 20
99.759158
 11
220.331855
 21
99.759158
  0
LINE
  5
86
100
AcDbEntity
  8
M0
 62
   234
100
AcDbLine
 10
217.531855
 20
57.759158
 11
217.531855
 21
143.866862
  0
LINE
  5
87
100
AcDbEntity
  8
M0
 62
   234
100
AcDbLine
 10
220.331855
 20
57.759158
 11
161.531855
 21
57.759158
  0
LINE
  5
88
100
AcDbEntity
  8
M0
 62
   234
100
AcDbLine
 10
161.531855
 20
71.759158
 11
220.331855
 21
71.759158
  0
LINE
  5
89
100
AcDbEntity
  8
M0
 62
   234
100
AcDbLine
 10
161.531855
 20
85.759158
 11
217.531855
 21
85.759158
  0
LINE
  5
8A
100
AcDbEntity
  8
M0
 62
   234
100
AcDbLine
 10
175.531855
 20
147.292342
 11
175.531855
 21
57.759158
  0
LINE
  5
8B
100
AcDbEntity
  8
M0
 62
   234
100
AcDbLine
 10
161.531855
 20
148.759158
 11
161.531855
 21
57.759158
  0
LINE
  5
8C
100
AcDbEntity
  8
M0
 62
   234
100
AcDbLine
 10
161.531855
 20
85.759158
 11
220.331855
 21
85.759158
  0
LINE
  5
8D
100
AcDbEntity
  8
M0
 62
   234
100
AcDbLine
 10
161.531855
 20
127.759158
 11
220.331855
 21
127.759158
  0
LINE
  5
8E
100
AcDbEntity
  8
M0
 62
   234
100
AcDbLine
 10
161.531855
 20
141.759158
 11
221.54529
 21
141.759158
  0
LINE
  5
8F
100
AcDbEntity
  8
M0
 62
   234
100
AcDbLine
 10
203.531855
 20
143.866862
 11
203.531855
 21
57.759158
  0
LINE
  5
90
100
AcDbEntity
  8
M0
 62
   234
100
AcDbLine
 10
189.531855
 20
143.866862
 11
189.531855
 21
57.759158
  0
LINE
  5
91
100
AcDbEntity
  8
M0
  6
DASHED
 62
     2
100
AcDbLine
 10
41.531855
 20
124.959158
 11
74.738768
 21
124.959158
  0
LINE
  5
92
100
AcDbEntity
  8
M0
  6
DASHED
 62
     2
100
AcDbLine
 10
161.531855
 20
140.359158
 11
177.347187
 21
140.359158
  0
LINE
  5
93
100
AcDbEntity
  8
M0
100
AcDbLine
 10
59.979765
 20
282.511416
 11
29.979765
 21
282.511416
  0
LINE
  5
94
100
AcDbEntity
  8
M0
100
AcDbLine
 10
59.979765
 20
272.511416
 11
59.979765
 21
282.511416
  0
LINE
  5
95
100
AcDbEntity
  8
M0
100
AcDbLine
 10
29.979765
 20
272.511416
 11
59.979765
 21
272.511416
  0
LINE
  5
96
100
AcDbEntity
  8
M0
100
AcDbLine
 10
29.979765
 20
282.511416
 11
29.979765
 21
272.511416
  0
TEXT
  5
97
100
AcDbEntity
  8
M0
100
AcDbText
 10
32.406432
 20
274.011416
 40
7.0
  1
揚水性能
 41
0.780952
  7
STANDARD
100
AcDbText
  0
TEXT
  5
98
100
AcDbEntity
  8
M0
100
AcDbText
 10
160.372448
 20
177.274183
 40
3.6
  1
０
 41
0.601852
  7
STANDARD
100
AcDbText
  0
TEXT
  5
99
100
AcDbEntity
  8
M0
100
AcDbText
 10
173.390038
 20
177.274183
 40
3.6
  1
１０
 41
0.601852
  7
STANDARD
100
AcDbText
  0
TEXT
  5
9A
100
AcDbEntity
  8
M0
100
AcDbText
 10
187.390038
 20
177.274183
 40
3.6
  1
２０
 41
0.601852
  7
STANDARD
100
AcDbText
  0
TEXT
  5
9B
100
AcDbEntity
  8
M0
100
AcDbText
 10
201.390038
 20
177.274183
 40
3.6
  1
３０
 41
0.601852
  7
STANDARD
100
AcDbText
  0
TEXT
  5
9C
100
AcDbEntity
  8
M0
100
AcDbText
 10
215.390032
 20
177.274183
 40
3.6
  1
４０
 41
0.601852
  7
STANDARD
100
AcDbText
  0
TEXT
  5
9D
100
AcDbEntity
  8
M0
100
AcDbText
 10
229.390032
 20
177.274183
 40
3.6
  1
５０
 41
0.601852
  7
STANDARD
100
AcDbText
  0
TEXT
  5
9E
100
AcDbEntity
  8
M0
100
AcDbText
 10
243.390032
 20
177.274183
 40
3.6
  1
６０
 41
0.601852
  7
STANDARD
100
AcDbText
  0
TEXT
  5
9F
100
AcDbEntity
  8
M0
100
AcDbText
 10
189.683707
 20
172.773725
 40
3.6
  1
揚水量（Ｌ／分）
 41
0.63786
  7
STANDARD
100
AcDbText
  0
TEXT
  5
A0
100
AcDbEntity
  8
M0
100
AcDbText
 10
158.256579
 20
179.874183
 40
3.6
  1
０
 41
0.601852
  7
STANDARD
100
AcDbText
  0
TEXT
  5
A1
100
AcDbEntity
  8
M0
100
AcDbText
 10
155.907836
 20
194.238239
 40
3.6
  1
１０
 41
0.601852
  7
STANDARD
100
AcDbText
  0
TEXT
  5
A2
100
AcDbEntity
  8
M0
100
AcDbText
 10
155.907836
 20
208.238245
 40
3.6
  1
２０
 41
0.601852
  7
STANDARD
100
AcDbText
  0
TEXT
  5
A3
100
AcDbEntity
  8
M0
100
AcDbText
 10
155.907836
 20
222.238245
 40
3.6
  1
３０
 41
0.601852
  7
STANDARD
100
AcDbText
  0
TEXT
  5
A4
100
AcDbEntity
  8
M0
100
AcDbText
 10
155.806286
 20
236.150147
 40
3.6
  1
４０
 41
0.601852
  7
STANDARD
100
AcDbText
  0
TEXT
  5
A5
100
AcDbEntity
  8
M0
100
AcDbText
 10
155.806286
 20
250.150147
 40
3.6
  1
５０
 41
0.601852
  7
STANDARD
100
AcDbText
  0
TEXT
  5
A6
100
AcDbEntity
  8
M0
100
AcDbText
 10
153.319319
 20
202.738726
 40
3.6
  1
（　）
 50
90.000003
 41
0.63786
  7
STANDARD
100
AcDbText
  0
TEXT
  5
A7
100
AcDbEntity
  8
M0
100
AcDbText
 10
150.050899
 20
220.347262
 40
3.6
  1
全
 41
0.833333
  7
STANDARD
100
AcDbText
  0
TEXT
  5
A8
100
AcDbEntity
  8
M0
100
AcDbText
 10
150.050899
 20
216.591707
 40
3.6
  1
揚
 41
0.833333
  7
STANDARD
100
AcDbText
  0
TEXT
  5
A9
100
AcDbEntity
  8
M0
100
AcDbText
 10
150.050899
 20
212.836151
 40
3.6
  1
程
 41
0.833333
  7
STANDARD
100
AcDbText
  0
TEXT
  5
AA
100
AcDbEntity
  8
M0
100
AcDbText
 10
150.050899
 20
209.080596
 40
3.6
  1
　
 41
0.833333
  7
STANDARD
100
AcDbText
  0
TEXT
  5
AB
100
AcDbEntity
  8
M0
100
AcDbText
 10
150.050899
 20
205.32504
 40
3.6
  1
ｍ
 41
0.833333
  7
STANDARD
100
AcDbText
  0
TEXT
  5
AC
100
AcDbEntity
  8
M0
100
AcDbText
 10
33.319319
 20
78.550621
 40
3.6
  1
（　）
 50
90.000003
 41
0.63786
  7
STANDARD
100
AcDbText
  0
TEXT
  5
AD
100
AcDbEntity
  8
M0
100
AcDbText
 10
30.050899
 20
110.159158
 40
3.6
  1
全
 41
0.833333
  7
STANDARD
100
AcDbText
  0
TEXT
  5
AE
100
AcDbEntity
  8
M0
100
AcDbText
 10
30.050899
 20
106.403602
 40
3.6
  1
揚
 41
0.833333
  7
STANDARD
100
AcDbText
  0
TEXT
  5
AF
100
AcDbEntity
  8
M0
100
AcDbText
 10
30.050899
 20
102.648047
 40
3.6
  1
程
 41
0.833333
  7
STANDARD
100
AcDbText
  0
TEXT
  5
B0
100
AcDbEntity
  8
M0
100
AcDbText
 10
30.050899
 20
98.892492
 40
3.6
  1
　
 41
0.833333
  7
STANDARD
100
AcDbText
  0
TEXT
  5
B1
100
AcDbEntity
  8
M0
100
AcDbText
 10
30.050899
 20
95.136936
 40
3.6
  1
ｍ
 41
0.833333
  7
STANDARD
100
AcDbText
  0
LINE
  5
B2
100
AcDbEntity
  8
M0
  6
DASHED
 62
     1
100
AcDbLine
 10
161.531855
 20
246.347262
 11
215.254005
 21
246.347262
  0
LINE
  5
B3
100
AcDbEntity
  8
M0
  6
DASHED
 62
     2
100
AcDbLine
 10
161.531855
 20
232.347262
 11
230.131855
 21
232.347262
  0
TEXT
  5
B4
100
AcDbEntity
  8
M0
100
AcDbText
 10
38.256579
 20
55.686079
 40
3.6
  1
０
 41
0.601852
  7
STANDARD
100
AcDbText
  0
TEXT
  5
B5
100
AcDbEntity
  8
M0
100
AcDbText
 10
35.907836
 20
70.050135
 40
3.6
  1
１０
 41
0.601852
  7
STANDARD
100
AcDbText
  0
TEXT
  5
B6
100
AcDbEntity
  8
M0
100
AcDbText
 10
35.907836
 20
84.050141
 40
3.6
  1
２０
 41
0.601852
  7
STANDARD
100
AcDbText
  0
TEXT
  5
B7
100
AcDbEntity
  8
M0
100
AcDbText
 10
35.907836
 20
98.050141
 40
3.6
  1
３０
 41
0.601852
  7
STANDARD
100
AcDbText
  0
TEXT
  5
B8
100
AcDbEntity
  8
M0
100
AcDbText
 10
35.806286
 20
111.962043
 40
3.6
  1
４０
 41
0.601852
  7
STANDARD
100
AcDbText
  0
TEXT
  5
B9
100
AcDbEntity
  8
M0
100
AcDbText
 10
35.806286
 20
125.962043
 40
3.6
  1
５０
 41
0.601852
  7
STANDARD
100
AcDbText
  0
TEXT
  5
BA
100
AcDbEntity
  8
M0
100
AcDbText
 10
35.806286
 20
139.962043
 40
3.6
  1
６０
 41
0.601852
  7
STANDARD
100
AcDbText
  0
TEXT
  5
BB
100
AcDbEntity
  8
M0
100
AcDbText
 10
159.864471
 20
158.333045
 40
3.528
  1
吸上高さ３５ｍ
 41
0.777778
  7
STANDARD
100
AcDbText
  0
TEXT
  5
BC
100
AcDbEntity
  8
M0
100
AcDbText
 10
156.437273
 20
163.268214
 40
3.528
  1
【浅井戸ジェットＪ７５－３５Ｘ組合わせ時】
 41
0.777778
  7
STANDARD
100
AcDbText
  0
TEXT
  5
BD
100
AcDbEntity
  8
M0
100
AcDbText
 10
43.291672
 20
158.333045
 40
3.528
  1
吸上高さ２４ｍ
 41
0.777778
  7
STANDARD
100
AcDbText
  0
TEXT
  5
BE
100
AcDbEntity
  8
M0
100
AcDbText
 10
39.864469
 20
163.268214
 40
3.528
  1
【浅井戸ジェットＪ７５－２４Ｘ組合わせ時】
 41
0.777778
  7
STANDARD
100
AcDbText
  0
TEXT
  5
BF
100
AcDbEntity
  8
M0
100
AcDbText
 10
163.291674
 20
260.921143
 40
3.528
  1
吸上高さ１２ｍ
 41
0.777778
  7
STANDARD
100
AcDbText
  0
TEXT
  5
C0
100
AcDbEntity
  8
M0
100
AcDbText
 10
159.864465
 20
265.856312
 40
3.528
  1
【標準ジェットＪ７５－７Ｙ組合わせ時】
 41
0.777778
  7
STANDARD
100
AcDbText
  0
TEXT
  5
C1
100
AcDbEntity
  8
M0
100
AcDbText
 10
40.372448
 20
177.274183
 40
3.6
  1
０
 41
0.601852
  7
STANDARD
100
AcDbText
  0
TEXT
  5
C2
100
AcDbEntity
  8
M0
100
AcDbText
 10
53.390038
 20
177.274183
 40
3.6
  1
１０
 41
0.601852
  7
STANDARD
100
AcDbText
  0
TEXT
  5
C3
100
AcDbEntity
  8
M0
100
AcDbText
 10
67.390038
 20
177.274183
 40
3.6
  1
２０
 41
0.601852
  7
STANDARD
100
AcDbText
  0
TEXT
  5
C4
100
AcDbEntity
  8
M0
100
AcDbText
 10
81.390038
 20
177.274183
 40
3.6
  1
３０
 41
0.601852
  7
STANDARD
100
AcDbText
  0
TEXT
  5
C5
100
AcDbEntity
  8
M0
100
AcDbText
 10
95.390032
 20
177.274183
 40
3.6
  1
４０
 41
0.601852
  7
STANDARD
100
AcDbText
  0
TEXT
  5
C6
100
AcDbEntity
  8
M0
100
AcDbText
 10
109.390032
 20
177.274183
 40
3.6
  1
５０
 41
0.601852
  7
STANDARD
100
AcDbText
  0
TEXT
  5
C7
100
AcDbEntity
  8
M0
100
AcDbText
 10
123.390032
 20
177.274183
 40
3.6
  1
６０
 41
0.601852
  7
STANDARD
100
AcDbText
  0
TEXT
  5
C8
100
AcDbEntity
  8
M0
100
AcDbText
 10
137.390026
 20
177.274183
 40
3.6
  1
７０
 41
0.601852
  7
STANDARD
100
AcDbText
  0
TEXT
  5
C9
100
AcDbEntity
  8
M0
100
AcDbText
 10
69.683707
 20
172.773725
 40
3.6
  1
揚水量（Ｌ／分）
 41
0.63786
  7
STANDARD
100
AcDbText
  0
LINE
  5
CA
100
AcDbEntity
  8
M0
  6
DASHED
 62
     1
100
AcDbLine
 10
41.531855
 20
239.347262
 11
79.268842
 21
239.347262
  0
LINE
  5
CB
100
AcDbEntity
  8
M0
  6
DASHED
 62
     1
100
AcDbLine
 10
231.531855
 20
198.747262
 11
231.531855
 21
232.87766
  0
LINE
  5
CC
100
AcDbEntity
  8
M0
  6
DASHED
 62
     2
100
AcDbLine
 10
41.531855
 20
225.347262
 11
106.37898
 21
225.347262
  0
LINE
  5
CD
100
AcDbEntity
  8
M0
 62
   234
100
AcDbLine
 10
41.531855
 20
251.947262
 11
41.531855
 21
181.947262
  0
LINE
  5
CE
100
AcDbEntity
  8
M0
 62
   234
100
AcDbLine
 10
142.331855
 20
181.947262
 11
41.531855
 21
181.947262
  0
LINE
  5
CF
100
AcDbEntity
  8
M0
 62
   234
100
AcDbLine
 10
55.531855
 20
245.120396
 11
55.531855
 21
181.947262
  0
LINE
  5
D0
100
AcDbEntity
  8
M0
 62
   234
100
AcDbLine
 10
69.531855
 20
243.670548
 11
69.531855
 21
181.947262
  0
LINE
  5
D1
100
AcDbEntity
  8
M0
 62
   234
100
AcDbLine
 10
41.531855
 20
195.947262
 11
142.331855
 21
195.947262
  0
LINE
  5
D2
100
AcDbEntity
  8
M0
 62
   234
100
AcDbLine
 10
41.531855
 20
209.947262
 11
94.107681
 21
209.947262
  0
LINE
  5
D3
100
AcDbEntity
  8
M0
 62
   234
100
AcDbLine
 10
41.531855
 20
223.947262
 11
141.675404
 21
223.947262
  0
LINE
  5
D4
100
AcDbEntity
  8
M0
 62
   234
100
AcDbLine
 10
83.531855
 20
239.470548
 11
83.531855
 21
181.947262
  0
LINE
  5
D5
100
AcDbEntity
  8
M0
 62
   234
100
AcDbLine
 10
41.531855
 20
209.947262
 11
142.331855
 21
209.947262
  0
LINE
  5
D6
100
AcDbEntity
  8
M0
 62
   234
100
AcDbLine
 10
97.531855
 20
181.947262
 11
97.531855
 21
241.275748
  0
LINE
  5
D7
100
AcDbEntity
  8
M0
 62
   234
100
AcDbLine
 10
41.531855
 20
237.947262
 11
139.531855
 21
237.947262
  0
LINE
  5
D8
100
AcDbEntity
  8
M0
 62
   234
100
AcDbLine
 10
111.531855
 20
181.947262
 11
111.531855
 21
241.275748
  0
LINE
  5
D9
100
AcDbEntity
  8
M0
 62
   234
100
AcDbLine
 10
125.531855
 20
181.947262
 11
125.531855
 21
241.275748
  0
LINE
  5
DA
100
AcDbEntity
  8
M0
 62
   234
100
AcDbLine
 10
139.531855
 20
181.947262
 11
139.531855
 21
241.275748
  0
LINE
  5
DB
100
AcDbEntity
  8
M0
 62
   234
100
AcDbLine
 10
41.531855
 20
251.947262
 11
46.181188
 21
251.947262
  0
TEXT
  5
DC
100
AcDbEntity
  8
M0
100
AcDbText
 10
38.256579
 20
179.874183
 40
3.6
  1
０
 41
0.601852
  7
STANDARD
100
AcDbText
  0
TEXT
  5
DD
100
AcDbEntity
  8
M0
100
AcDbText
 10
35.907836
 20
194.238239
 40
3.6
  1
１０
 41
0.601852
  7
STANDARD
100
AcDbText
  0
TEXT
  5
DE
100
AcDbEntity
  8
M0
100
AcDbText
 10
35.907836
 20
208.238245
 40
3.6
  1
２０
 41
0.601852
  7
STANDARD
100
AcDbText
  0
TEXT
  5
DF
100
AcDbEntity
  8
M0
100
AcDbText
 10
35.907836
 20
222.238245
 40
3.6
  1
３０
 41
0.601852
  7
STANDARD
100
AcDbText
  0
TEXT
  5
E0
100
AcDbEntity
  8
M0
100
AcDbText
 10
35.806286
 20
236.150147
 40
3.6
  1
４０
 41
0.601852
  7
STANDARD
100
AcDbText
  0
TEXT
  5
E1
100
AcDbEntity
  8
M0
100
AcDbText
 10
35.806286
 20
250.150147
 40
3.6
  1
５０
 41
0.601852
  7
STANDARD
100
AcDbText
  0
TEXT
  5
E2
100
AcDbEntity
  8
M0
100
AcDbText
 10
33.319319
 20
202.738726
 40
3.6
  1
（　）
 50
90.000003
 41
0.63786
  7
STANDARD
100
AcDbText
  0
TEXT
  5
E3
100
AcDbEntity
  8
M0
100
AcDbText
 10
30.050899
 20
220.347262
 40
3.6
  1
全
 41
0.833333
  7
STANDARD
100
AcDbText
  0
TEXT
  5
E4
100
AcDbEntity
  8
M0
100
AcDbText
 10
30.050899
 20
216.591707
 40
3.6
  1
揚
 41
0.833333
  7
STANDARD
100
AcDbText
  0
TEXT
  5
E5
100
AcDbEntity
  8
M0
100
AcDbText
 10
30.050899
 20
212.836151
 40
3.6
  1
程
 41
0.833333
  7
STANDARD
100
AcDbText
  0
TEXT
  5
E6
100
AcDbEntity
  8
M0
100
AcDbText
 10
30.050899
 20
209.080596
 40
3.6
  1
　
 41
0.833333
  7
STANDARD
100
AcDbText
  0
TEXT
  5
E7
100
AcDbEntity
  8
M0
100
AcDbText
 10
30.050899
 20
205.32504
 40
3.6
  1
ｍ
 41
0.833333
  7
STANDARD
100
AcDbText
  0
LINE
  5
E8
100
AcDbEntity
  8
M0
 62
   234
100
AcDbLine
 10
281.531855
 20
113.759158
 11
342.240854
 21
113.759158
  0
LINE
  5
E9
100
AcDbEntity
  8
M0
 62
   234
100
AcDbLine
 10
309.531855
 20
130.559158
 11
309.531855
 21
57.759158
  0
LINE
  5
EA
100
AcDbEntity
  8
M0
 62
   234
100
AcDbLine
 10
281.531855
 20
99.759158
 11
342.240854
 21
99.759158
  0
LINE
  5
EB
100
AcDbEntity
  8
M0
 62
   234
100
AcDbLine
 10
337.531855
 20
57.759158
 11
337.531855
 21
130.559158
  0
LINE
  5
EC
100
AcDbEntity
  8
M0
 62
   234
100
AcDbLine
 10
342.240854
 20
57.759158
 11
281.531855
 21
57.759158
  0
LINE
  5
ED
100
AcDbEntity
  8
M0
 62
   234
100
AcDbLine
 10
281.531855
 20
71.759158
 11
342.240854
 21
71.759158
  0
LINE
  5
EE
100
AcDbEntity
  8
M0
 62
   234
100
AcDbLine
 10
281.531855
 20
85.759158
 11
342.240854
 21
85.759158
  0
LINE
  5
EF
100
AcDbEntity
  8
M0
 62
   234
100
AcDbLine
 10
295.531855
 20
139.015021
 11
295.531855
 21
57.759158
  0
LINE
  5
F0
100
AcDbEntity
  8
M0
 62
   234
100
AcDbLine
 10
281.531855
 20
144.559158
 11
281.531855
 21
57.759158
  0
LINE
  5
F1
100
AcDbEntity
  8
M0
 62
   234
100
AcDbLine
 10
281.531855
 20
85.759158
 11
334.107681
 21
85.759158
  0
LINE
  5
F2
100
AcDbEntity
  8
M0
 62
   234
100
AcDbLine
 10
281.531855
 20
127.759158
 11
342.240854
 21
127.759158
  0
LINE
  5
F3
100
AcDbEntity
  8
M0
 62
   234
100
AcDbLine
 10
281.531855
 20
141.759158
 11
293.455688
 21
141.759158
  0
LINE
  5
F4
100
AcDbEntity
  8
M0
 62
   234
100
AcDbLine
 10
323.531855
 20
130.559158
 11
323.531855
 21
57.759158
  0
LINE
  5
F5
100
AcDbEntity
  8
M0
  6
DASHED
 62
     2
100
AcDbLine
 10
281.531855
 20
124.959158
 11
290.655204
 21
124.959158
  0
TEXT
  5
F6
100
AcDbEntity
  8
M0
100
AcDbText
 10
309.683707
 20
48.585621
 40
3.6
  1
揚水量（Ｌ／分）
 41
0.63786
  7
STANDARD
100
AcDbText
  0
TEXT
  5
F7
100
AcDbEntity
  8
M0
100
AcDbText
 10
280.372448
 20
53.086079
 40
3.6
  1
０
 41
0.601852
  7
STANDARD
100
AcDbText
  0
TEXT
  5
F8
100
AcDbEntity
  8
M0
100
AcDbText
 10
293.390035
 20
53.086079
 40
3.6
  1
１０
 41
0.601852
  7
STANDARD
100
AcDbText
  0
TEXT
  5
F9
100
AcDbEntity
  8
M0
100
AcDbText
 10
307.390038
 20
53.086079
 40
3.6
  1
２０
 41
0.601852
  7
STANDARD
100
AcDbText
  0
TEXT
  5
FA
100
AcDbEntity
  8
M0
100
AcDbText
 10
321.390035
 20
53.086079
 40
3.6
  1
３０
 41
0.601852
  7
STANDARD
100
AcDbText
  0
TEXT
  5
FB
100
AcDbEntity
  8
M0
100
AcDbText
 10
335.390032
 20
53.086079
 40
3.6
  1
４０
 41
0.601852
  7
STANDARD
100
AcDbText
  0
TEXT
  5
FC
100
AcDbEntity
  8
M0
100
AcDbText
 10
278.256579
 20
55.686079
 40
3.6
  1
０
 41
0.601852
  7
STANDARD
100
AcDbText
  0
TEXT
  5
FD
100
AcDbEntity
  8
M0
100
AcDbText
 10
275.907836
 20
70.050135
 40
3.6
  1
１０
 41
0.601852
  7
STANDARD
100
AcDbText
  0
TEXT
  5
FE
100
AcDbEntity
  8
M0
100
AcDbText
 10
275.907836
 20
84.050141
 40
3.6
  1
２０
 41
0.601852
  7
STANDARD
100
AcDbText
  0
TEXT
  5
FF
100
AcDbEntity
  8
M0
100
AcDbText
 10
275.907836
 20
98.050141
 40
3.6
  1
３０
 41
0.601852
  7
STANDARD
100
AcDbText
  0
TEXT
  5
100
100
AcDbEntity
  8
M0
100
AcDbText
 10
275.806286
 20
111.962043
 40
3.6
  1
４０
 41
0.601852
  7
STANDARD
100
AcDbText
  0
TEXT
  5
101
100
AcDbEntity
  8
M0
100
AcDbText
 10
275.806286
 20
125.962043
 40
3.6
  1
５０
 41
0.601852
  7
STANDARD
100
AcDbText
  0
TEXT
  5
102
100
AcDbEntity
  8
M0
100
AcDbText
 10
275.806286
 20
139.962043
 40
3.6
  1
６０
 41
0.601852
  7
STANDARD
100
AcDbText
  0
TEXT
  5
103
100
AcDbEntity
  8
M0
100
AcDbText
 10
273.319319
 20
78.550621
 40
3.6
  1
（　）
 50
90.000003
 41
0.63786
  7
STANDARD
100
AcDbText
  0
TEXT
  5
104
100
AcDbEntity
  8
M0
100
AcDbText
 10
270.050899
 20
96.159158
 40
3.6
  1
全
 41
0.833333
  7
STANDARD
100
AcDbText
  0
TEXT
  5
105
100
AcDbEntity
  8
M0
100
AcDbText
 10
270.050899
 20
92.403602
 40
3.6
  1
揚
 41
0.833333
  7
STANDARD
100
AcDbText
  0
TEXT
  5
106
100
AcDbEntity
  8
M0
100
AcDbText
 10
270.050899
 20
88.648047
 40
3.6
  1
程
 41
0.833333
  7
STANDARD
100
AcDbText
  0
TEXT
  5
107
100
AcDbEntity
  8
M0
100
AcDbText
 10
270.050899
 20
84.892492
 40
3.6
  1
　
 41
0.833333
  7
STANDARD
100
AcDbText
  0
TEXT
  5
108
100
AcDbEntity
  8
M0
100
AcDbText
 10
270.050899
 20
81.136936
 40
3.6
  1
ｍ
 41
0.833333
  7
STANDARD
100
AcDbText
  0
ARC
  5
109
100
AcDbEntity
  8
M0
100
AcDbCircle
 10
290.655204
 20
122.334158
 40
2.625
100
AcDbArc
 50
8.130102
 51
90.0
  0
LINE
  5
10A
100
AcDbEntity
  8
M0
100
AcDbLine
 10
293.253822
 20
122.705389
 11
295.514266
 21
106.882276
  0
LINE
  5
10B
100
AcDbEntity
  8
M0
100
AcDbLine
 10
295.531855
 20
106.634789
 11
295.531855
 21
91.359158
  0
ARC
  5
10C
100
AcDbEntity
  8
M0
100
AcDbCircle
 10
292.517641
 20
117.959158
 40
1.4
100
AcDbArc
 50
8.130102
 51
90.0
  0
TEXT
  5
10D
100
AcDbEntity
  8
M0
100
AcDbText
 10
41.685187
 20
25.246111
 40
3.456
  1
※破線部域では運転圧力「標準」「低」時に６０ｋＰａ、「高」時に１４０ｋＰａの圧力変動があります。
 50
-1.001791E-005
 41
0.652006
  7
STANDARD
100
AcDbText
  0
TEXT
  5
10E
100
AcDbEntity
  8
M0
100
AcDbText
 10
279.864464
 20
163.268214
 40
3.528
  1
【深井戸用特殊ジェットＪ４０－２４ＳＸ組合わせ時】
 41
0.777778
  7
STANDARD
100
AcDbText
  0
TEXT
  5
10F
100
AcDbEntity
  8
M0
100
AcDbText
 10
283.291673
 20
158.333045
 40
3.528
  1
吸上高さ２４ｍ
 41
0.777778
  7
STANDARD
100
AcDbText
  0
TEXT
  5
110
100
AcDbEntity
  8
M0
100
AcDbText
 10
69.683707
 20
48.585621
 40
3.6
  1
揚水量（Ｌ／分）
 41
0.63786
  7
STANDARD
100
AcDbText
  0
LINE
  5
111
100
AcDbEntity
  8
M0
100
AcDbLine
 10
228.27004
 20
238.244143
 11
216.011066
 21
246.124912
  0
LINE
  5
112
100
AcDbEntity
  8
M0
100
AcDbLine
 10
228.977379
 20
237.456213
 11
231.384053
 21
232.642866
  0
ARC
  5
113
100
AcDbEntity
  8
M0
100
AcDbCircle
 10
227.188525
 20
236.561786
 40
2.0
100
AcDbArc
 50
26.565051
 51
57.264774
  0
ARC
  5
114
100
AcDbEntity
  8
M0
100
AcDbCircle
 10
215.254005
 20
244.947262
 40
1.4
100
AcDbArc
 50
57.264774
 51
90.0
  0
TEXT
  5
115
100
AcDbEntity
  8
M0
100
AcDbText
 10
160.372448
 20
53.086079
 40
3.6
  1
０
 41
0.601852
  7
STANDARD
100
AcDbText
  0
TEXT
  5
116
100
AcDbEntity
  8
M0
100
AcDbText
 10
173.390035
 20
53.086079
 40
3.6
  1
１０
 41
0.601852
  7
STANDARD
100
AcDbText
  0
TEXT
  5
117
100
AcDbEntity
  8
M0
100
AcDbText
 10
187.390038
 20
53.086079
 40
3.6
  1
２０
 41
0.601852
  7
STANDARD
100
AcDbText
  0
TEXT
  5
118
100
AcDbEntity
  8
M0
100
AcDbText
 10
201.390035
 20
53.086079
 40
3.6
  1
３０
 41
0.601852
  7
STANDARD
100
AcDbText
  0
TEXT
  5
119
100
AcDbEntity
  8
M0
100
AcDbText
 10
215.390032
 20
53.086079
 40
3.6
  1
４０
 41
0.601852
  7
STANDARD
100
AcDbText
  0
TEXT
  5
11A
100
AcDbEntity
  8
M0
100
AcDbText
 10
158.256579
 20
55.686079
 40
3.6
  1
０
 41
0.601852
  7
STANDARD
100
AcDbText
  0
TEXT
  5
11B
100
AcDbEntity
  8
M0
100
AcDbText
 10
155.907836
 20
70.050135
 40
3.6
  1
１０
 41
0.601852
  7
STANDARD
100
AcDbText
  0
TEXT
  5
11C
100
AcDbEntity
  8
M0
100
AcDbText
 10
155.907836
 20
84.050141
 40
3.6
  1
２０
 41
0.601852
  7
STANDARD
100
AcDbText
  0
TEXT
  5
11D
100
AcDbEntity
  8
M0
100
AcDbText
 10
155.907836
 20
98.050141
 40
3.6
  1
３０
 41
0.601852
  7
STANDARD
100
AcDbText
  0
TEXT
  5
11E
100
AcDbEntity
  8
M0
100
AcDbText
 10
155.806286
 20
111.962043
 40
3.6
  1
４０
 41
0.601852
  7
STANDARD
100
AcDbText
  0
TEXT
  5
11F
100
AcDbEntity
  8
M0
100
AcDbText
 10
155.806286
 20
125.962043
 40
3.6
  1
５０
 41
0.601852
  7
STANDARD
100
AcDbText
  0
TEXT
  5
120
100
AcDbEntity
  8
M0
100
AcDbText
 10
155.806286
 20
139.962043
 40
3.6
  1
６０
 41
0.601852
  7
STANDARD
100
AcDbText
  0
TEXT
  5
121
100
AcDbEntity
  8
M0
100
AcDbText
 10
189.683707
 20
48.585621
 40
3.6
  1
揚水量（Ｌ／分）
 41
0.63786
  7
STANDARD
100
AcDbText
  0
TEXT
  5
122
100
AcDbEntity
  8
M0
100
AcDbText
 10
153.319319
 20
78.550621
 40
3.6
  1
（　）
 50
90.000003
 41
0.63786
  7
STANDARD
100
AcDbText
  0
TEXT
  5
123
100
AcDbEntity
  8
M0
100
AcDbText
 10
150.050899
 20
96.159158
 40
3.6
  1
全
 41
0.833333
  7
STANDARD
100
AcDbText
  0
TEXT
  5
124
100
AcDbEntity
  8
M0
100
AcDbText
 10
150.050899
 20
92.403602
 40
3.6
  1
揚
 41
0.833333
  7
STANDARD
100
AcDbText
  0
TEXT
  5
125
100
AcDbEntity
  8
M0
100
AcDbText
 10
150.050899
 20
88.648047
 40
3.6
  1
程
 41
0.833333
  7
STANDARD
100
AcDbText
  0
TEXT
  5
126
100
AcDbEntity
  8
M0
100
AcDbText
 10
150.050899
 20
84.892492
 40
3.6
  1
　
 41
0.833333
  7
STANDARD
100
AcDbText
  0
TEXT
  5
127
100
AcDbEntity
  8
M0
100
AcDbText
 10
150.050899
 20
81.136936
 40
3.6
  1
ｍ
 41
0.833333
  7
STANDARD
100
AcDbText
  0
LINE
  5
128
100
AcDbEntity
  8
M0
 62
     7
100
AcDbLine
 10
231.531855
 20
198.747262
 11
231.531855
 21
232.016767
  0
LINE
  5
129
100
AcDbEntity
  8
M0
 62
     7
100
AcDbLine
 10
76.531855
 20
121.98681
 11
76.531855
 21
91.359158
  0
LINE
  5
12A
100
AcDbEntity
  8
M0
 62
     7
100
AcDbLine
 10
179.731855
 20
106.759158
 11
179.731855
 21
136.580805
  0
LINE
  5
12B
100
AcDbEntity
  8
M0
 62
     7
100
AcDbLine
 10
122.731855
 20
205.256169
 11
122.731855
 21
191.747262
  0
LINE
  5
12C
100
AcDbEntity
  8
M0
  6
DASHED
 62
     7
100
AcDbLine
 10
230.131855
 20
226.747262
 11
161.531855
 21
226.747262
  0
LINE
  5
12D
100
AcDbEntity
  8
M0
  6
DASHED
 62
     7
100
AcDbLine
 10
41.531855
 20
219.747262
 11
110.85898
 21
219.747262
  0
LINE
  5
12E
100
AcDbEntity
  8
M0
  6
DASHED
 62
     7
100
AcDbLine
 10
75.131855
 20
119.359158
 11
41.531855
 21
119.359158
  0
ARC
  5
12F
100
AcDbEntity
  8
M0
 62
     7
100
AcDbCircle
 10
75.131855
 20
117.959158
 40
1.4
100
AcDbArc
 50
0.0
 51
90.0
  0
LINE
  5
130
100
AcDbEntity
  8
M0
  6
DASHED
 62
     7
100
AcDbLine
 10
178.331855
 20
134.759158
 11
161.531855
 21
134.759158
  0
ARC
  5
131
100
AcDbEntity
  8
M0
 62
     7
100
AcDbCircle
 10
178.331855
 20
133.359158
 40
1.4
100
AcDbArc
 50
0.0
 51
90.0
  0
LINE
  5
132
100
AcDbEntity
  8
M0
  6
DASHED
 62
     7
100
AcDbLine
 10
292.517641
 20
119.359158
 11
281.531855
 21
119.359158
  0
LINE
  5
133
100
AcDbEntity
  8
M0
 62
     7
100
AcDbLine
 10
122.425071
 20
206.130742
 11
111.709559
 21
219.525131
  0
ARC
  5
134
100
AcDbEntity
  8
M0
 62
     7
100
AcDbCircle
 10
110.85898
 20
218.347262
 40
1.4
100
AcDbArc
 50
38.659808
 51
90.0
  0
ARC
  5
135
100
AcDbEntity
  8
M0
 62
     7
100
AcDbCircle
 10
121.331855
 20
205.256169
 40
1.4
100
AcDbArc
 50
0.0
 51
38.659808
  0
LINE
  5
136
100
AcDbEntity
  8
M0
 62
     7
100
AcDbLine
 10
76.490054
 20
122.32636
 11
76.096967
 21
123.898708
  0
ARC
  5
137
100
AcDbEntity
  8
M0
 62
     7
100
AcDbCircle
 10
74.738768
 20
123.559158
 40
1.4
100
AcDbArc
 50
14.036243
 51
90.0
  0
ARC
  5
138
100
AcDbEntity
  8
M0
 62
     7
100
AcDbCircle
 10
75.131855
 20
121.98681
 40
1.4
100
AcDbArc
 50
0.0
 51
14.036243
  0
LINE
  5
139
100
AcDbEntity
  8
M0
 62
     7
100
AcDbLine
 10
179.625378
 20
137.11634
 11
178.64071
 21
139.494693
  0
ARC
  5
13A
100
AcDbEntity
  8
M0
 62
     7
100
AcDbCircle
 10
177.347187
 20
138.959158
 40
1.4
100
AcDbArc
 50
22.490178
 51
90.0
  0
ARC
  5
13B
100
AcDbEntity
  8
M0
 62
     7
100
AcDbCircle
 10
178.331855
 20
136.580805
 40
1.4
100
AcDbArc
 50
0.0
 51
22.490178
  0
ARC
  5
13C
100
AcDbEntity
  8
M0
 62
     7
100
AcDbCircle
 10
230.131855
 20
232.016767
 40
1.4
100
AcDbArc
 50
0.0
 51
26.565051
  0
ARC
  5
13D
100
AcDbEntity
  8
M0
 62
     7
100
AcDbCircle
 10
230.131855
 20
230.947262
 40
1.4
100
AcDbArc
 50
0.0
 51
90.0
  0
ARC
  5
13E
100
AcDbEntity
  8
M0
 62
     7
100
AcDbCircle
 10
230.131855
 20
225.347262
 40
1.4
100
AcDbArc
 50
0.0
 51
90.0
  0
LINE
  5
13F
100
AcDbEntity
  8
M0
 62
     7
100
AcDbLine
 10
79.87288
 20
239.21025
 11
105.931855
 21
226.747262
  0
LINE
  5
140
100
AcDbEntity
  8
M0
 62
     7
100
AcDbLine
 10
105.931855
 20
226.747262
 11
111.952196
 21
219.221835
  0
ARC
  5
141
100
AcDbEntity
  8
M0
 62
     7
100
AcDbCircle
 10
106.37898
 20
223.947262
 40
1.4
100
AcDbArc
 50
38.659808
 51
90.0
  0
ARC
  5
142
100
AcDbEntity
  8
M0
 62
     7
100
AcDbCircle
 10
79.268842
 20
237.947262
 40
1.4
100
AcDbArc
 50
64.440035
 51
90.0
  0
ENDSEC
  0
SECTION
  2
OBJECTS
  0
DICTIONARY
  5
C
100
AcDbDictionary
  3
ACAD_GROUP
350
D
  3
ACAD_MLINESTYLE
350
E
  0
DICTIONARY
  5
D
102
{ACAD_REACTORS
330
C
102
}
100
AcDbDictionary
  0
DICTIONARY
  5
E
102
{ACAD_REACTORS
330
C
102
}
100
AcDbDictionary
  3
STANDARD
350
13
  0
MLINESTYLE
  5
13
102
{ACAD_REACTORS
330
E
102
}
100
AcDbMlineStyle
  2
STANDARD
 70
     0
  3

 62
     0
 51
90.0
 52
90.0
 71
     2
 49
0.5
 62
   256
  6
BYLAYER
 49
-0.5
 62
   256
  6
BYLAYER
  0
ENDSEC
  0
EOF
