  0
SECTION
  2
HEADER
  9
$ACADVER
  1
AC1012
  9
$INSBASE
 10
0.0
 20
0.0
  9
$VIEWCTR
 10
7.531722
 20
4.5
  9
$VIEWSIZE
 40
9.0
  9
$SNAPMODE
 70
     0
  9
$SNAPUNIT
 10
1.0
 20
1.0
  9
$SNAPBASE
 10
0.0
 20
0.0
  9
$SNAPANG
 50
0.0
  9
$SNAPSTYLE
 70
     0
  9
$SNAPISOPAIR
 70
     0
  9
$GRIDMODE
 70
     0
  9
$GRIDUNIT
 10
0.0
 20
0.0
  9
$ORTHOMODE
 70
     0
  9
$REGENMODE
 70
     1
  9
$FILLMODE
 70
     1
  9
$QTEXTMODE
 70
     0
  9
$DRAGMODE
 70
     2
  9
$LTSCALE
 40
1.0
  9
$OSMODE
 70
     0
  9
$ATTMODE
 70
     1
  9
$TEXTSIZE
 40
0.2
  9
$TRACEWID
 40
0.05
  9
$TEXTSTYLE
  7
STANDARD
  9
$CELTYPE
  6
BYLAYER
  9
$CECOLOR
 62
   256
  9
$DIMSCALE
 40
1.0
  9
$DIMASZ
 40
0.18
  9
$DIMEXO
 40
0.0625
  9
$DIMDLI
 40
0.38
  9
$DIMRND
 40
0.0
  9
$DIMDLE
 40
0.0
  9
$DIMEXE
 40
0.18
  9
$DIMTP
 40
0.0
  9
$DIMTM
 40
0.0
  9
$DIMTXT
 40
0.18
  9
$DIMCEN
 40
0.09
  9
$DIMTSZ
 40
0.0
  9
$DIMTOL
 70
     0
  9
$DIMLIM
 70
     0
  9
$DIMTIH
 70
     1
  9
$DIMTOH
 70
     1
  9
$DIMSE1
 70
     0
  9
$DIMSE2
 70
     0
  9
$DIMTAD
 70
     0
  9
$DIMZIN
 70
     0
  9
$DIMBLK
  1

  9
$LUNITS
 70
     2
  9
$LUPREC
 70
     4
  9
$AXISMODE
 70
     0
  9
$AXISUNIT
 10
0.0
 20
0.0
  9
$SKETCHINC
 40
0.1
  9
$FILLETRAD
 40
0.0
  9
$AUNITS
 70
     0
  9
$AUPREC
 70
     0
  9
$MENU
  1
ACAD
  9
$ELEVATION
 40
0.0
  9
$THICKNESS
 40
0.0
  9
$VIEWDIR
 10
0.0
 20
0.0
 30
1.0
  9
$LIMCHECK
 70
     0
  9
$BLIPMODE
 70
     1
  9
$CHAMFERA
 40
0.0
  9
$CHAMFERB
 40
0.0
  9
$FASTZOOM
 70
     1
  9
$SKPOLY
 70
     0
  9
$TDCREATE
 40
0000000.0000000000
  9
$TDUPDATE
 40
0000000.0000000000
  9
$TDINDWG
 40
0.0000000000
  9
$TDUSRTIMER
 40
0.0000000000
  9
$USRTIMER
 70
     1
  9
$ANGBASE
 50
0.0
  9
$ANGDIR
 70
     0
  9
$PDMODE
 70
     0
  9
$PDSIZE
 40
0.0
  9
$PLINEWID
 40
0.0
  9
$COORDS
 70
     0
  9
$USERI1
 70
     0
  9
$USERI2
 70
     0
  9
$USERI3
 70
     0
  9
$USERI4
 70
     0
  9
$USERI5
 70
     0
  9
$USERR1
 40
0.0
  9
$USERR2
 40
0.0
  9
$USERR3
 40
0.0
  9
$USERR4
 40
0.0
  9
$USERR5
 40
0.0
  9
$CLAYER
  8
M0
  9
$EXTMIN
 10
0.0
 20
0.0
  9
$EXTMAX
 10
420.0
 20
297.0
  9
$LIMMIN
 10
0.0
 20
0.0
  9
$LIMMAX
 10
420.0
 20
297.0
  9
$HANDSEED
  5
158
  0
ENDSEC
  0
SECTION
  2
CLASSES
  0
ENDSEC
  0
SECTION
  2
TABLES
  0
TABLE
  2
VPORT
  5
8
100
AcDbSymbolTable
 70
     2
  0
VPORT
  5
14
100
AcDbSymbolTableRecord
100
AcDbViewportTableRecord
  2
*ACTIVE
 70
     0
 10
0.0
 20
0.0
 11
1.0
 21
1.0
 12
484.0
 22
297.0
 13
0.0
 23
0.0
 14
1.0
 24
1.0
 15
0.0
 25
0.0
 16
0.0
 26
0.0
 36
1.0
 17
0.0
 27
0.0
 37
0.0
 40
594.0
 41
2.0
 42
50.0
 43
0.0
 44
0.0
 50
0.0
 51
0.0
 71
     0
 72
   100
 73
     1
 74
     1
 75
     0
 76
     0
 77
     0
 78
     0
  0
ENDTAB
  0
TABLE
  2
LTYPE
  5
5
100
AcDbSymbolTable
 70
     5
  0
LTYPE
  5
15
100
AcDbSymbolTableRecord
100
AcDbLinetypeTableRecord
  2
BYBLOCK
 70
     0
  3

 72
    65
 73
     0
 40
0.0
  0
LTYPE
  5
16
100
AcDbSymbolTableRecord
100
AcDbLinetypeTableRecord
  2
BYLAYER
 70
     0
  3

 72
    65
 73
     0
 40
0.0
  0
LTYPE
  5
17
100
AcDbSymbolTableRecord
100
AcDbLinetypeTableRecord
  2
CONTINUOUS
 70
    64
  3
Solid line
 72
    65
 73
     0
 40
0.0
  0
LTYPE
  5
18
100
AcDbSymbolTableRecord
100
AcDbLinetypeTableRecord
  2
DASHED
 70
    64
  3
__ __ __ __ __ __ __ __ __ __ __ __ __ __ __ __
 72
    65
 73
     2
 40
0.75
 49
0.5
 74
     0
 49
-0.25
 74
     0
  0
LTYPE
  5
19
100
AcDbSymbolTableRecord
100
AcDbLinetypeTableRecord
  2
DASHDOT
 70
    64
  3
__ . __ . __ . __ . __ . __ . __ . __ . __ . __
 72
    65
 73
     4
 40
1.0
 49
0.5
 74
     0
 49
-0.25
 74
     0
 49
0.0
 74
     0
 49
-0.25
 74
     0
  0
LTYPE
  5
1A
100
AcDbSymbolTableRecord
100
AcDbLinetypeTableRecord
  2
DIVIDE
 70
    64
  3
____ . . ____ . . ____ . . ____ . . ____ . . __
 72
    65
 73
     6
 40
1.25
 49
0.5
 74
     0
 49
-0.25
 74
     0
 49
0.0
 74
     0
 49
-0.25
 74
     0
 49
0.0
 74
     0
 49
-0.25
 74
     0
  0
LTYPE
  5
1B
100
AcDbSymbolTableRecord
100
AcDbLinetypeTableRecord
  2
DOT
 70
    64
  3
. . . . . . . . . . . . . . . . . . . . . . . .
 72
    65
 73
     2
 40
0.25
 49
0.0
 74
     0
 49
-0.25
 74
     0
  0
ENDTAB
  0
TABLE
  2
LAYER
  5
2
100
AcDbSymbolTable
 70
   102
  0
LAYER
  5
F
100
AcDbSymbolTableRecord
100
AcDbLayerTableRecord
  2
0
 70
     0
 62
     7
  6
CONTINUOUS
  0
LAYER
  5
1C
100
AcDbSymbolTableRecord
100
AcDbLayerTableRecord
  2
DEFPOINTS
 70
     0
 62
     7
  6
CONTINUOUS
  0
LAYER
  5
1D
100
AcDbSymbolTableRecord
100
AcDbLayerTableRecord
  2
M0
 70
     0
 62
     3
  6
CONTINUOUS
  0
LAYER
  5
1E
100
AcDbSymbolTableRecord
100
AcDbLayerTableRecord
  2
M67
 70
     0
 62
     7
  6
CONTINUOUS
  0
LAYER
  5
1F
100
AcDbSymbolTableRecord
100
AcDbLayerTableRecord
  2
M73
 70
     0
 62
     3
  6
CONTINUOUS
  0
LAYER
  5
20
100
AcDbSymbolTableRecord
100
AcDbLayerTableRecord
  2
M77
 70
     0
 62
     7
  6
CONTINUOUS
  0
LAYER
  5
21
100
AcDbSymbolTableRecord
100
AcDbLayerTableRecord
  2
M79
 70
     0
 62
     3
  6
CONTINUOUS
  0
LAYER
  5
22
100
AcDbSymbolTableRecord
100
AcDbLayerTableRecord
  2
M80
 70
     0
 62
     7
  6
CONTINUOUS
  0
LAYER
  5
23
100
AcDbSymbolTableRecord
100
AcDbLayerTableRecord
  2
DD0
 70
     0
 62
     4
  6
CONTINUOUS
  0
ENDTAB
  0
TABLE
  2
STYLE
  5
3
100
AcDbSymbolTable
 70
     2
  0
STYLE
  5
10
100
AcDbSymbolTableRecord
100
AcDbTextStyleTableRecord
  2
STANDARD
 70
     0
 40
0.0
 41
1.0
 50
0.0
 71
     0
 42
0.2
  3
txt
  4
BIGFONT
  0
ENDTAB
  0
TABLE
  2
VIEW
  5
6
100
AcDbSymbolTable
 70
     0
  0
ENDTAB
  0
TABLE
  2
UCS
  5
7
100
AcDbSymbolTable
 70
     0
  0
ENDTAB
  0
TABLE
  2
APPID
  5
9
100
AcDbSymbolTable
 70
     1
  0
APPID
  5
11
100
AcDbSymbolTableRecord
100
AcDbRegAppTableRecord
  2
ACAD
 70
     0
  0
ENDTAB
  0
TABLE
  2
DIMSTYLE
  5
A
100
AcDbSymbolTable
 70
     2
  0
DIMSTYLE
105
2A
100
AcDbSymbolTableRecord
100
AcDbDimStyleTableRecord
  2
STANDARD
 70
     0
  3

  4

  5

  6
_OPEN
  7
_OPEN
 40
1.0
 41
3.0
 42
0.0
 43
8.0
 44
1.5
 45
0.0
 46
0.0
 47
0.0
 48
0.0
140
3.5
141
0.09
142
0.0
143
0.03937
144
1.0
145
0.0
146
1.0
147
1.0
 71
     0
 72
     0
 73
     0
 74
     0
 75
     0
 76
     0
 77
     3
 78
     8
170
     0
171
     2
172
     0
173
     1
174
     0
175
     0
176
     0
177
     0
178
     0
270
     2
271
     2
272
     4
273
     2
274
     2
340
10
275
     0
280
     0
281
     0
282
     0
283
     1
284
     0
285
     0
286
     0
287
     3
288
     0
  0
DIMSTYLE
105
2B
100
AcDbSymbolTableRecord
100
AcDbDimStyleTableRecord
  2
LEADSTYL
 70
     0
  3

  4

  5

  6
_OPEN
  7
_OPEN
 40
1.0
 41
3.0
 42
0.0625
 43
0.38
 44
0.18
 45
0.0
 46
0.0
 47
0.0
 48
0.0
140
3.2
141
0.09
142
0.0
143
25.4
144
1.0
145
0.0
146
1.0
147
1.0
 71
     0
 72
     0
 73
     1
 74
     1
 75
     0
 76
     0
 77
     0
 78
     0
170
     0
171
     2
172
     0
173
     1
174
     0
175
     0
176
     0
177
     0
178
     0
270
     2
271
     4
272
     4
273
     2
274
     2
340
10
275
     0
280
     0
281
     0
282
     0
283
     1
284
     0
285
     0
286
     0
287
     3
288
     0
  0
ENDTAB
  0
TABLE
  2
BLOCK_RECORD
  5
1
100
AcDbSymbolTable
 70
     7
  0
BLOCK_RECORD
  5
24
100
AcDbSymbolTableRecord
100
AcDbBlockTableRecord
  2
*MODEL_SPACE
  0
BLOCK_RECORD
  5
27
100
AcDbSymbolTableRecord
100
AcDbBlockTableRecord
  2
*PAPER_SPACE
  0
BLOCK_RECORD
  5
2C
100
AcDbSymbolTableRecord
100
AcDbBlockTableRecord
  2
_NONE
  0
BLOCK_RECORD
  5
30
100
AcDbSymbolTableRecord
100
AcDbBlockTableRecord
  2
_OPEN
  0
BLOCK_RECORD
  5
36
100
AcDbSymbolTableRecord
100
AcDbBlockTableRecord
  2
_CLOSED
  0
BLOCK_RECORD
  5
3D
100
AcDbSymbolTableRecord
100
AcDbBlockTableRecord
  2
_ORIGIN
  0
BLOCK_RECORD
  5
42
100
AcDbSymbolTableRecord
100
AcDbBlockTableRecord
  2
_DOT
  0
BLOCK_RECORD
  5
4A
100
AcDbSymbolTableRecord
100
AcDbBlockTableRecord
  2
_OBLIQUE
  0
BLOCK_RECORD
  5
4E
100
AcDbSymbolTableRecord
100
AcDbBlockTableRecord
  2
DIMS0
  0
ENDTAB
  0
ENDSEC
  0
SECTION
  2
BLOCKS
  0
BLOCK
  5
25
100
AcDbEntity
  8
0
100
AcDbBlockBegin
  2
*MODEL_SPACE
 70
     0
 10
0.0
 20
0.0
 30
0.0
  3
*MODEL_SPACE
  1

  0
ENDBLK
  5
26
100
AcDbEntity
  8
0
100
AcDbBlockEnd
  0
BLOCK
  5
28
100
AcDbEntity
 67
     1
  8
0
100
AcDbBlockBegin
  2
*PAPER_SPACE
 70
     0
 10
0.0
 20
0.0
 30
0.0
  3
*PAPER_SPACE
  1

  0
ENDBLK
  5
29
100
AcDbEntity
 67
     1
  8
0
100
AcDbBlockEnd
  0
BLOCK
  5
2D
100
AcDbEntity
  8
0
100
AcDbBlockBegin
  2
_NONE
 70
     0
 10
0.0
 20
0.0
  0
CIRCLE
  5
2E
100
AcDbEntity
  8
0
 62
     0
100
AcDbCircle
 10
0.0
 20
0.0
 40
0.25
  0
ENDBLK
  5
2F
100
AcDbEntity
  8
0
100
AcDbBlockEnd
  0
BLOCK
  5
31
100
AcDbEntity
  8
0
100
AcDbBlockBegin
  2
_OPEN
 70
     0
 10
0.0
 20
0.0
  0
LINE
  5
32
100
AcDbEntity
  8
0
 62
     0
100
AcDbLine
 10
-0.965926
 20
0.258819
 11
0.0
 21
0.0
  0
LINE
  5
33
100
AcDbEntity
  8
0
 62
     0
100
AcDbLine
 10
0.0
 20
0.0
 11
-0.965926
 21
-0.258819
  0
LINE
  5
34
100
AcDbEntity
  8
0
 62
     0
100
AcDbLine
 10
0.0
 20
0.0
 11
-1.0
 21
0.0
  0
ENDBLK
  5
35
100
AcDbEntity
  8
0
100
AcDbBlockEnd
  0
BLOCK
  5
37
100
AcDbEntity
  8
0
100
AcDbBlockBegin
  2
_CLOSED
 70
     0
 10
0.0
 20
0.0
  0
LINE
  5
38
100
AcDbEntity
  8
0
 62
     0
100
AcDbLine
 10
-0.965926
 20
0.258819
 11
0.0
 21
0.0
  0
LINE
  5
39
100
AcDbEntity
  8
0
 62
     0
100
AcDbLine
 10
0.0
 20
0.0
 11
-0.965926
 21
-0.258819
  0
LINE
  5
3A
100
AcDbEntity
  8
0
 62
     0
100
AcDbLine
 10
-0.965926
 20
0.258819
 11
-0.965926
 21
-0.258819
  0
LINE
  5
3B
100
AcDbEntity
  8
0
 62
     0
100
AcDbLine
 10
0.0
 20
0.0
 11
-1.0
 21
0.0
  0
ENDBLK
  5
3C
100
AcDbEntity
  8
0
100
AcDbBlockEnd
  0
BLOCK
  5
3E
100
AcDbEntity
  8
0
100
AcDbBlockBegin
  2
_ORIGIN
 70
     0
 10
0.0
 20
0.0
  0
CIRCLE
  5
3F
100
AcDbEntity
  8
0
 62
     0
100
AcDbCircle
 10
0.0
 20
0.0
 40
0.5
  0
LINE
  5
40
100
AcDbEntity
  8
0
 62
     0
100
AcDbLine
 10
0.0
 20
0.0
 11
-1.0
 21
0.0
  0
ENDBLK
  5
41
100
AcDbEntity
  8
0
100
AcDbBlockEnd
  0
BLOCK
  5
43
100
AcDbEntity
  8
0
100
AcDbBlockBegin
  2
_DOT
 70
     0
 10
0.0
 20
0.0
  0
POLYLINE
  5
44
100
AcDbEntity
  8
0
 62
     0
100
AcDb2dPolyline
 66
     1
 70
     1
 40
0.5
 41
0.5
  0
VERTEX
  5
45
100
AcDbEntity
  8
0
 62
     0
100
AcDbVertex
100
AcDb2dVertex
 10
-0.25
 20
0.0
 42
1.0
  0
VERTEX
  5
46
100
AcDbEntity
  8
0
 62
     0
100
AcDbVertex
100
AcDb2dVertex
 10
0.25
 20
0.0
 42
1.0
  0
SEQEND
  5
47
100
AcDbEntity
  8
0
 62
     0
  0
LINE
  5
48
100
AcDbEntity
  8
0
 62
     0
100
AcDbLine
 10
-0.5
 20
0.0
 11
-1.0
 21
0.0
  0
ENDBLK
  5
49
100
AcDbEntity
  8
0
100
AcDbBlockEnd
  0
BLOCK
  5
4B
100
AcDbEntity
  8
0
100
AcDbBlockBegin
  2
_OBLIQUE
 70
     0
 10
0.0
 20
0.0
  0
LINE
  5
4C
100
AcDbEntity
  8
0
 62
     0
100
AcDbLine
 10
-0.353553
 20
-0.353553
 11
0.353553
 21
0.353553
  0
ENDBLK
  5
4D
100
AcDbEntity
  8
0
100
AcDbBlockEnd
  0
BLOCK
  5
4F
100
AcDbEntity
  8
DD0
100
AcDbBlockBegin
  2
DIMS0
 70
     0
 10
0.0
 20
0.0
  0
LINE
  5
50
100
AcDbEntity
  8
DD0
100
AcDbLine
 10
230.899109
 20
248.889404
 11
232.899109
 21
252.889404
  0
LINE
  5
51
100
AcDbEntity
  8
DD0
100
AcDbLine
 10
232.899109
 20
252.889404
 11
234.899109
 21
248.889404
  0
LINE
  5
52
100
AcDbEntity
  8
DD0
100
AcDbLine
 10
234.899109
 20
248.889404
 11
230.899109
 21
248.889404
  0
TEXT
  5
53
100
AcDbEntity
  8
DD0
100
AcDbText
 10
232.182442
 20
249.209406
 40
1.8
  1
Ａ
 41
0.796296
  7
STANDARD
100
AcDbText
  0
ENDBLK
  5
54
100
AcDbEntity
  8
DD0
100
AcDbBlockEnd
  0
ENDSEC
  0
SECTION
  2
ENTITIES
  0
INSERT
  5
55
100
AcDbEntity
  8
DD0
100
AcDbBlockReference
  2
DIMS0
 10
0.0
 20
0.0
  0
LINE
  5
56
100
AcDbEntity
  8
M0
100
AcDbLine
 10
69.168111
 20
263.813541
 11
69.168111
 21
273.813541
  0
LINE
  5
57
100
AcDbEntity
  8
M0
100
AcDbLine
 10
69.168111
 20
273.813541
 11
39.168111
 21
273.813541
  0
LINE
  5
58
100
AcDbEntity
  8
M0
100
AcDbLine
 10
39.168111
 20
273.813541
 11
39.168111
 21
263.813541
  0
LINE
  5
59
100
AcDbEntity
  8
M0
100
AcDbLine
 10
39.168111
 20
263.813541
 11
69.168111
 21
263.813541
  0
TEXT
  5
5A
100
AcDbEntity
  8
M0
100
AcDbText
 10
41.983537
 20
265.017647
 40
7.0
  1
揚水性能
 41
0.780952
  7
STANDARD
100
AcDbText
  0
ARC
  5
5B
100
AcDbEntity
  8
M0
100
AcDbCircle
 10
55.462475
 20
194.367528
 40
7.68
100
AcDbArc
 50
52.58592
 51
127.41408
  0
ARC
  5
5C
100
AcDbEntity
  8
M0
100
AcDbCircle
 10
55.462475
 20
199.187486
 40
7.68
100
AcDbArc
 50
232.58592
 51
307.41408
  0
TEXT
  5
5D
100
AcDbEntity
  8
M0
100
AcDbText
 10
52.262486
 20
217.322197
 40
5.12
  1
全
 41
1.25
  7
STANDARD
100
AcDbText
  0
TEXT
  5
5E
100
AcDbEntity
  8
M0
100
AcDbText
 10
52.262486
 20
211.690198
 40
5.12
  1
揚
 41
1.25
  7
STANDARD
100
AcDbText
  0
TEXT
  5
5F
100
AcDbEntity
  8
M0
100
AcDbText
 10
52.262486
 20
206.058198
 40
5.12
  1
程
 41
1.25
  7
STANDARD
100
AcDbText
  0
TEXT
  5
60
100
AcDbEntity
  8
M0
100
AcDbText
 10
52.262486
 20
200.426198
 40
5.12
  1
　
 41
1.25
  7
STANDARD
100
AcDbText
  0
TEXT
  5
61
100
AcDbEntity
  8
M0
100
AcDbText
 10
52.262486
 20
194.794198
 40
5.12
  1
ｍ
 41
1.25
  7
STANDARD
100
AcDbText
  0
TEXT
  5
62
100
AcDbEntity
  8
M0
100
AcDbText
 10
63.456262
 20
224.48773
 40
4.8
  1
３０
 41
0.611111
  7
STANDARD
100
AcDbText
  0
TEXT
  5
63
100
AcDbEntity
  8
M0
100
AcDbText
 10
63.456262
 20
208.48773
 40
4.8
  1
２０
 41
0.611111
  7
STANDARD
100
AcDbText
  0
TEXT
  5
64
100
AcDbEntity
  8
M0
100
AcDbText
 10
63.456262
 20
192.487737
 40
4.8
  1
１０
 41
0.611111
  7
STANDARD
100
AcDbText
  0
TEXT
  5
65
100
AcDbEntity
  8
M0
100
AcDbText
 10
66.656259
 20
176.487737
 40
4.8
  1
０
 41
0.611111
  7
STANDARD
100
AcDbText
  0
TEXT
  5
66
100
AcDbEntity
  8
M0
100
AcDbText
 10
69.856256
 20
170.725729
 40
4.8
  1
０
 41
0.611111
  7
STANDARD
100
AcDbText
  0
TEXT
  5
67
100
AcDbEntity
  8
M0
100
AcDbText
 10
101.856256
 20
170.725729
 40
4.8
  1
１０
 41
0.611111
  7
STANDARD
100
AcDbText
  0
TEXT
  5
68
100
AcDbEntity
  8
M0
100
AcDbText
 10
133.856256
 20
170.725729
 40
4.8
  1
２０
 41
0.611111
  7
STANDARD
100
AcDbText
  0
TEXT
  5
69
100
AcDbEntity
  8
M0
100
AcDbText
 10
112.67012
 20
158.318639
 40
7.68
  1
揚水量（Ｌ／分）
 41
0.611111
  7
STANDARD
100
AcDbText
  0
TEXT
  5
6A
100
AcDbEntity
  8
M0
100
AcDbText
 10
165.856253
 20
170.725729
 40
4.8
  1
３０
 41
0.611111
  7
STANDARD
100
AcDbText
  0
TEXT
  5
6B
100
AcDbEntity
  8
M0
100
AcDbText
 10
85.856256
 20
170.725729
 40
4.8
  1
５
 41
0.611111
  7
STANDARD
100
AcDbText
  0
TEXT
  5
6C
100
AcDbEntity
  8
M0
100
AcDbText
 10
117.856256
 20
170.725729
 40
4.8
  1
１５
 41
0.611111
  7
STANDARD
100
AcDbText
  0
TEXT
  5
6D
100
AcDbEntity
  8
M0
100
AcDbText
 10
149.856249
 20
170.725729
 40
4.8
  1
２５
 41
0.611111
  7
STANDARD
100
AcDbText
  0
LINE
  5
6E
100
AcDbEntity
  8
M0
100
AcDbLine
 10
72.976459
 20
234.767764
 11
72.976459
 21
178.767764
  0
LINE
  5
6F
100
AcDbEntity
  8
M0
100
AcDbLine
 10
72.976459
 20
178.767764
 11
184.218137
 21
178.767764
  0
LINE
  5
70
100
AcDbEntity
  8
M0
100
AcDbLine
 10
104.976459
 20
178.767764
 11
104.976459
 21
210.767764
  0
LINE
  5
71
100
AcDbEntity
  8
M0
100
AcDbLine
 10
136.976459
 20
178.767764
 11
136.976459
 21
234.767764
  0
LINE
  5
72
100
AcDbEntity
  8
M0
100
AcDbLine
 10
72.976459
 20
194.767764
 11
184.218137
 21
194.767764
  0
LINE
  5
73
100
AcDbEntity
  8
M0
100
AcDbLine
 10
72.976459
 20
210.767764
 11
104.976459
 21
210.767764
  0
LINE
  5
74
100
AcDbEntity
  8
M0
100
AcDbLine
 10
72.976459
 20
226.767764
 11
184.218137
 21
226.767764
  0
LINE
  5
75
100
AcDbEntity
  8
M0
100
AcDbLine
 10
104.976459
 20
226.767764
 11
104.976459
 21
234.767764
  0
LINE
  5
76
100
AcDbEntity
  8
M0
100
AcDbLine
 10
88.976459
 20
178.767764
 11
88.976459
 21
234.767764
  0
LINE
  5
77
100
AcDbEntity
  8
M0
100
AcDbLine
 10
120.976459
 20
178.767764
 11
120.976459
 21
234.84094
  0
LINE
  5
78
100
AcDbEntity
  8
M0
100
AcDbLine
 10
152.976459
 20
178.767764
 11
152.976459
 21
234.767764
  0
LINE
  5
79
100
AcDbEntity
  8
M0
100
AcDbLine
 10
104.976459
 20
210.767764
 11
184.218137
 21
210.767764
  0
LINE
  5
7A
100
AcDbEntity
  8
M0
100
AcDbLine
 10
104.976459
 20
218.444878
 11
104.976459
 21
226.767764
  0
LINE
  5
7B
100
AcDbEntity
  8
M0
100
AcDbLine
 10
168.976459
 20
178.767764
 11
168.976459
 21
226.767764
  0
TEXT
  5
7C
100
AcDbEntity
  8
M0
100
AcDbText
 10
163.159793
 20
234.367765
 40
4.8
  1
吸込管径：２０ｍｍ
 41
0.590278
  7
STANDARD
100
AcDbText
  0
LINE
  5
7D
100
AcDbEntity
  8
M0
100
AcDbLine
 10
72.496463
 20
241.887765
 11
72.496465
 21
247.647765
  0
LINE
  5
7E
100
AcDbEntity
  8
M0
100
AcDbLine
 10
72.496465
 20
247.647765
 11
97.056467
 21
247.647765
  0
LINE
  5
7F
100
AcDbEntity
  8
M0
100
AcDbLine
 10
97.056467
 20
247.647765
 11
97.056465
 21
241.887765
  0
LINE
  5
80
100
AcDbEntity
  8
M0
100
AcDbLine
 10
97.056465
 20
241.887765
 11
72.496463
 21
241.887765
  0
TEXT
  5
81
100
AcDbEntity
  8
M0
100
AcDbText
 10
73.159796
 20
242.367765
 40
4.8
  1
　浅井戸配管　　　標準ジェット（Ｊ１５－６Ｖ）使用時
 41
0.590278
  7
STANDARD
100
AcDbText
  0
TEXT
  5
82
100
AcDbEntity
  8
M0
100
AcDbText
 10
73.226456
 20
152.158524
 40
4.5
  1
※破線部域では６０ｋＰａの圧力変動があります。
 41
0.777778
  7
STANDARD
100
AcDbText
  0
LINE
  5
83
100
AcDbEntity
  8
M0
  6
DASHED
 62
   194
100
AcDbLine
 10
115.269426
 20
207.567764
 11
72.976459
 21
207.567764
  0
LINE
  5
84
100
AcDbEntity
  8
M0
 62
   194
100
AcDbLine
 10
116.427529
 20
207.431795
 11
136.016459
 21
202.767764
  0
LINE
  5
85
100
AcDbEntity
  8
M0
 62
   194
100
AcDbLine
 10
155.252442
 20
198.524533
 11
136.016459
 21
202.767764
  0
ARC
  5
86
100
AcDbEntity
  8
M0
 62
   194
100
AcDbCircle
 10
153.098346
 20
188.759295
 40
10.0
100
AcDbArc
 50
48.576334
 51
77.560438
  0
LINE
  5
87
100
AcDbEntity
  8
M0
 62
   194
100
AcDbLine
 10
162.635633
 20
193.680258
 11
159.714562
 21
196.257674
  0
ARC
  5
88
100
AcDbEntity
  8
M0
 62
   194
100
AcDbCircle
 10
159.327525
 20
189.931069
 40
5.0
100
AcDbArc
 50
30.963757
 51
48.576334
  0
LINE
  5
89
100
AcDbEntity
  8
M0
 62
   194
100
AcDbLine
 10
165.136459
 20
189.967764
 11
163.614989
 21
192.503548
  0
TEXT
  5
8A
100
AcDbEntity
  8
M0
 62
   194
100
AcDbText
 10
94.555193
 20
211.655229
 40
4.8
  1
吸上高さ６ｍ時
 41
0.590278
  7
STANDARD
100
AcDbText
  0
ARC
  5
8B
100
AcDbEntity
  8
M0
  6
DASHED
 62
   194
100
AcDbCircle
 10
115.269426
 20
202.567764
 40
5.0
100
AcDbArc
 50
76.607502
 51
90.0
  0
LINE
  5
8C
100
AcDbEntity
  8
M0
100
AcDbLine
 10
186.010399
 20
84.491041
 11
75.010399
 21
84.491041
  0
LINE
  5
8D
100
AcDbEntity
  8
M0
100
AcDbLine
 10
123.010399
 20
52.491041
 11
123.010399
 21
108.962093
  0
LINE
  5
8E
100
AcDbEntity
  8
M0
100
AcDbLine
 10
155.010399
 20
52.491041
 11
155.010399
 21
108.491041
  0
TEXT
  5
8F
100
AcDbEntity
  8
M0
100
AcDbText
 10
165.193728
 20
101.109177
 40
4.8
  1
圧力管径：２０ｍｍ
 41
0.590278
  7
STANDARD
100
AcDbText
  0
TEXT
  5
90
100
AcDbEntity
  8
M0
100
AcDbText
 10
94.032374
 20
92.580773
 40
4.8
  1
吸上高さ１２ｍ時
 41
0.590278
  7
STANDARD
100
AcDbText
  0
LINE
  5
91
100
AcDbEntity
  8
M0
100
AcDbLine
 10
74.530402
 20
115.611034
 11
74.530404
 21
121.371034
  0
LINE
  5
92
100
AcDbEntity
  8
M0
100
AcDbLine
 10
74.530404
 20
121.371034
 11
99.090405
 21
121.371034
  0
LINE
  5
93
100
AcDbEntity
  8
M0
100
AcDbLine
 10
99.090405
 20
121.371034
 11
99.090403
 21
115.611034
  0
LINE
  5
94
100
AcDbEntity
  8
M0
100
AcDbLine
 10
99.090403
 20
115.611034
 11
74.530402
 21
115.611034
  0
TEXT
  5
95
100
AcDbEntity
  8
M0
100
AcDbText
 10
75.193736
 20
116.091034
 40
4.8
  1
　深井戸配管　　　標準ジェット（Ｊ１５－６Ｖ）使用時
 41
0.590278
  7
STANDARD
100
AcDbText
  0
TEXT
  5
96
100
AcDbEntity
  8
M0
100
AcDbText
 10
165.193728
 20
107.1026
 40
4.8
  1
吸込管径：２５ｍｍ
 41
0.590278
  7
STANDARD
100
AcDbText
  0
LINE
  5
97
100
AcDbEntity
  8
M0
100
AcDbLine
 10
75.010399
 20
108.491041
 11
75.010399
 21
52.491041
  0
LINE
  5
98
100
AcDbEntity
  8
M0
100
AcDbLine
 10
75.010399
 20
52.491041
 11
186.010399
 21
52.491041
  0
LINE
  5
99
100
AcDbEntity
  8
M0
100
AcDbLine
 10
107.010399
 20
52.491041
 11
107.010399
 21
89.291041
  0
LINE
  5
9A
100
AcDbEntity
  8
M0
100
AcDbLine
 10
139.010399
 20
52.491041
 11
139.010399
 21
108.491041
  0
LINE
  5
9B
100
AcDbEntity
  8
M0
100
AcDbLine
 10
171.010399
 20
52.491041
 11
171.010399
 21
99.065878
  0
LINE
  5
9C
100
AcDbEntity
  8
M0
100
AcDbLine
 10
75.010399
 20
68.491041
 11
186.010399
 21
68.491041
  0
LINE
  5
9D
100
AcDbEntity
  8
M0
100
AcDbLine
 10
75.010399
 20
100.491041
 11
159.224729
 21
100.491041
  0
ARC
  5
9E
100
AcDbEntity
  8
M0
100
AcDbCircle
 10
56.624836
 20
66.603827
 40
7.68
100
AcDbArc
 50
52.58592
 51
127.41408
  0
ARC
  5
9F
100
AcDbEntity
  8
M0
100
AcDbCircle
 10
56.624836
 20
71.423785
 40
7.68
100
AcDbArc
 50
232.58592
 51
307.41408
  0
TEXT
  5
A0
100
AcDbEntity
  8
M0
100
AcDbText
 10
53.424832
 20
89.558498
 40
5.12
  1
全
 41
1.25
  7
STANDARD
100
AcDbText
  0
TEXT
  5
A1
100
AcDbEntity
  8
M0
100
AcDbText
 10
53.424832
 20
83.926498
 40
5.12
  1
揚
 41
1.25
  7
STANDARD
100
AcDbText
  0
TEXT
  5
A2
100
AcDbEntity
  8
M0
100
AcDbText
 10
53.424832
 20
78.294498
 40
5.12
  1
程
 41
1.25
  7
STANDARD
100
AcDbText
  0
TEXT
  5
A3
100
AcDbEntity
  8
M0
100
AcDbText
 10
53.424832
 20
72.662498
 40
5.12
  1
　
 41
1.25
  7
STANDARD
100
AcDbText
  0
TEXT
  5
A4
100
AcDbEntity
  8
M0
100
AcDbText
 10
53.424832
 20
67.030498
 40
5.12
  1
ｍ
 41
1.25
  7
STANDARD
100
AcDbText
  0
TEXT
  5
A5
100
AcDbEntity
  8
M0
100
AcDbText
 10
65.490194
 20
98.211014
 40
4.8
  1
３０
 41
0.611111
  7
STANDARD
100
AcDbText
  0
TEXT
  5
A6
100
AcDbEntity
  8
M0
100
AcDbText
 10
65.490194
 20
82.211014
 40
4.8
  1
２０
 41
0.611111
  7
STANDARD
100
AcDbText
  0
TEXT
  5
A7
100
AcDbEntity
  8
M0
100
AcDbText
 10
65.490194
 20
66.211006
 40
4.8
  1
１０
 41
0.611111
  7
STANDARD
100
AcDbText
  0
TEXT
  5
A8
100
AcDbEntity
  8
M0
100
AcDbText
 10
68.690206
 20
50.211006
 40
4.8
  1
０
 41
0.611111
  7
STANDARD
100
AcDbText
  0
TEXT
  5
A9
100
AcDbEntity
  8
M0
100
AcDbText
 10
71.890203
 20
44.448998
 40
4.8
  1
０
 41
0.611111
  7
STANDARD
100
AcDbText
  0
TEXT
  5
AA
100
AcDbEntity
  8
M0
100
AcDbText
 10
103.890196
 20
44.448998
 40
4.8
  1
１０
 41
0.611111
  7
STANDARD
100
AcDbText
  0
TEXT
  5
AB
100
AcDbEntity
  8
M0
100
AcDbText
 10
135.890188
 20
44.448998
 40
4.8
  1
２０
 41
0.611111
  7
STANDARD
100
AcDbText
  0
TEXT
  5
AC
100
AcDbEntity
  8
M0
100
AcDbText
 10
110.301266
 20
32.554939
 40
7.68
  1
揚水量（Ｌ／分）
 41
0.611111
  7
STANDARD
100
AcDbText
  0
TEXT
  5
AD
100
AcDbEntity
  8
M0
100
AcDbText
 10
167.890188
 20
44.448998
 40
4.8
  1
３０
 41
0.611111
  7
STANDARD
100
AcDbText
  0
TEXT
  5
AE
100
AcDbEntity
  8
M0
100
AcDbText
 10
151.890203
 20
44.448998
 40
4.8
  1
２５
 41
0.611111
  7
STANDARD
100
AcDbText
  0
TEXT
  5
AF
100
AcDbEntity
  8
M0
100
AcDbText
 10
119.890196
 20
44.448998
 40
4.8
  1
１５
 41
0.611111
  7
STANDARD
100
AcDbText
  0
TEXT
  5
B0
100
AcDbEntity
  8
M0
100
AcDbText
 10
87.890196
 20
44.448998
 40
4.8
  1
５
 41
0.611111
  7
STANDARD
100
AcDbText
  0
LINE
  5
B1
100
AcDbEntity
  8
M0
100
AcDbLine
 10
91.010399
 20
52.491041
 11
91.010399
 21
108.491041
  0
TEXT
  5
B2
100
AcDbEntity
  8
M0
100
AcDbText
 10
75.260391
 20
25.8818
 40
4.5
  1
※破線部域では６０ｋＰａの圧力変動があります。
 41
0.777778
  7
STANDARD
100
AcDbText
  0
LINE
  5
B3
100
AcDbEntity
  8
M0
100
AcDbLine
 10
107.010399
 20
99.135041
 11
107.010399
 21
109.005594
  0
LINE
  5
B4
100
AcDbEntity
  8
M0
  6
DASHED
 62
   234
100
AcDbLine
 10
75.010399
 20
90.891041
 11
108.823732
 21
90.891041
  0
LINE
  5
B5
100
AcDbEntity
  8
M0
 62
   234
100
AcDbLine
 10
108.823732
 20
90.891041
 11
127.170399
 21
84.491041
  0
LINE
  5
B6
100
AcDbEntity
  8
M0
 62
   234
100
AcDbLine
 10
127.170399
 20
84.491041
 11
139.009378
 21
79.937587
  0
LINE
  5
B7
100
AcDbEntity
  8
M0
 62
   234
100
AcDbLine
 10
139.157419
 20
77.801053
 11
134.210399
 21
74.891041
  0
ARC
  5
B8
100
AcDbEntity
  8
M0
 62
   234
100
AcDbCircle
 10
138.650399
 20
78.662987
 40
1.0
100
AcDbArc
 50
300.465545
 51
360.0
  0
ARC
  5
B9
100
AcDbEntity
  8
M0
 62
   234
100
AcDbCircle
 10
138.650399
 20
79.004242
 40
1.0
100
AcDbArc
 50
0.0
 51
68.962489
  0
LINE
  5
BA
100
AcDbEntity
  8
M0
 62
   234
100
AcDbLine
 10
139.650399
 20
78.662987
 11
139.650399
 21
79.004242
  0
LINE
  5
BB
100
AcDbEntity
  8
M0
 62
   234
100
AcDbLine
 10
134.210399
 20
74.891041
 11
126.210399
 21
71.691041
  0
ARC
  5
BC
100
AcDbEntity
  8
M0
100
AcDbCircle
 10
220.536433
 20
194.227509
 40
7.68
100
AcDbArc
 50
52.58592
 51
127.41408
  0
ARC
  5
BD
100
AcDbEntity
  8
M0
100
AcDbCircle
 10
220.536433
 20
199.047466
 40
7.68
100
AcDbArc
 50
232.58592
 51
307.41408
  0
TEXT
  5
BE
100
AcDbEntity
  8
M0
100
AcDbText
 10
217.336429
 20
217.182181
 40
5.12
  1
全
 41
1.25
  7
STANDARD
100
AcDbText
  0
TEXT
  5
BF
100
AcDbEntity
  8
M0
100
AcDbText
 10
217.336429
 20
211.550181
 40
5.12
  1
揚
 41
1.25
  7
STANDARD
100
AcDbText
  0
TEXT
  5
C0
100
AcDbEntity
  8
M0
100
AcDbText
 10
217.336429
 20
205.918181
 40
5.12
  1
程
 41
1.25
  7
STANDARD
100
AcDbText
  0
TEXT
  5
C1
100
AcDbEntity
  8
M0
100
AcDbText
 10
217.336429
 20
200.286181
 40
5.12
  1
　
 41
1.25
  7
STANDARD
100
AcDbText
  0
TEXT
  5
C2
100
AcDbEntity
  8
M0
100
AcDbText
 10
217.336429
 20
194.654181
 40
5.12
  1
ｍ
 41
1.25
  7
STANDARD
100
AcDbText
  0
TEXT
  5
C3
100
AcDbEntity
  8
M0
100
AcDbText
 10
229.257577
 20
224.487735
 40
4.8
  1
３０
 41
0.611111
  7
STANDARD
100
AcDbText
  0
TEXT
  5
C4
100
AcDbEntity
  8
M0
100
AcDbText
 10
229.257577
 20
208.487735
 40
4.8
  1
２０
 41
0.611111
  7
STANDARD
100
AcDbText
  0
TEXT
  5
C5
100
AcDbEntity
  8
M0
100
AcDbText
 10
229.257577
 20
192.487735
 40
4.8
  1
１０
 41
0.611111
  7
STANDARD
100
AcDbText
  0
TEXT
  5
C6
100
AcDbEntity
  8
M0
100
AcDbText
 10
232.457574
 20
176.487735
 40
4.8
  1
０
 41
0.611111
  7
STANDARD
100
AcDbText
  0
TEXT
  5
C7
100
AcDbEntity
  8
M0
100
AcDbText
 10
235.657571
 20
170.725726
 40
4.8
  1
０
 41
0.611111
  7
STANDARD
100
AcDbText
  0
TEXT
  5
C8
100
AcDbEntity
  8
M0
100
AcDbText
 10
267.657571
 20
170.725726
 40
4.8
  1
１０
 41
0.611111
  7
STANDARD
100
AcDbText
  0
TEXT
  5
C9
100
AcDbEntity
  8
M0
100
AcDbText
 10
299.657567
 20
170.725726
 40
4.8
  1
２０
 41
0.611111
  7
STANDARD
100
AcDbText
  0
TEXT
  5
CA
100
AcDbEntity
  8
M0
100
AcDbText
 10
331.657566
 20
170.725726
 40
4.8
  1
３０
 41
0.611111
  7
STANDARD
100
AcDbText
  0
TEXT
  5
CB
100
AcDbEntity
  8
M0
100
AcDbText
 10
251.657571
 20
170.725726
 40
4.8
  1
５
 41
0.611111
  7
STANDARD
100
AcDbText
  0
TEXT
  5
CC
100
AcDbEntity
  8
M0
100
AcDbText
 10
283.657571
 20
170.725726
 40
4.8
  1
１５
 41
0.611111
  7
STANDARD
100
AcDbText
  0
TEXT
  5
CD
100
AcDbEntity
  8
M0
100
AcDbText
 10
315.657565
 20
170.725726
 40
4.8
  1
２５
 41
0.611111
  7
STANDARD
100
AcDbText
  0
LINE
  5
CE
100
AcDbEntity
  8
M0
100
AcDbLine
 10
238.777778
 20
234.767764
 11
238.777778
 21
178.767764
  0
LINE
  5
CF
100
AcDbEntity
  8
M0
100
AcDbLine
 10
238.777778
 20
178.767764
 11
349.777778
 21
178.767764
  0
LINE
  5
D0
100
AcDbEntity
  8
M0
100
AcDbLine
 10
270.777778
 20
178.767764
 11
270.777778
 21
213.747413
  0
LINE
  5
D1
100
AcDbEntity
  8
M0
100
AcDbLine
 10
302.777778
 20
178.767764
 11
302.777778
 21
234.767764
  0
LINE
  5
D2
100
AcDbEntity
  8
M0
100
AcDbLine
 10
334.777778
 20
178.767764
 11
334.777778
 21
226.767764
  0
LINE
  5
D3
100
AcDbEntity
  8
M0
100
AcDbLine
 10
238.777778
 20
194.767764
 11
349.777778
 21
194.767764
  0
LINE
  5
D4
100
AcDbEntity
  8
M0
100
AcDbLine
 10
238.777778
 20
226.767764
 11
349.777778
 21
226.767764
  0
LINE
  5
D5
100
AcDbEntity
  8
M0
100
AcDbLine
 10
270.777778
 20
226.767764
 11
270.777778
 21
234.767764
  0
LINE
  5
D6
100
AcDbEntity
  8
M0
100
AcDbLine
 10
238.777778
 20
210.767764
 11
349.777778
 21
210.767764
  0
LINE
  5
D7
100
AcDbEntity
  8
M0
100
AcDbLine
 10
254.777778
 20
178.767764
 11
254.777778
 21
234.767764
  0
LINE
  5
D8
100
AcDbEntity
  8
M0
100
AcDbLine
 10
286.777778
 20
178.767764
 11
286.777778
 21
235.242433
  0
LINE
  5
D9
100
AcDbEntity
  8
M0
100
AcDbLine
 10
318.777778
 20
178.767764
 11
318.777778
 21
234.767764
  0
LINE
  5
DA
100
AcDbEntity
  8
M0
100
AcDbLine
 10
270.777778
 20
224.032077
 11
270.777778
 21
226.767764
  0
TEXT
  5
DB
100
AcDbEntity
  8
M0
100
AcDbText
 10
278.471435
 20
158.318641
 40
7.68
  1
揚水量（Ｌ／分）
 41
0.611111
  7
STANDARD
100
AcDbText
  0
TEXT
  5
DC
100
AcDbEntity
  8
M0
100
AcDbText
 10
239.02777
 20
152.158523
 40
4.5
  1
※破線部域では６０ｋＰａの圧力変動があります。
 41
0.777778
  7
STANDARD
100
AcDbText
  0
TEXT
  5
DD
100
AcDbEntity
  8
M0
100
AcDbText
 10
325.679016
 20
232.367764
 40
4.8
  1
吸込管（Ｂ）２０ｍｍ
 41
0.590278
  7
STANDARD
100
AcDbText
  0
TEXT
  5
DE
100
AcDbEntity
  8
M0
100
AcDbText
 10
257.471919
 20
216.120797
 40
4.8
  1
吸上高さ１２ｍ時
 41
0.590278
  7
STANDARD
100
AcDbText
  0
LINE
  5
DF
100
AcDbEntity
  8
M0
100
AcDbLine
 10
238.297778
 20
241.887765
 11
238.297779
 21
247.647765
  0
LINE
  5
E0
100
AcDbEntity
  8
M0
100
AcDbLine
 10
238.297779
 20
247.647765
 11
256.057779
 21
247.647765
  0
LINE
  5
E1
100
AcDbEntity
  8
M0
100
AcDbLine
 10
256.057779
 20
247.647765
 11
256.057777
 21
241.887765
  0
LINE
  5
E2
100
AcDbEntity
  8
M0
100
AcDbLine
 10
256.057777
 20
241.887765
 11
238.297778
 21
241.887765
  0
TEXT
  5
E3
100
AcDbEntity
  8
M0
100
AcDbText
 10
238.961111
 20
242.367765
 40
4.8
  1
　深井戸　　　シングルジェット（Ｊ１５－１２ＳＶ）使用時
 41
0.590278
  7
STANDARD
100
AcDbText
  0
LINE
  5
E4
100
AcDbEntity
  8
M0
100
AcDbLine
 10
279.721068
 20
199.039926
 11
278.729139
 21
198.140684
  0
ARC
  5
E5
100
AcDbEntity
  8
M0
100
AcDbCircle
 10
276.377778
 20
200.295628
 40
4.0
100
AcDbArc
 50
0.0
 51
63.434949
  0
ARC
  5
E6
100
AcDbEntity
  8
M0
100
AcDbCircle
 10
278.377778
 20
200.521672
 40
2.0
100
AcDbArc
 50
312.194168
 51
360.0
  0
LINE
  5
E7
100
AcDbEntity
  8
M0
100
AcDbLine
 10
271.121281
 20
207.396013
 11
278.166632
 21
203.873337
  0
LINE
  5
E8
100
AcDbEntity
  8
M0
100
AcDbLine
 10
257.152896
 20
215.742694
 11
270.448459
 21
207.765355
  0
ARC
  5
E9
100
AcDbEntity
  8
M0
100
AcDbCircle
 10
275.593417
 20
216.340285
 40
10.0
100
AcDbArc
 50
239.036243
 51
243.434949
  0
LINE
  5
EA
100
AcDbEntity
  8
M0
  6
DASHED
100
AcDbLine
 10
252.007938
 20
217.167764
 11
238.777778
 21
217.167764
  0
ARC
  5
EB
100
AcDbEntity
  8
M0
100
AcDbCircle
 10
252.007938
 20
207.167764
 40
10.0
100
AcDbArc
 50
59.036243
 51
90.0
  0
TEXT
  5
EC
100
AcDbEntity
  8
M67
100
AcDbText
 10
398.295685
 20
19.349648
 40
3.5
  1
再入庫
 41
0.714286
  7
STANDARD
100
AcDbText
  0
LINE
  5
ED
100
AcDbEntity
  8
M67
100
AcDbLine
 10
409.908776
 20
18.5
 11
395.042708
 21
18.5
  0
CIRCLE
  5
EE
100
AcDbEntity
  8
M67
100
AcDbCircle
 10
402.5
 20
17.5
 40
7.5
  0
TEXT
  5
EF
100
AcDbEntity
  8
M67
100
AcDbText
 10
397.405
 20
14.7
 40
3.5
  1
２００７－０３
 41
0.357143
  7
STANDARD
100
AcDbText
  0
TEXT
  5
F0
100
AcDbEntity
  8
M67
100
AcDbText
 10
401.145
 20
11.06
 40
3.5
  1
１６
 41
0.357143
  7
STANDARD
100
AcDbText
  0
LINE
  5
F1
100
AcDbEntity
  8
M73
 62
     7
100
AcDbLine
 10
25.0
 20
287.0
 11
25.0
 21
10.0
  0
LINE
  5
F2
100
AcDbEntity
  8
M73
 62
     7
100
AcDbLine
 10
410.0
 20
10.0
 11
25.0
 21
10.0
  0
LINE
  5
F3
100
AcDbEntity
  8
M73
 62
     7
100
AcDbLine
 10
410.0
 20
287.0
 11
25.0
 21
287.0
  0
LINE
  5
F4
100
AcDbEntity
  8
M73
 62
     7
100
AcDbLine
 10
410.0
 20
287.0
 11
410.0
 21
10.0
  0
LINE
  5
F5
100
AcDbEntity
  8
M73
 62
     7
100
AcDbLine
 10
210.0
 20
297.0
 11
210.0
 21
287.0
  0
LINE
  5
F6
100
AcDbEntity
  8
M73
 62
     7
100
AcDbLine
 10
0.0
 20
148.5
 11
25.0
 21
148.5
  0
TEXT
  5
F7
100
AcDbEntity
  8
M73
 62
     7
100
AcDbText
 10
19.0
 20
10.166667
 40
2.0
  1
ＶＥＲ．０６－００
 50
90.000003
 41
0.833333
  7
STANDARD
100
AcDbText
  0
LINE
  5
F8
100
AcDbEntity
  8
M73
 62
     7
100
AcDbLine
 10
410.0
 20
37.5
 11
240.0
 21
37.5
  0
LINE
  5
F9
100
AcDbEntity
  8
M73
 62
     7
100
AcDbLine
 10
279.0
 20
25.0
 11
410.0
 21
25.0
  0
LINE
  5
FA
100
AcDbEntity
  8
M73
 62
     7
100
AcDbLine
 10
300.0
 20
32.5
 11
320.0
 21
32.5
  0
LINE
  5
FB
100
AcDbEntity
  8
M73
 62
     7
100
AcDbLine
 10
240.0
 20
37.5
 11
240.0
 21
10.0
  0
LINE
  5
FC
100
AcDbEntity
  8
M73
 62
     7
100
AcDbLine
 10
247.0
 20
37.5
 11
247.0
 21
10.0
  0
LINE
  5
FD
100
AcDbEntity
  8
M73
 62
     7
100
AcDbLine
 10
263.0
 20
37.5
 11
263.0
 21
10.0
  0
LINE
  5
FE
100
AcDbEntity
  8
M73
 62
     7
100
AcDbLine
 10
279.0
 20
37.499985
 11
279.0
 21
10.0
  0
LINE
  5
FF
100
AcDbEntity
  8
M73
 62
     7
100
AcDbLine
 10
300.0
 20
37.499985
 11
300.0
 21
25.0
  0
LINE
  5
100
100
AcDbEntity
  8
M73
 62
     7
100
AcDbLine
 10
395.0
 20
37.499985
 11
395.0
 21
10.0
  0
LINE
  5
101
100
AcDbEntity
  8
M73
 62
     7
100
AcDbLine
 10
320.0
 20
37.5
 11
320.0
 21
10.0
  0
LINE
  5
102
100
AcDbEntity
  8
M73
 62
     7
100
AcDbLine
 10
240.0
 20
10.0
 11
410.0
 21
10.0
  0
LINE
  5
103
100
AcDbEntity
  8
M73
 62
     7
100
AcDbLine
 10
410.0
 20
37.499985
 11
410.0
 21
10.0
  0
TEXT
  5
104
100
AcDbEntity
  8
M73
 62
     7
100
AcDbText
 10
320.575
 20
21.099998
 40
3.4
  1
多賀図番
 41
0.955882
  7
STANDARD
100
AcDbText
  0
TEXT
  5
105
100
AcDbEntity
  8
M73
 62
     7
100
AcDbText
 10
357.683333
 20
-32.100006
 40
2.8
  1
ＴＡＧＡ　ＤＷＧ．ＮＯ．
 41
0.654762
  7
STANDARD
100
AcDbText
  0
LINE
  5
106
100
AcDbEntity
  8
M73
 62
     7
100
AcDbLine
 10
330.0
 20
32.5
 11
395.0
 21
32.5
  0
LINE
  5
107
100
AcDbEntity
  8
M73
 62
     7
100
AcDbLine
 10
247.0
 20
32.0
 11
279.0
 21
32.0
  0
LINE
  5
108
100
AcDbEntity
  8
M73
 62
     7
100
AcDbLine
 10
279.0
 20
26.5
 11
240.0
 21
26.5
  0
LINE
  5
109
100
AcDbEntity
  8
M73
 62
     7
100
AcDbLine
 10
247.0
 20
21.0
 11
279.0
 21
21.0
  0
LINE
  5
10A
100
AcDbEntity
  8
M73
 62
     7
100
AcDbLine
 10
279.0
 20
15.5
 11
240.0
 21
15.5
  0
LINE
  5
10B
100
AcDbEntity
  8
M73
 62
     7
100
AcDbLine
 10
379.0
 20
10.0
 11
379.0
 21
25.0
  0
LINE
  5
10C
100
AcDbEntity
  8
M73
 62
     7
100
AcDbLine
 10
379.0
 20
20.0
 11
395.0
 21
20.0
  0
LINE
  5
10D
100
AcDbEntity
  8
M73
 62
     7
100
AcDbLine
 10
330.0
 20
37.499985
 11
330.0
 21
32.5
  0
LINE
  5
10E
100
AcDbEntity
  8
M73
 62
     7
100
AcDbLine
 10
395.0
 20
32.5
 11
410.0
 21
32.5
  0
LINE
  5
10F
100
AcDbEntity
  8
M73
 62
     7
100
AcDbLine
 10
337.495982
 20
18.995514
 11
337.495972
 21
11.995758
  0
LINE
  5
110
100
AcDbEntity
  8
M73
 62
     7
100
AcDbLine
 10
347.995956
 20
11.995499
 11
337.495972
 21
11.995514
  0
LINE
  5
111
100
AcDbEntity
  8
M73
 62
     7
100
AcDbLine
 10
347.995977
 20
18.995483
 11
347.995956
 21
11.995743
  0
LINE
  5
112
100
AcDbEntity
  8
M73
 62
     7
100
AcDbLine
 10
347.995981
 20
18.995483
 11
337.495981
 21
18.995514
  0
LINE
  5
113
100
AcDbEntity
  8
M73
  6
DASHDOT
 62
     7
100
AcDbLine
 10
288.543515
 20
31.249992
 11
279.779774
 21
31.249992
  0
LINE
  5
114
100
AcDbEntity
  8
M73
  6
DASHDOT
 62
     7
100
AcDbLine
 10
284.619946
 20
35.940126
 11
284.619946
 21
26.585796
  0
LINE
  5
115
100
AcDbEntity
  8
M73
 62
     7
100
AcDbLine
 10
297.016141
 20
28.250005
 11
297.016141
 21
34.249995
  0
LINE
  5
116
100
AcDbEntity
  8
M73
 62
     7
100
AcDbLine
 10
290.616238
 20
32.749992
 11
290.616238
 21
29.749993
  0
LINE
  5
117
100
AcDbEntity
  8
M73
  6
DASHDOT
 62
     7
100
AcDbLine
 10
298.815991
 20
31.249992
 11
288.596021
 21
31.249992
  0
CIRCLE
  5
118
100
AcDbEntity
  8
M73
 62
     7
100
AcDbCircle
 10
284.62019
 20
31.249992
 40
1.5
  0
LINE
  5
119
100
AcDbEntity
  8
M73
 62
     7
100
AcDbLine
 10
290.616238
 20
32.749992
 11
297.016141
 21
34.249995
  0
LINE
  5
11A
100
AcDbEntity
  8
M73
 62
     7
100
AcDbLine
 10
297.016141
 20
28.250005
 11
290.616238
 21
29.749993
  0
CIRCLE
  5
11B
100
AcDbEntity
  8
M73
 62
     7
100
AcDbCircle
 10
284.62019
 20
31.249992
 40
2.999999
  0
TEXT
  5
11C
100
AcDbEntity
  8
M73
 62
     7
100
AcDbText
 10
240.638804
 20
30.587376
 40
3.7
  1
製図
 41
0.720721
  7
STANDARD
100
AcDbText
  0
TEXT
  5
11D
100
AcDbEntity
  8
M73
 62
     7
100
AcDbText
 10
240.551615
 20
11.030793
 40
3.5
  1
承認
 41
0.761905
  7
STANDARD
100
AcDbText
  0
TEXT
  5
11E
100
AcDbEntity
  8
M73
 62
     7
100
AcDbText
 10
320.579824
 20
33.421528
 40
3.5
  1
名称
 41
0.880952
  7
STANDARD
100
AcDbText
  0
TEXT
  5
11F
100
AcDbEntity
  8
M73
 62
     7
100
AcDbText
 10
302.308333
 20
33.150002
 40
3.7
  1
尺度
 41
1.914414
  7
STANDARD
100
AcDbText
  0
TEXT
  5
120
100
AcDbEntity
  8
M73
 62
     7
100
AcDbText
 10
396.079185
 20
33.150002
 40
3.6
  1
最終来歴
 41
0.775463
  7
STANDARD
100
AcDbText
  0
TEXT
  5
121
100
AcDbEntity
  8
M73
 62
     7
100
AcDbText
 10
240.638804
 20
19.587374
 40
3.7
  1
審査
 41
0.720721
  7
STANDARD
100
AcDbText
  0
TEXT
  5
122
100
AcDbEntity
  8
M73
 62
     7
100
AcDbText
 10
263.525024
 20
10.750012
 40
4.0
  1
　　　　－　　－　　
 41
0.3125
  7
STANDARD
100
AcDbText
  0
TEXT
  5
123
100
AcDbEntity
  8
M73
 62
     7
100
AcDbText
 10
263.525024
 20
16.250011
 40
4.0
  1
　　　　－　　－　　
 41
0.3125
  7
STANDARD
100
AcDbText
  0
TEXT
  5
124
100
AcDbEntity
  8
M73
 62
     7
100
AcDbText
 10
263.525024
 20
21.750011
 40
4.0
  1
　　　　－　　－　　
 41
0.3125
  7
STANDARD
100
AcDbText
  0
TEXT
  5
125
100
AcDbEntity
  8
M73
 62
     7
100
AcDbText
 10
263.525024
 20
27.250011
 40
4.0
  1
　　　　－　　－　　
 41
0.3125
  7
STANDARD
100
AcDbText
  0
TEXT
  5
126
100
AcDbEntity
  8
M73
 62
     7
100
AcDbText
 10
263.525024
 20
32.750011
 40
4.0
  1
　　　　－　　－　　
 41
0.3125
  7
STANDARD
100
AcDbText
  0
TEXT
  5
127
100
AcDbEntity
  8
M73
 62
     7
100
AcDbText
 10
382.279167
 20
20.65
 40
3.6
  1
枝　番
 41
0.775463
  7
STANDARD
100
AcDbText
  0
LINE
  5
128
100
AcDbEntity
  8
M73
 62
     7
100
AcDbLine
 10
410.0
 20
47.5
 11
240.0
 21
47.5
  0
LINE
  5
129
100
AcDbEntity
  8
M73
 62
     7
100
AcDbLine
 10
240.0
 20
47.5
 11
240.0
 21
37.5
  0
TEXT
  5
12A
100
AcDbEntity
  8
M73
 62
     7
100
AcDbText
 10
280.25
 20
15.0
 40
5.0
  1
日立アプライアンス株式会社
 41
0.5
  7
STANDARD
100
AcDbText
  0
LINE
  5
12B
100
AcDbEntity
  8
M77
100
AcDbLine
 10
331.0
 20
287.0
 11
410.0
 21
287.0
  0
LINE
  5
12C
100
AcDbEntity
  8
M77
100
AcDbLine
 10
331.0
 20
281.0
 11
410.0
 21
281.0
  0
LINE
  5
12D
100
AcDbEntity
  8
M77
100
AcDbLine
 10
331.0
 20
276.0
 11
410.0
 21
276.0
  0
LINE
  5
12E
100
AcDbEntity
  8
M77
100
AcDbLine
 10
331.0
 20
287.0
 11
331.0
 21
276.0
  0
LINE
  5
12F
100
AcDbEntity
  8
M77
100
AcDbLine
 10
346.0
 20
281.0
 11
346.0
 21
276.0
  0
LINE
  5
130
100
AcDbEntity
  8
M77
100
AcDbLine
 10
362.0
 20
281.0
 11
362.0
 21
276.0
  0
LINE
  5
131
100
AcDbEntity
  8
M77
100
AcDbLine
 10
378.0
 20
281.0
 11
378.0
 21
276.0
  0
LINE
  5
132
100
AcDbEntity
  8
M77
100
AcDbLine
 10
394.0
 20
281.0
 11
394.0
 21
276.0
  0
LINE
  5
133
100
AcDbEntity
  8
M77
100
AcDbLine
 10
410.0
 20
287.0
 11
410.0
 21
276.0
  0
TEXT
  5
134
100
AcDbEntity
  8
M77
100
AcDbText
 10
331.166667
 20
276.5
 40
4.0
  1
記号
 41
1.666667
  7
STANDARD
100
AcDbText
  0
TEXT
  5
135
100
AcDbEntity
  8
M77
100
AcDbText
 10
348.333333
 20
276.5
 40
4.0
  1
年月日
 41
0.833333
  7
STANDARD
100
AcDbText
  0
TEXT
  5
136
100
AcDbEntity
  8
M77
100
AcDbText
 10
362.666667
 20
276.5
 40
4.0
  1
訂正
 41
1.666667
  7
STANDARD
100
AcDbText
  0
TEXT
  5
137
100
AcDbEntity
  8
M77
100
AcDbText
 10
378.666667
 20
276.5
 40
4.0
  1
審査
 41
1.666667
  7
STANDARD
100
AcDbText
  0
TEXT
  5
138
100
AcDbEntity
  8
M77
100
AcDbText
 10
394.666667
 20
276.5
 40
4.0
  1
承認
 41
1.666667
  7
STANDARD
100
AcDbText
  0
TEXT
  5
139
100
AcDbEntity
  8
M77
100
AcDbText
 10
344.666667
 20
281.75
 40
4.5
  1
来歴
 41
4.814815
  7
STANDARD
100
AcDbText
  0
TEXT
  5
13A
100
AcDbEntity
  8
M77
100
AcDbText
 10
400.75
 20
26.52
 40
4.5
  1
Ａ
 41
0.777778
  7
STANDARD
100
AcDbText
  0
TEXT
  5
13B
100
AcDbEntity
  8
M77
100
AcDbText
 10
336.833333
 20
265.5
 40
4.0
  1
Ａ
 41
0.833333
  7
STANDARD
100
AcDbText
  0
TEXT
  5
13C
100
AcDbEntity
  8
M77
100
AcDbText
 10
346.625
 20
265.5
 40
4.0
  1
２００７－０３－１６
 41
0.3125
  7
STANDARD
100
AcDbText
  0
TEXT
  5
13D
100
AcDbEntity
  8
M77
100
AcDbText
 10
331.708333
 20
271.25
 40
3.5
  1
シングルジェット揚水性能追加
 41
0.738095
  7
STANDARD
100
AcDbText
  0
LINE
  5
13E
100
AcDbEntity
  8
M77
100
AcDbLine
 10
331.0
 20
276.0
 11
410.0
 21
276.0
  0
LINE
  5
13F
100
AcDbEntity
  8
M77
100
AcDbLine
 10
331.0
 20
270.0
 11
410.0
 21
270.0
  0
LINE
  5
140
100
AcDbEntity
  8
M77
100
AcDbLine
 10
331.0
 20
265.0
 11
410.0
 21
265.0
  0
LINE
  5
141
100
AcDbEntity
  8
M77
100
AcDbLine
 10
331.0
 20
276.0
 11
331.0
 21
265.0
  0
LINE
  5
142
100
AcDbEntity
  8
M77
100
AcDbLine
 10
346.0
 20
270.0
 11
346.0
 21
265.0
  0
LINE
  5
143
100
AcDbEntity
  8
M77
100
AcDbLine
 10
362.0
 20
270.0
 11
362.0
 21
265.0
  0
LINE
  5
144
100
AcDbEntity
  8
M77
100
AcDbLine
 10
378.0
 20
270.0
 11
378.0
 21
265.0
  0
LINE
  5
145
100
AcDbEntity
  8
M77
100
AcDbLine
 10
394.0
 20
270.0
 11
394.0
 21
265.0
  0
LINE
  5
146
100
AcDbEntity
  8
M77
100
AcDbLine
 10
410.0
 20
276.0
 11
410.0
 21
265.0
  0
TEXT
  5
147
100
AcDbEntity
  8
M77
100
AcDbText
 10
362.950001
 20
265.5
 40
4.0
  1
佐藤　　　
 41
0.625
  7
STANDARD
100
AcDbText
  0
TEXT
  5
148
100
AcDbEntity
  8
M77
100
AcDbText
 10
378.950001
 20
265.5
 40
4.0
  1
本多　　　
 41
0.625
  7
STANDARD
100
AcDbText
  0
TEXT
  5
149
100
AcDbEntity
  8
M77
100
AcDbText
 10
394.950001
 20
265.5
 40
4.0
  1
田辺　　　
 41
0.625
  7
STANDARD
100
AcDbText
  0
TEXT
  5
14A
100
AcDbEntity
  8
M79
 62
     7
100
AcDbText
 10
304.05
 20
26.5
 40
4.5
  1
ＮＴＳ
 41
0.777778
  7
STANDARD
100
AcDbText
  0
TEXT
  5
14B
100
AcDbEntity
  8
M79
 62
     7
100
AcDbText
 10
349.833333
 20
26.52
 40
4.5
  1
揚水性能
 41
0.740741
  7
STANDARD
100
AcDbText
  0
TEXT
  5
14C
100
AcDbEntity
  8
M79
 62
     7
100
AcDbText
 10
352.708333
 20
33.37
 40
3.0
  1
ＣＴ－Ｐ１５０Ｖ
 41
0.694444
  7
STANDARD
100
AcDbText
  0
TEXT
  5
14D
100
AcDbEntity
  8
M79
 62
     7
100
AcDbText
 10
309.624998
 20
40.27
 40
4.5
  1
浅深両用ポンプ
 41
0.833333
  7
STANDARD
100
AcDbText
  0
TEXT
  5
14E
100
AcDbEntity
  8
M80
100
AcDbText
 10
331.506667
 20
12.25
 40
8.5
  1
３
 41
0.607843
  7
STANDARD
100
AcDbText
  0
TEXT
  5
14F
100
AcDbEntity
  8
M80
100
AcDbText
 10
338.215001
 20
12.45
 40
6.0
  1
Ｚ６Ｎ
 41
0.458333
  7
STANDARD
100
AcDbText
  0
TEXT
  5
150
100
AcDbEntity
  8
M80
100
AcDbText
 10
349.739334
 20
12.246
 40
8.5
  1
Ｌ５４６６
 41
0.568627
  7
STANDARD
100
AcDbText
  0
TEXT
  5
151
100
AcDbEntity
  8
M80
100
AcDbText
 10
247.65
 20
32.75
 40
4.0
  1
小林　　　
 41
0.625
  7
STANDARD
100
AcDbText
  0
TEXT
  5
152
100
AcDbEntity
  8
M80
100
AcDbText
 10
263.525
 20
32.75
 40
4.0
  1
２００７－０３－１０
 41
0.3125
  7
STANDARD
100
AcDbText
  0
TEXT
  5
153
100
AcDbEntity
  8
M80
100
AcDbText
 10
247.65
 20
21.75
 40
4.0
  1
大和田　　
 41
0.625
  7
STANDARD
100
AcDbText
  0
TEXT
  5
154
100
AcDbEntity
  8
M80
100
AcDbText
 10
263.525
 20
21.75
 40
4.0
  1
２００７－０３－１２
 41
0.3125
  7
STANDARD
100
AcDbText
  0
TEXT
  5
155
100
AcDbEntity
  8
M80
100
AcDbText
 10
247.65
 20
10.75
 40
4.0
  1
田辺　　　
 41
0.625
  7
STANDARD
100
AcDbText
  0
TEXT
  5
156
100
AcDbEntity
  8
M80
100
AcDbText
 10
263.525
 20
10.75
 40
4.0
  1
２００７－０３－１２
 41
0.3125
  7
STANDARD
100
AcDbText
  0
ENDSEC
  0
SECTION
  2
OBJECTS
  0
DICTIONARY
  5
C
100
AcDbDictionary
  3
ACAD_GROUP
350
D
  3
ACAD_MLINESTYLE
350
E
  0
DICTIONARY
  5
D
102
{ACAD_REACTORS
330
C
102
}
100
AcDbDictionary
  0
DICTIONARY
  5
E
102
{ACAD_REACTORS
330
C
102
}
100
AcDbDictionary
  3
STANDARD
350
13
  0
MLINESTYLE
  5
13
102
{ACAD_REACTORS
330
E
102
}
100
AcDbMlineStyle
  2
STANDARD
 70
     0
  3

 62
     0
 51
90.0
 52
90.0
 71
     2
 49
0.5
 62
   256
  6
BYLAYER
 49
-0.5
 62
   256
  6
BYLAYER
  0
ENDSEC
  0
EOF
