  0
SECTION
  2
HEADER
  9
$ACADVER
  1
AC1012
  9
$INSBASE
 10
0.000000
 20
0.000000
 30
0.0
  9
$VIEWCTR
 10
7.531722
 20
4.5
  9
$VIEWSIZE
 40
9.0
  9
$SNAPMODE
 70
     0
  9
$SNAPUNIT
 10
1.0
 20
1.0
  9
$SNAPBASE
 10
0.0
 20
0.0
  9
$SNAPANG
 50
0.0
  9
$SNAPSTYLE
 70
     0
  9
$SNAPISOPAIR
 70
     0
  9
$GRIDMODE
 70
     0
  9
$GRIDUNIT
 10
0.0
 20
0.0
  9
$ORTHOMODE
 70
     0
  9
$REGENMODE
 70
     1
  9
$FILLMODE
 70
     1
  9
$QTEXTMODE
 70
     0
  9
$DRAGMODE
 70
     2
  9
$LTSCALE
  40
     1.000000
  9
$OSMODE
 70
     0
  9
$ATTMODE
 70
     1
  9
$TEXTSIZE
 40
0.2
  9
$TRACEWID
 40
0.05
  9
$TEXTSTYLE
  7
STANDARD
  9
$CELTYPE
  6
BYLAYER
  9
$CECOLOR
 62
   256
  9
$DIMSCALE
 40
1.0
  9
$DIMASZ
 40
0.18
  9
$DIMEXO
 40
0.0625
  9
$DIMDLI
 40
0.38
  9
$DIMRND
 40
0.0
  9
$DIMDLE
 40
0.0
  9
$DIMEXE
 40
0.18
  9
$DIMTP
 40
0.0
  9
$DIMTM
 40
0.0
  9
$DIMTXT
 40
0.18
  9
$DIMCEN
 40
0.09
  9
$DIMTSZ
 40
0.0
  9
$DIMTOL
 70
     0
  9
$DIMLIM
 70
     0
  9
$DIMTIH
 70
     1
  9
$DIMTOH
 70
     1
  9
$DIMSE1
 70
     0
  9
$DIMSE2
 70
     0
  9
$DIMTAD
 70
     0
  9
$DIMZIN
 70
     0
  9
$DIMBLK
  1

  9
$LUNITS
 70
     2
  9
$LUPREC
 70
     4
  9
$AXISMODE
 70
     0
  9
$AXISUNIT
 10
0.0
 20
0.0
  9
$SKETCHINC
 40
0.1
  9
$FILLETRAD
 40
0.0
  9
$AUNITS
 70
     0
  9
$AUPREC
 70
     0
  9
$MENU
  1
ACAD
  9
$ELEVATION
 40
0.0
  9
$THICKNESS
 40
0.0
  9
$VIEWDIR
 10
0.0
 20
0.0
 30
1.0
  9
$LIMCHECK
 70
     0
  9
$BLIPMODE
 70
     1
  9
$CHAMFERA
 40
0.0
  9
$CHAMFERB
 40
0.0
  9
$FASTZOOM
 70
     1
  9
$SKPOLY
 70
     0
  9
$TDCREATE
 40
0000000.0000000000
  9
$TDUPDATE
 40
0000000.0000000000
  9
$TDINDWG
 40
0.0000000000
  9
$TDUSRTIMER
 40
0.0000000000
  9
$USRTIMER
 70
     1
  9
$ANGBASE
 50
0.0
  9
$ANGDIR
 70
     0
  9
$PDMODE
 70
     0
  9
$PDSIZE
 40
0.0
  9
$PLINEWID
 40
0.0
  9
$COORDS
 70
     0
  9
$USERI1
 70
     0
  9
$USERI2
 70
     0
  9
$USERI3
 70
     0
  9
$USERI4
 70
     0
  9
$USERI5
 70
     0
  9
$USERR1
 40
0.0
  9
$USERR2
 40
0.0
  9
$USERR3
 40
0.0
  9
$USERR4
 40
0.0
  9
$USERR5
 40
0.0
  9
$CLAYER
  8
M0
  9
$EXTMIN
 10
0.0
 20
0.0
  9
$EXTMAX
 10
420.0
 20
297.0
  9
$LIMMIN
 10
0.0
 20
0.0
  9
$LIMMAX
 10
420.0
 20
297.0
  9
$HANDSEED
  5
E0
  0
ENDSEC
  0
SECTION
  2
CLASSES
  0
ENDSEC
  0
SECTION
  2
TABLES
  0
TABLE
  2
VPORT
  5
8
100
AcDbSymbolTable
 70
     2
  0
VPORT
  5
14
100
AcDbSymbolTableRecord
100
AcDbViewportTableRecord
  2
*ACTIVE
 70
     0
 10
0.0
 20
0.0
 11
1.0
 21
1.0
 12
484.0
 22
297.0
 13
0.0
 23
0.0
 14
1.0
 24
1.0
 15
0.0
 25
0.0
 16
0.0
 26
0.0
 36
1.0
 17
0.0
 27
0.0
 37
0.0
 40
594.0
 41
2.0
 42
50.0
 43
0.0
 44
0.0
 50
0.0
 51
0.0
 71
     0
 72
   100
 73
     1
 74
     1
 75
     0
 76
     0
 77
     0
 78
     0
  0
ENDTAB
  0
TABLE
  2
LTYPE
  5
5
100
AcDbSymbolTable
 70
     5
  0
LTYPE
  5
15
100
AcDbSymbolTableRecord
100
AcDbLinetypeTableRecord
  2
BYBLOCK
 70
     0
  3

 72
    65
 73
     0
 40
0.0
  0
LTYPE
  5
16
100
AcDbSymbolTableRecord
100
AcDbLinetypeTableRecord
  2
BYLAYER
 70
     0
  3

 72
    65
 73
     0
 40
0.0
  0
LTYPE
  5
17
100
AcDbSymbolTableRecord
100
AcDbLinetypeTableRecord
  2
CONTINUOUS
 70
    64
  3
Solid line
 72
    65
 73
     0
 40
0.0
  0
LTYPE
  5
18
100
AcDbSymbolTableRecord
100
AcDbLinetypeTableRecord
  2
DASHED
 70
    64
  3
__ __ __ __ __ __ __ __ __ __ __ __ __ __ __ __
 72
    65
 73
     2
 40
0.75
 49
0.5
 74
     0
 49
-0.25
 74
     0
  0
LTYPE
  5
19
100
AcDbSymbolTableRecord
100
AcDbLinetypeTableRecord
  2
DASHDOT
 70
    64
  3
__ . __ . __ . __ . __ . __ . __ . __ . __ . __
 72
    65
 73
     4
 40
1.0
 49
0.5
 74
     0
 49
-0.25
 74
     0
 49
0.0
 74
     0
 49
-0.25
 74
     0
  0
LTYPE
  5
1A
100
AcDbSymbolTableRecord
100
AcDbLinetypeTableRecord
  2
DIVIDE
 70
    64
  3
____ . . ____ . . ____ . . ____ . . ____ . . __
 72
    65
 73
     6
 40
1.25
 49
0.5
 74
     0
 49
-0.25
 74
     0
 49
0.0
 74
     0
 49
-0.25
 74
     0
 49
0.0
 74
     0
 49
-0.25
 74
     0
  0
LTYPE
  5
1B
100
AcDbSymbolTableRecord
100
AcDbLinetypeTableRecord
  2
DOT
 70
    64
  3
. . . . . . . . . . . . . . . . . . . . . . . .
 72
    65
 73
     2
 40
0.25
 49
0.0
 74
     0
 49
-0.25
 74
     0
  0
ENDTAB
  0
TABLE
  2
LAYER
  5
2
100
AcDbSymbolTable
 70
   102
  0
LAYER
  5
F
100
AcDbSymbolTableRecord
100
AcDbLayerTableRecord
  2
0
 70
     0
 62
     7
  6
CONTINUOUS
  0
LAYER
  5
1C
100
AcDbSymbolTableRecord
100
AcDbLayerTableRecord
  2
DEFPOINTS
 70
     0
 62
     7
  6
CONTINUOUS
  0
LAYER
  5
1D
100
AcDbSymbolTableRecord
100
AcDbLayerTableRecord
  2
M0
 70
     0
 62
     3
  6
CONTINUOUS
  0
LAYER
  5
1E
100
AcDbSymbolTableRecord
100
AcDbLayerTableRecord
  2
DD0
 70
     0
 62
     4
  6
CONTINUOUS
  0
ENDTAB
  0
TABLE
  2
STYLE
  5
3
100
AcDbSymbolTable
 70
     2
  0
STYLE
  5
10
100
AcDbSymbolTableRecord
100
AcDbTextStyleTableRecord
  2
STANDARD
 70
     0
 40
0.0
 41
1.0
 50
0.0
 71
     0
 42
0.2
  3
txt
  4
BIGFONT
  0
ENDTAB
  0
TABLE
  2
VIEW
  5
6
100
AcDbSymbolTable
 70
     0
  0
ENDTAB
  0
TABLE
  2
UCS
  5
7
100
AcDbSymbolTable
 70
     0
  0
ENDTAB
  0
TABLE
  2
APPID
  5
9
100
AcDbSymbolTable
 70
     1
  0
APPID
  5
11
100
AcDbSymbolTableRecord
100
AcDbRegAppTableRecord
  2
ACAD
 70
     0
  0
ENDTAB
  0
TABLE
  2
DIMSTYLE
  5
A
100
AcDbSymbolTable
 70
     2
  0
DIMSTYLE
105
25
100
AcDbSymbolTableRecord
100
AcDbDimStyleTableRecord
  2
STANDARD
 70
     0
  3

  4

  5

  6
_OPEN
  7
_OPEN
 40
1.0
 41
3.0
 42
0.0
 43
8.0
 44
1.5
 45
0.0
 46
0.0
 47
0.0
 48
0.0
140
3.5
141
0.09
142
0.0
143
0.03937
144
1.0
145
0.0
146
1.0
147
1.0
 71
     0
 72
     0
 73
     1
 74
     1
 75
     0
 76
     0
 77
     3
 78
     8
170
     0
171
     2
172
     0
173
     1
174
     0
175
     0
176
     0
177
     0
178
     0
270
     2
271
     2
272
     4
273
     2
274
     2
340
10
275
     0
280
     0
281
     0
282
     0
283
     1
284
     0
285
     0
286
     0
287
     3
288
     0
  0
DIMSTYLE
105
26
100
AcDbSymbolTableRecord
100
AcDbDimStyleTableRecord
  2
LEADSTYL
 70
     0
  3

  4

  5

  6
_OPEN
  7
_OPEN
 40
1.0
 41
3.0
 42
0.0625
 43
0.38
 44
0.18
 45
0.0
 46
0.0
 47
0.0
 48
0.0
140
3.2
141
0.09
142
0.0
143
25.4
144
1.0
145
0.0
146
1.0
147
1.0
 71
     0
 72
     0
 73
     1
 74
     1
 75
     0
 76
     0
 77
     0
 78
     0
170
     0
171
     2
172
     0
173
     1
174
     0
175
     0
176
     0
177
     0
178
     0
270
     2
271
     4
272
     4
273
     2
274
     2
340
10
275
     0
280
     0
281
     0
282
     0
283
     1
284
     0
285
     0
286
     0
287
     3
288
     0
  0
ENDTAB
  0
TABLE
  2
BLOCK_RECORD
  5
1
100
AcDbSymbolTable
 70
     6
  0
BLOCK_RECORD
  5
1F
100
AcDbSymbolTableRecord
100
AcDbBlockTableRecord
  2
*MODEL_SPACE
  0
BLOCK_RECORD
  5
22
100
AcDbSymbolTableRecord
100
AcDbBlockTableRecord
  2
*PAPER_SPACE
  0
BLOCK_RECORD
  5
27
100
AcDbSymbolTableRecord
100
AcDbBlockTableRecord
  2
_NONE
  0
BLOCK_RECORD
  5
2B
100
AcDbSymbolTableRecord
100
AcDbBlockTableRecord
  2
_OPEN
  0
BLOCK_RECORD
  5
31
100
AcDbSymbolTableRecord
100
AcDbBlockTableRecord
  2
_CLOSED
  0
BLOCK_RECORD
  5
38
100
AcDbSymbolTableRecord
100
AcDbBlockTableRecord
  2
_ORIGIN
  0
BLOCK_RECORD
  5
3D
100
AcDbSymbolTableRecord
100
AcDbBlockTableRecord
  2
_DOT
  0
BLOCK_RECORD
  5
45
100
AcDbSymbolTableRecord
100
AcDbBlockTableRecord
  2
_OBLIQUE
  0
ENDTAB
  0
ENDSEC
  0
SECTION
  2
BLOCKS
  0
BLOCK
  5
20
100
AcDbEntity
  8
0
100
AcDbBlockBegin
  2
*MODEL_SPACE
 70
     0
 10
0.0
 20
0.0
 30
0.0
  3
*MODEL_SPACE
  1

  0
ENDBLK
  5
21
100
AcDbEntity
  8
0
100
AcDbBlockEnd
  0
BLOCK
  5
23
100
AcDbEntity
 67
     1
  8
0
100
AcDbBlockBegin
  2
*PAPER_SPACE
 70
     0
 10
0.0
 20
0.0
 30
0.0
  3
*PAPER_SPACE
  1

  0
ENDBLK
  5
24
100
AcDbEntity
 67
     1
  8
0
100
AcDbBlockEnd
  0
BLOCK
  5
28
100
AcDbEntity
  8
0
100
AcDbBlockBegin
  2
_NONE
 70
     0
 10
0.0
 20
0.0
  0
CIRCLE
  5
29
100
AcDbEntity
  8
0
 62
     0
100
AcDbCircle
 10
0.0
 20
0.0
 40
0.25
  0
ENDBLK
  5
2A
100
AcDbEntity
  8
0
100
AcDbBlockEnd
  0
BLOCK
  5
2C
100
AcDbEntity
  8
0
100
AcDbBlockBegin
  2
_OPEN
 70
     0
 10
0.0
 20
0.0
  0
LINE
  5
2D
100
AcDbEntity
  8
0
 62
     0
100
AcDbLine
 10
-0.965926
 20
0.258819
 11
0.0
 21
0.0
  0
LINE
  5
2E
100
AcDbEntity
  8
0
 62
     0
100
AcDbLine
 10
0.0
 20
0.0
 11
-0.965926
 21
-0.258819
  0
LINE
  5
2F
100
AcDbEntity
  8
0
 62
     0
100
AcDbLine
 10
0.0
 20
0.0
 11
-1.0
 21
0.0
  0
ENDBLK
  5
30
100
AcDbEntity
  8
0
100
AcDbBlockEnd
  0
BLOCK
  5
32
100
AcDbEntity
  8
0
100
AcDbBlockBegin
  2
_CLOSED
 70
     0
 10
0.0
 20
0.0
  0
LINE
  5
33
100
AcDbEntity
  8
0
 62
     0
100
AcDbLine
 10
-0.965926
 20
0.258819
 11
0.0
 21
0.0
  0
LINE
  5
34
100
AcDbEntity
  8
0
 62
     0
100
AcDbLine
 10
0.0
 20
0.0
 11
-0.965926
 21
-0.258819
  0
LINE
  5
35
100
AcDbEntity
  8
0
 62
     0
100
AcDbLine
 10
-0.965926
 20
0.258819
 11
-0.965926
 21
-0.258819
  0
LINE
  5
36
100
AcDbEntity
  8
0
 62
     0
100
AcDbLine
 10
0.0
 20
0.0
 11
-1.0
 21
0.0
  0
ENDBLK
  5
37
100
AcDbEntity
  8
0
100
AcDbBlockEnd
  0
BLOCK
  5
39
100
AcDbEntity
  8
0
100
AcDbBlockBegin
  2
_ORIGIN
 70
     0
 10
0.0
 20
0.0
  0
CIRCLE
  5
3A
100
AcDbEntity
  8
0
 62
     0
100
AcDbCircle
 10
0.0
 20
0.0
 40
0.5
  0
LINE
  5
3B
100
AcDbEntity
  8
0
 62
     0
100
AcDbLine
 10
0.0
 20
0.0
 11
-1.0
 21
0.0
  0
ENDBLK
  5
3C
100
AcDbEntity
  8
0
100
AcDbBlockEnd
  0
BLOCK
  5
3E
100
AcDbEntity
  8
0
100
AcDbBlockBegin
  2
_DOT
 70
     0
 10
0.0
 20
0.0
  0
POLYLINE
  5
3F
100
AcDbEntity
  8
0
 62
     0
100
AcDb2dPolyline
 66
     1
 70
     1
 40
0.5
 41
0.5
  0
VERTEX
  5
40
100
AcDbEntity
  8
0
 62
     0
100
AcDbVertex
100
AcDb2dVertex
 10
-0.25
 20
0.0
 42
1.0
  0
VERTEX
  5
41
100
AcDbEntity
  8
0
 62
     0
100
AcDbVertex
100
AcDb2dVertex
 10
0.25
 20
0.0
 42
1.0
  0
SEQEND
  5
42
100
AcDbEntity
  8
0
 62
     0
  0
LINE
  5
43
100
AcDbEntity
  8
0
 62
     0
100
AcDbLine
 10
-0.5
 20
0.0
 11
-1.0
 21
0.0
  0
ENDBLK
  5
44
100
AcDbEntity
  8
0
100
AcDbBlockEnd
  0
BLOCK
  5
46
100
AcDbEntity
  8
0
100
AcDbBlockBegin
  2
_OBLIQUE
 70
     0
 10
0.0
 20
0.0
  0
LINE
  5
47
100
AcDbEntity
  8
0
 62
     0
100
AcDbLine
 10
-0.353553
 20
-0.353553
 11
0.353553
 21
0.353553
  0
ENDBLK
  5
48
100
AcDbEntity
  8
0
100
AcDbBlockEnd
  0
ENDSEC
  0
SECTION
  2
ENTITIES
  0
LEADER
  5
49
100
AcDbEntity
  8
DD0
100
AcDbLeader
  3
LEADSTYL
 76
     3
 10
161.666336
 20
105.837936
 10
172.247635
 20
121.244476
 10
226.747635
 20
121.244476
340
4A
 77
     4
  0
TEXT
  5
4A
100
AcDbEntity
  8
DD0
100
AcDbText
 10
173.539302
 20
122.244476
 40
3.5
  1
「標準」ＯＦＦ圧　１７０ｋＰａ
 41
0.833333
  7
STANDARD
100
AcDbText
  0
LEADER
  5
4B
100
AcDbEntity
  8
DD0
100
AcDbLeader
  3
LEADSTYL
 76
     3
 10
46.572495
 20
217.026047
 10
59.059769
 20
231.734207
 10
113.559769
 20
231.734207
340
4C
 77
     4
  0
TEXT
  5
4C
100
AcDbEntity
  8
DD0
100
AcDbText
 10
60.351435
 20
232.734207
 40
3.5
  1
「標準」ＯＦＦ圧　１７０ｋＰａ
 41
0.833333
  7
STANDARD
100
AcDbText
  0
LEADER
  5
4D
100
AcDbEntity
  8
DD0
100
AcDbLeader
  3
LEADSTYL
 76
     3
 10
45.192081
 20
221.226044
 10
48.06078
 20
244.896469
 10
99.060783
 20
244.896469
340
4E
 77
     4
  0
TEXT
  5
4E
100
AcDbEntity
  8
DD0
100
AcDbText
 10
49.352446
 20
245.896469
 40
3.5
  1
「高」ＯＦＦ圧　２００ｋＰａ
 41
0.833333
  7
STANDARD
100
AcDbText
  0
LEADER
  5
4F
100
AcDbEntity
  8
DD0
100
AcDbLeader
  3
LEADSTYL
 76
     3
 10
47.399364
 20
105.837936
 10
54.207832
 20
119.469627
 10
108.707832
 20
119.469627
340
50
 77
     4
  0
TEXT
  5
50
100
AcDbEntity
  8
DD0
100
AcDbText
 10
55.499499
 20
120.469627
 40
3.5
  1
「標準」ＯＦＦ圧　１７０ｋＰａ
 41
0.833333
  7
STANDARD
100
AcDbText
  0
LEADER
  5
51
100
AcDbEntity
  8
DD0
100
AcDbLeader
  3
LEADSTYL
 76
     3
 10
45.059399
 20
110.037933
 10
44.440445
 20
128.753906
 10
95.440445
 20
128.753906
340
52
 77
     4
  0
TEXT
  5
52
100
AcDbEntity
  8
DD0
100
AcDbText
 10
45.732112
 20
129.753906
 40
3.5
  1
「高」ＯＦＦ圧　２００ｋＰａ
 41
0.833333
  7
STANDARD
100
AcDbText
  0
LEADER
  5
53
100
AcDbEntity
  8
DD0
100
AcDbLeader
  3
LEADSTYL
 76
     3
 10
159.5
 20
110.037933
 10
161.047379
 20
129.682327
 10
212.047379
 20
129.682327
340
54
 77
     4
  0
TEXT
  5
54
100
AcDbEntity
  8
DD0
100
AcDbText
 10
162.339045
 20
130.682327
 40
3.5
  1
「高」ＯＦＦ圧　２００ｋＰａ
 41
0.833333
  7
STANDARD
100
AcDbText
  0
LEADER
  5
55
100
AcDbEntity
  8
DD0
100
AcDbLeader
  3
LEADSTYL
 76
     3
 10
52.884933
 20
210.026047
 10
67.577393
 20
220.171997
 10
118.577393
 20
220.171997
340
56
 77
     4
  0
TEXT
  5
56
100
AcDbEntity
  8
DD0
100
AcDbText
 10
68.869059
 20
221.171997
 40
3.5
  1
「低」ＯＦＦ圧　１２０ｋＰａ
 41
0.833333
  7
STANDARD
100
AcDbText
  0
LEADER
  5
57
100
AcDbEntity
  8
DD0
100
AcDbLeader
  3
LEADSTYL
 76
     3
 10
53.406799
 20
98.837936
 10
66.546448
 20
111.687569
 10
117.546448
 20
111.687569
340
58
 77
     4
  0
TEXT
  5
58
100
AcDbEntity
  8
DD0
100
AcDbText
 10
67.838114
 20
112.687569
 40
3.5
  1
「低」ＯＦＦ圧　１２０ｋＰａ
 41
0.833333
  7
STANDARD
100
AcDbText
  0
LEADER
  5
59
100
AcDbEntity
  8
DD0
100
AcDbLeader
  3
LEADSTYL
 76
     3
 10
167.012024
 20
98.837936
 10
182.37117
 20
111.474884
 10
233.37117
 20
111.474884
340
5A
 77
     4
  0
TEXT
  5
5A
100
AcDbEntity
  8
DD0
100
AcDbText
 10
183.662837
 20
112.474884
 40
3.5
  1
「低」ＯＦＦ圧　１２０ｋＰａ
 41
0.833333
  7
STANDARD
100
AcDbText
  0
TEXT
  5
5B
100
AcDbEntity
  8
M0
100
AcDbText
 10
158.784009
 20
143.81182
 40
3.528
  1
吸上高さ１２ｍ時
 41
0.777778
  7
STANDARD
100
AcDbText
  0
TEXT
  5
5C
100
AcDbEntity
  8
M0
100
AcDbText
 10
155.356812
 20
148.746994
 40
3.528
  1
【深井戸用特殊ジェットＪ１５－１２ＳＸ組合わせ時】
 41
0.777778
  7
STANDARD
100
AcDbText
  0
TEXT
  5
5D
100
AcDbEntity
  8
M0
100
AcDbText
 10
43.331062
 20
261.999923
 40
3.528
  1
吸上高さ７ｍ時
 41
0.777778
  7
STANDARD
100
AcDbText
  0
TEXT
  5
5E
100
AcDbEntity
  8
M0
100
AcDbText
 10
39.903864
 20
266.935091
 40
3.528
  1
【標準ジェットＪ１５－７Ｙ組合わせ時】
 41
0.777778
  7
STANDARD
100
AcDbText
  0
LINE
  5
5F
100
AcDbEntity
  8
M0
  6
DASHED
 62
     2
100
AcDbLine
 10
157.024194
 20
105.837933
 11
164.946517
 21
105.837933
  0
TEXT
  5
60
100
AcDbEntity
  8
M0
100
AcDbText
 10
33.358707
 20
86.029397
 40
3.6
  1
（　）
 50
90.000003
 41
0.63786
  7
STANDARD
100
AcDbText
  0
TEXT
  5
61
100
AcDbEntity
  8
M0
100
AcDbText
 10
30.090286
 20
103.637934
 40
3.6
  1
全
 41
0.833333
  7
STANDARD
100
AcDbText
  0
TEXT
  5
62
100
AcDbEntity
  8
M0
100
AcDbText
 10
30.090286
 20
99.882378
 40
3.6
  1
揚
 41
0.833333
  7
STANDARD
100
AcDbText
  0
TEXT
  5
63
100
AcDbEntity
  8
M0
100
AcDbText
 10
30.090286
 20
96.126823
 40
3.6
  1
程
 41
0.833333
  7
STANDARD
100
AcDbText
  0
TEXT
  5
64
100
AcDbEntity
  8
M0
100
AcDbText
 10
30.090286
 20
92.371267
 40
3.6
  1
　
 41
0.833333
  7
STANDARD
100
AcDbText
  0
TEXT
  5
65
100
AcDbEntity
  8
M0
100
AcDbText
 10
30.090286
 20
88.615712
 40
3.6
  1
ｍ
 41
0.833333
  7
STANDARD
100
AcDbText
  0
TEXT
  5
66
100
AcDbEntity
  8
M0
100
AcDbText
 10
38.295967
 20
63.164854
 40
3.6
  1
０
 41
0.601852
  7
STANDARD
100
AcDbText
  0
TEXT
  5
67
100
AcDbEntity
  8
M0
100
AcDbText
 10
35.947224
 20
77.528911
 40
3.6
  1
１０
 41
0.601852
  7
STANDARD
100
AcDbText
  0
TEXT
  5
68
100
AcDbEntity
  8
M0
100
AcDbText
 10
35.947224
 20
91.528917
 40
3.6
  1
２０
 41
0.601852
  7
STANDARD
100
AcDbText
  0
TEXT
  5
69
100
AcDbEntity
  8
M0
100
AcDbText
 10
35.947224
 20
105.528917
 40
3.6
  1
３０
 41
0.601852
  7
STANDARD
100
AcDbText
  0
TEXT
  5
6A
100
AcDbEntity
  8
M0
100
AcDbText
 10
35.845674
 20
119.440819
 40
3.6
  1
４０
 41
0.601852
  7
STANDARD
100
AcDbText
  0
TEXT
  5
6B
100
AcDbEntity
  8
M0
100
AcDbText
 10
69.723094
 20
56.064396
 40
3.6
  1
揚水量（Ｌ／分）
 41
0.63786
  7
STANDARD
100
AcDbText
  0
TEXT
  5
6C
100
AcDbEntity
  8
M0
100
AcDbText
 10
40.411836
 20
60.564854
 40
3.6
  1
０
 41
0.601852
  7
STANDARD
100
AcDbText
  0
TEXT
  5
6D
100
AcDbEntity
  8
M0
100
AcDbText
 10
53.429423
 20
60.564854
 40
3.6
  1
１０
 41
0.601852
  7
STANDARD
100
AcDbText
  0
TEXT
  5
6E
100
AcDbEntity
  8
M0
100
AcDbText
 10
67.429426
 20
60.564854
 40
3.6
  1
２０
 41
0.601852
  7
STANDARD
100
AcDbText
  0
TEXT
  5
6F
100
AcDbEntity
  8
M0
100
AcDbText
 10
81.429423
 20
60.564854
 40
3.6
  1
３０
 41
0.601852
  7
STANDARD
100
AcDbText
  0
TEXT
  5
70
100
AcDbEntity
  8
M0
100
AcDbText
 10
95.42942
 20
60.564854
 40
3.6
  1
４０
 41
0.601852
  7
STANDARD
100
AcDbText
  0
TEXT
  5
71
100
AcDbEntity
  8
M0
100
AcDbText
 10
109.42942
 20
60.564854
 40
3.6
  1
５０
 41
0.601852
  7
STANDARD
100
AcDbText
  0
LINE
  5
72
100
AcDbEntity
  8
M0
 62
   234
100
AcDbLine
 10
41.571243
 20
124.556867
 11
41.571243
 21
65.237933
  0
LINE
  5
73
100
AcDbEntity
  8
M0
 62
   234
100
AcDbLine
 10
116.392289
 20
65.237933
 11
41.571243
 21
65.237933
  0
LINE
  5
74
100
AcDbEntity
  8
M0
 62
   234
100
AcDbLine
 10
55.571243
 20
114.879307
 11
55.571243
 21
65.237933
  0
LINE
  5
75
100
AcDbEntity
  8
M0
 62
   234
100
AcDbLine
 10
69.571243
 20
108.637933
 11
69.571243
 21
65.237933
  0
LINE
  5
76
100
AcDbEntity
  8
M0
 62
   234
100
AcDbLine
 10
41.571243
 20
79.237933
 11
116.392289
 21
79.237933
  0
LINE
  5
77
100
AcDbEntity
  8
M0
 62
   234
100
AcDbLine
 10
41.571243
 20
93.237933
 11
94.147069
 21
93.237933
  0
LINE
  5
78
100
AcDbEntity
  8
M0
 62
   234
100
AcDbLine
 10
41.571243
 20
107.237933
 11
115.922366
 21
107.237933
  0
LINE
  5
79
100
AcDbEntity
  8
M0
 62
   234
100
AcDbLine
 10
83.571243
 20
108.637933
 11
83.571243
 21
65.237933
  0
LINE
  5
7A
100
AcDbEntity
  8
M0
 62
   234
100
AcDbLine
 10
41.571243
 20
93.237933
 11
116.392289
 21
93.237933
  0
LINE
  5
7B
100
AcDbEntity
  8
M0
 62
   234
100
AcDbLine
 10
97.571243
 20
65.237933
 11
97.571243
 21
108.637933
  0
LINE
  5
7C
100
AcDbEntity
  8
M0
 62
   234
100
AcDbLine
 10
41.571243
 20
121.237933
 11
52.818745
 21
121.237933
  0
LINE
  5
7D
100
AcDbEntity
  8
M0
 62
   234
100
AcDbLine
 10
111.571243
 20
65.237933
 11
111.571243
 21
108.637933
  0
LINE
  5
7E
100
AcDbEntity
  8
M0
  6
DASHED
 62
     2
100
AcDbLine
 10
41.571245
 20
217.026042
 11
54.023009
 21
217.026042
  0
LINE
  5
7F
100
AcDbEntity
  8
M0
  6
DASHED
 62
     1
100
AcDbLine
 10
41.571245
 20
221.226042
 11
50.205099
 21
221.226042
  0
LINE
  5
80
100
AcDbEntity
  8
M0
  6
DASHED
 62
     2
100
AcDbLine
 10
41.571243
 20
105.837933
 11
51.74099
 21
105.837933
  0
LINE
  5
81
100
AcDbEntity
  8
M0
  6
DASHED
 62
     1
100
AcDbLine
 10
41.571243
 20
110.037933
 11
46.881486
 21
110.037933
  0
LINE
  5
82
100
AcDbEntity
  8
M0
 62
   234
100
AcDbLine
 10
157.024194
 20
124.556867
 11
157.024194
 21
65.237933
  0
LINE
  5
83
100
AcDbEntity
  8
M0
 62
   234
100
AcDbLine
 10
231.84524
 20
65.237933
 11
157.024194
 21
65.237933
  0
LINE
  5
84
100
AcDbEntity
  8
M0
 62
   234
100
AcDbLine
 10
171.024194
 20
114.879307
 11
171.024194
 21
65.237933
  0
LINE
  5
85
100
AcDbEntity
  8
M0
 62
   234
100
AcDbLine
 10
185.024194
 20
108.637933
 11
185.024194
 21
65.237933
  0
LINE
  5
86
100
AcDbEntity
  8
M0
 62
   234
100
AcDbLine
 10
157.024194
 20
79.237933
 11
231.84524
 21
79.237933
  0
LINE
  5
87
100
AcDbEntity
  8
M0
 62
   234
100
AcDbLine
 10
157.024194
 20
93.237933
 11
209.60002
 21
93.237933
  0
LINE
  5
88
100
AcDbEntity
  8
M0
 62
   234
100
AcDbLine
 10
157.024194
 20
107.237933
 11
231.375317
 21
107.237933
  0
LINE
  5
89
100
AcDbEntity
  8
M0
 62
   234
100
AcDbLine
 10
199.024194
 20
108.637933
 11
199.024194
 21
65.237933
  0
LINE
  5
8A
100
AcDbEntity
  8
M0
 62
   234
100
AcDbLine
 10
157.024194
 20
93.237933
 11
231.84524
 21
93.237933
  0
LINE
  5
8B
100
AcDbEntity
  8
M0
 62
   234
100
AcDbLine
 10
213.024194
 20
65.237933
 11
213.024194
 21
108.637933
  0
LINE
  5
8C
100
AcDbEntity
  8
M0
 62
   234
100
AcDbLine
 10
157.024194
 20
121.237933
 11
168.271696
 21
121.237933
  0
LINE
  5
8D
100
AcDbEntity
  8
M0
 62
   234
100
AcDbLine
 10
227.024194
 20
65.237933
 11
227.024194
 21
108.637933
  0
TEXT
  5
8E
100
AcDbEntity
  8
M0
100
AcDbText
 10
69.723094
 20
174.252505
 40
3.6
  1
揚水量（Ｌ／分）
 41
0.63786
  7
STANDARD
100
AcDbText
  0
TEXT
  5
8F
100
AcDbEntity
  8
M0
100
AcDbText
 10
40.411836
 20
178.752962
 40
3.6
  1
０
 41
0.601852
  7
STANDARD
100
AcDbText
  0
TEXT
  5
90
100
AcDbEntity
  8
M0
100
AcDbText
 10
53.429426
 20
178.752962
 40
3.6
  1
１０
 41
0.601852
  7
STANDARD
100
AcDbText
  0
TEXT
  5
91
100
AcDbEntity
  8
M0
100
AcDbText
 10
67.429426
 20
178.752962
 40
3.6
  1
２０
 41
0.601852
  7
STANDARD
100
AcDbText
  0
TEXT
  5
92
100
AcDbEntity
  8
M0
100
AcDbText
 10
81.429426
 20
178.752962
 40
3.6
  1
３０
 41
0.601852
  7
STANDARD
100
AcDbText
  0
TEXT
  5
93
100
AcDbEntity
  8
M0
100
AcDbText
 10
95.42942
 20
178.752962
 40
3.6
  1
４０
 41
0.601852
  7
STANDARD
100
AcDbText
  0
TEXT
  5
94
100
AcDbEntity
  8
M0
100
AcDbText
 10
109.429423
 20
178.752962
 40
3.6
  1
５０
 41
0.601852
  7
STANDARD
100
AcDbText
  0
LINE
  5
95
100
AcDbEntity
  8
M0
 62
   234
100
AcDbLine
 10
41.571245
 20
242.744976
 11
41.571245
 21
183.426042
  0
LINE
  5
96
100
AcDbEntity
  8
M0
 62
   234
100
AcDbLine
 10
116.392291
 20
183.426042
 11
41.571245
 21
183.426042
  0
LINE
  5
97
100
AcDbEntity
  8
M0
 62
   234
100
AcDbLine
 10
55.571245
 20
234.052532
 11
55.571245
 21
183.426042
  0
LINE
  5
98
100
AcDbEntity
  8
M0
 62
   234
100
AcDbLine
 10
69.571245
 20
215.041296
 11
69.571245
 21
183.426042
  0
LINE
  5
99
100
AcDbEntity
  8
M0
 62
   234
100
AcDbLine
 10
41.571245
 20
197.426042
 11
116.392291
 21
197.426042
  0
LINE
  5
9A
100
AcDbEntity
  8
M0
 62
   234
100
AcDbLine
 10
41.571245
 20
211.426042
 11
94.147071
 21
211.426042
  0
LINE
  5
9B
100
AcDbEntity
  8
M0
 62
   234
100
AcDbLine
 10
41.571245
 20
225.426042
 11
62.892675
 21
225.426042
  0
LINE
  5
9C
100
AcDbEntity
  8
M0
 62
   234
100
AcDbLine
 10
83.571245
 20
215.041296
 11
83.571245
 21
183.426042
  0
LINE
  5
9D
100
AcDbEntity
  8
M0
 62
   234
100
AcDbLine
 10
41.571245
 20
211.426042
 11
116.392291
 21
211.426042
  0
LINE
  5
9E
100
AcDbEntity
  8
M0
 62
   234
100
AcDbLine
 10
97.571245
 20
183.426042
 11
97.571245
 21
215.041296
  0
LINE
  5
9F
100
AcDbEntity
  8
M0
 62
   234
100
AcDbLine
 10
41.571245
 20
239.426042
 11
52.750599
 21
239.426042
  0
LINE
  5
A0
100
AcDbEntity
  8
M0
 62
   234
100
AcDbLine
 10
111.571245
 20
183.426042
 11
111.571245
 21
215.041296
  0
LINE
  5
A1
100
AcDbEntity
  8
M0
 62
   234
100
AcDbLine
 10
61.171243
 20
82.037933
 11
61.171243
 21
82.424027
  0
LINE
  5
A2
100
AcDbEntity
  8
M0
100
AcDbLine
 10
60.019153
 20
282.590192
 11
30.019153
 21
282.590192
  0
LINE
  5
A3
100
AcDbEntity
  8
M0
100
AcDbLine
 10
60.019153
 20
272.590192
 11
60.019153
 21
282.590192
  0
LINE
  5
A4
100
AcDbEntity
  8
M0
100
AcDbLine
 10
30.019153
 20
272.590192
 11
60.019153
 21
272.590192
  0
LINE
  5
A5
100
AcDbEntity
  8
M0
100
AcDbLine
 10
30.019153
 20
282.590192
 11
30.019153
 21
272.590192
  0
TEXT
  5
A6
100
AcDbEntity
  8
M0
100
AcDbText
 10
32.44582
 20
274.090192
 40
7.0
  1
揚水性能
 41
0.780952
  7
STANDARD
100
AcDbText
  0
TEXT
  5
A7
100
AcDbEntity
  8
M0
100
AcDbText
 10
33.358707
 20
204.217505
 40
3.6
  1
（　）
 50
90.000003
 41
0.63786
  7
STANDARD
100
AcDbText
  0
TEXT
  5
A8
100
AcDbEntity
  8
M0
100
AcDbText
 10
30.090286
 20
221.826042
 40
3.6
  1
全
 41
0.833333
  7
STANDARD
100
AcDbText
  0
TEXT
  5
A9
100
AcDbEntity
  8
M0
100
AcDbText
 10
30.090286
 20
218.070487
 40
3.6
  1
揚
 41
0.833333
  7
STANDARD
100
AcDbText
  0
TEXT
  5
AA
100
AcDbEntity
  8
M0
100
AcDbText
 10
30.090286
 20
214.314931
 40
3.6
  1
程
 41
0.833333
  7
STANDARD
100
AcDbText
  0
TEXT
  5
AB
100
AcDbEntity
  8
M0
100
AcDbText
 10
30.090286
 20
210.559376
 40
3.6
  1
　
 41
0.833333
  7
STANDARD
100
AcDbText
  0
TEXT
  5
AC
100
AcDbEntity
  8
M0
100
AcDbText
 10
30.090286
 20
206.803821
 40
3.6
  1
ｍ
 41
0.833333
  7
STANDARD
100
AcDbText
  0
TEXT
  5
AD
100
AcDbEntity
  8
M0
100
AcDbText
 10
38.295967
 20
181.352962
 40
3.6
  1
０
 41
0.601852
  7
STANDARD
100
AcDbText
  0
TEXT
  5
AE
100
AcDbEntity
  8
M0
100
AcDbText
 10
35.947224
 20
195.717019
 40
3.6
  1
１０
 41
0.601852
  7
STANDARD
100
AcDbText
  0
TEXT
  5
AF
100
AcDbEntity
  8
M0
100
AcDbText
 10
35.947224
 20
209.717024
 40
3.6
  1
２０
 41
0.601852
  7
STANDARD
100
AcDbText
  0
TEXT
  5
B0
100
AcDbEntity
  8
M0
100
AcDbText
 10
35.947224
 20
223.717024
 40
3.6
  1
３０
 41
0.601852
  7
STANDARD
100
AcDbText
  0
TEXT
  5
B1
100
AcDbEntity
  8
M0
100
AcDbText
 10
35.845674
 20
237.628929
 40
3.6
  1
４０
 41
0.601852
  7
STANDARD
100
AcDbText
  0
TEXT
  5
B2
100
AcDbEntity
  8
M0
100
AcDbText
 10
43.331062
 20
143.811826
 40
3.528
  1
吸上高さ１２ｍ時
 41
0.777778
  7
STANDARD
100
AcDbText
  0
TEXT
  5
B3
100
AcDbEntity
  8
M0
100
AcDbText
 10
39.903858
 20
148.746994
 40
3.528
  1
【標準ジェットＪ１５－７Ｙ組合わせ時】
 41
0.777778
  7
STANDARD
100
AcDbText
  0
TEXT
  5
B4
100
AcDbEntity
  8
M0
100
AcDbText
 10
155.864787
 20
60.564854
 40
3.6
  1
０
 41
0.601852
  7
STANDARD
100
AcDbText
  0
TEXT
  5
B5
100
AcDbEntity
  8
M0
100
AcDbText
 10
168.882374
 20
60.564854
 40
3.6
  1
１０
 41
0.601852
  7
STANDARD
100
AcDbText
  0
TEXT
  5
B6
100
AcDbEntity
  8
M0
100
AcDbText
 10
182.882377
 20
60.564854
 40
3.6
  1
２０
 41
0.601852
  7
STANDARD
100
AcDbText
  0
TEXT
  5
B7
100
AcDbEntity
  8
M0
100
AcDbText
 10
196.882374
 20
60.564854
 40
3.6
  1
３０
 41
0.601852
  7
STANDARD
100
AcDbText
  0
TEXT
  5
B8
100
AcDbEntity
  8
M0
100
AcDbText
 10
210.882371
 20
60.564854
 40
3.6
  1
４０
 41
0.601852
  7
STANDARD
100
AcDbText
  0
TEXT
  5
B9
100
AcDbEntity
  8
M0
100
AcDbText
 10
224.882371
 20
60.564854
 40
3.6
  1
５０
 41
0.601852
  7
STANDARD
100
AcDbText
  0
TEXT
  5
BA
100
AcDbEntity
  8
M0
100
AcDbText
 10
185.176045
 20
56.064396
 40
3.6
  1
揚水量（Ｌ／分）
 41
0.63786
  7
STANDARD
100
AcDbText
  0
TEXT
  5
BB
100
AcDbEntity
  8
M0
100
AcDbText
 10
153.748918
 20
63.164854
 40
3.6
  1
０
 41
0.601852
  7
STANDARD
100
AcDbText
  0
TEXT
  5
BC
100
AcDbEntity
  8
M0
100
AcDbText
 10
151.400175
 20
77.528911
 40
3.6
  1
１０
 41
0.601852
  7
STANDARD
100
AcDbText
  0
TEXT
  5
BD
100
AcDbEntity
  8
M0
100
AcDbText
 10
151.400175
 20
91.528917
 40
3.6
  1
２０
 41
0.601852
  7
STANDARD
100
AcDbText
  0
TEXT
  5
BE
100
AcDbEntity
  8
M0
100
AcDbText
 10
151.400175
 20
105.528917
 40
3.6
  1
３０
 41
0.601852
  7
STANDARD
100
AcDbText
  0
TEXT
  5
BF
100
AcDbEntity
  8
M0
100
AcDbText
 10
151.298625
 20
119.440819
 40
3.6
  1
４０
 41
0.601852
  7
STANDARD
100
AcDbText
  0
TEXT
  5
C0
100
AcDbEntity
  8
M0
100
AcDbText
 10
148.811658
 20
86.029397
 40
3.6
  1
（　）
 50
90.000003
 41
0.63786
  7
STANDARD
100
AcDbText
  0
TEXT
  5
C1
100
AcDbEntity
  8
M0
100
AcDbText
 10
145.543237
 20
103.637934
 40
3.6
  1
全
 41
0.833333
  7
STANDARD
100
AcDbText
  0
TEXT
  5
C2
100
AcDbEntity
  8
M0
100
AcDbText
 10
145.543237
 20
99.882378
 40
3.6
  1
揚
 41
0.833333
  7
STANDARD
100
AcDbText
  0
TEXT
  5
C3
100
AcDbEntity
  8
M0
100
AcDbText
 10
145.543237
 20
96.126823
 40
3.6
  1
程
 41
0.833333
  7
STANDARD
100
AcDbText
  0
TEXT
  5
C4
100
AcDbEntity
  8
M0
100
AcDbText
 10
145.543237
 20
92.371267
 40
3.6
  1
　
 41
0.833333
  7
STANDARD
100
AcDbText
  0
TEXT
  5
C5
100
AcDbEntity
  8
M0
100
AcDbText
 10
145.543237
 20
88.615712
 40
3.6
  1
ｍ
 41
0.833333
  7
STANDARD
100
AcDbText
  0
LINE
  5
C6
100
AcDbEntity
  8
M0
100
AcDbLine
 10
168.527683
 20
101.845491
 11
174.626041
 21
97.57664
  0
LINE
  5
C7
100
AcDbEntity
  8
M0
100
AcDbLine
 10
161.72332
 20
109.555104
 11
167.9815
 21
102.337821
  0
ARC
  5
C8
100
AcDbEntity
  8
M0
100
AcDbCircle
 10
170.24807
 20
104.303187
 40
3.0
100
AcDbArc
 50
220.928896
 51
235.00798
  0
ARC
  5
C9
100
AcDbEntity
  8
M0
100
AcDbCircle
 10
160.665587
 20
108.637933
 40
1.4
100
AcDbArc
 50
40.928896
 51
90.0
  0
ARC
  5
CA
100
AcDbEntity
  8
M0
100
AcDbCircle
 10
173.823194
 20
96.429716
 40
1.4
100
AcDbArc
 50
0.0
 51
55.00798
  0
LINE
  5
CB
100
AcDbEntity
  8
M0
100
AcDbLine
 10
175.223194
 20
82.037933
 11
175.223194
 21
96.429716
  0
ARC
  5
CC
100
AcDbEntity
  8
M0
100
AcDbCircle
 10
172.382882
 20
97.437933
 40
1.4
100
AcDbArc
 50
55.00798
 51
90.0
  0
LINE
  5
CD
100
AcDbEntity
  8
M0
  6
DASHED
 62
     1
100
AcDbLine
 10
157.024194
 20
110.037933
 11
160.665587
 21
110.037933
  0
TEXT
  5
CE
100
AcDbEntity
  8
M0
100
AcDbText
 10
40.075712
 20
32.696448
 40
3.456
  1
※破線部域では運転圧力「標準」「低」時に６０ｋＰａ、「高」時に９０ｋＰａの圧力変動があります。
 50
-1.001791E-005
 41
0.652006
  7
STANDARD
100
AcDbText
  0
LINE
  5
CF
100
AcDbEntity
  8
M0
 62
     7
100
AcDbLine
 10
66.771245
 20
206.339435
 11
66.771245
 21
191.183352
  0
LINE
  5
D0
100
AcDbEntity
  8
M0
 62
     7
100
AcDbLine
 10
61.171243
 20
97.497501
 11
61.171243
 21
82.037933
  0
LINE
  5
D1
100
AcDbEntity
  8
M0
  6
DASHED
 62
     7
100
AcDbLine
 10
41.571245
 20
210.026042
 11
58.968745
 21
210.026042
  0
LINE
  5
D2
100
AcDbEntity
  8
M0
  6
DASHED
 62
     7
100
AcDbLine
 10
41.571243
 20
98.837933
 11
59.771243
 21
98.837933
  0
LINE
  5
D3
100
AcDbEntity
  8
M0
  6
DASHED
 62
     7
100
AcDbLine
 10
157.024194
 20
98.837933
 11
172.382882
 21
98.837933
  0
LINE
  5
D4
100
AcDbEntity
  8
M0
 62
     7
100
AcDbLine
 10
60.686704
 20
98.556713
 11
47.796948
 21
109.697145
  0
ARC
  5
D5
100
AcDbEntity
  8
M0
 62
     7
100
AcDbCircle
 10
46.881486
 20
108.637933
 40
1.4
100
AcDbArc
 50
49.163613
 51
90.0
  0
ARC
  5
D6
100
AcDbEntity
  8
M0
 62
     7
100
AcDbCircle
 10
51.74099
 20
104.437933
 40
1.4
100
AcDbArc
 50
49.163613
 51
90.0
  0
ARC
  5
D7
100
AcDbEntity
  8
M0
 62
     7
100
AcDbCircle
 10
59.771243
 20
97.437933
 40
1.4
100
AcDbArc
 50
3.722158E-012
 51
90.0
  0
ARC
  5
D8
100
AcDbEntity
  8
M0
 62
     7
100
AcDbCircle
 10
59.771243
 20
97.497501
 40
1.4
100
AcDbArc
 50
3.722158E-012
 51
49.163613
  0
LINE
  5
D9
100
AcDbEntity
  8
M0
 62
     7
100
AcDbLine
 10
51.329845
 20
220.659677
 11
58.957957
 21
210.367778
  0
LINE
  5
DA
100
AcDbEntity
  8
M0
 62
     7
100
AcDbLine
 10
59.439616
 20
209.94448
 11
65.842116
 21
207.657873
  0
ARC
  5
DB
100
AcDbEntity
  8
M0
 62
     7
100
AcDbCircle
 10
58.968745
 20
208.626042
 40
1.4
100
AcDbArc
 50
70.346176
 51
90.0
  0
ARC
  5
DC
100
AcDbEntity
  8
M0
 62
     7
100
AcDbCircle
 10
65.371245
 20
206.339435
 40
1.4
100
AcDbArc
 50
0.0
 51
70.346176
  0
ARC
  5
DD
100
AcDbEntity
  8
M0
 62
     7
100
AcDbCircle
 10
50.205099
 20
219.826042
 40
1.4
100
AcDbArc
 50
36.544972
 51
90.0
  0
ARC
  5
DE
100
AcDbEntity
  8
M0
 62
     7
100
AcDbCircle
 10
60.082703
 20
211.201413
 40
1.4
100
AcDbArc
 50
216.544972
 51
250.346176
  0
ENDSEC
  0
SECTION
  2
OBJECTS
  0
DICTIONARY
  5
C
100
AcDbDictionary
  3
ACAD_GROUP
350
D
  3
ACAD_MLINESTYLE
350
E
  0
DICTIONARY
  5
D
102
{ACAD_REACTORS
330
C
102
}
100
AcDbDictionary
  0
DICTIONARY
  5
E
102
{ACAD_REACTORS
330
C
102
}
100
AcDbDictionary
  3
STANDARD
350
13
  0
MLINESTYLE
  5
13
102
{ACAD_REACTORS
330
E
102
}
100
AcDbMlineStyle
  2
STANDARD
 70
     0
  3

 62
     0
 51
90.0
 52
90.0
 71
     2
 49
0.5
 62
   256
  6
BYLAYER
 49
-0.5
 62
   256
  6
BYLAYER
  0
ENDSEC
  0
EOF
