  0
SECTION
  2
HEADER
  9
$ACADVER
  1
AC1012
  9
$INSBASE
 10
0.0
 20
0.0
  9
$VIEWCTR
 10
7.531722
 20
4.5
  9
$VIEWSIZE
 40
9.0
  9
$SNAPMODE
 70
     0
  9
$SNAPUNIT
 10
1.0
 20
1.0
  9
$SNAPBASE
 10
0.0
 20
0.0
  9
$SNAPANG
 50
0.0
  9
$SNAPSTYLE
 70
     0
  9
$SNAPISOPAIR
 70
     0
  9
$GRIDMODE
 70
     0
  9
$GRIDUNIT
 10
0.0
 20
0.0
  9
$ORTHOMODE
 70
     0
  9
$REGENMODE
 70
     1
  9
$FILLMODE
 70
     1
  9
$QTEXTMODE
 70
     0
  9
$DRAGMODE
 70
     2
  9
$LTSCALE
 40
1.0
  9
$OSMODE
 70
     0
  9
$ATTMODE
 70
     1
  9
$TEXTSIZE
 40
0.2
  9
$TRACEWID
 40
0.05
  9
$TEXTSTYLE
  7
STANDARD
  9
$CELTYPE
  6
BYLAYER
  9
$CECOLOR
 62
   256
  9
$DIMSCALE
 40
1.0
  9
$DIMASZ
 40
0.18
  9
$DIMEXO
 40
0.0625
  9
$DIMDLI
 40
0.38
  9
$DIMRND
 40
0.0
  9
$DIMDLE
 40
0.0
  9
$DIMEXE
 40
0.18
  9
$DIMTP
 40
0.0
  9
$DIMTM
 40
0.0
  9
$DIMTXT
 40
0.18
  9
$DIMCEN
 40
0.09
  9
$DIMTSZ
 40
0.0
  9
$DIMTOL
 70
     0
  9
$DIMLIM
 70
     0
  9
$DIMTIH
 70
     1
  9
$DIMTOH
 70
     1
  9
$DIMSE1
 70
     0
  9
$DIMSE2
 70
     0
  9
$DIMTAD
 70
     0
  9
$DIMZIN
 70
     0
  9
$DIMBLK
  1

  9
$LUNITS
 70
     2
  9
$LUPREC
 70
     4
  9
$AXISMODE
 70
     0
  9
$AXISUNIT
 10
0.0
 20
0.0
  9
$SKETCHINC
 40
0.1
  9
$FILLETRAD
 40
0.0
  9
$AUNITS
 70
     0
  9
$AUPREC
 70
     0
  9
$MENU
  1
ACAD
  9
$ELEVATION
 40
0.0
  9
$THICKNESS
 40
0.0
  9
$VIEWDIR
 10
0.0
 20
0.0
 30
1.0
  9
$LIMCHECK
 70
     0
  9
$BLIPMODE
 70
     1
  9
$CHAMFERA
 40
0.0
  9
$CHAMFERB
 40
0.0
  9
$FASTZOOM
 70
     1
  9
$SKPOLY
 70
     0
  9
$TDCREATE
 40
0000000.0000000000
  9
$TDUPDATE
 40
0000000.0000000000
  9
$TDINDWG
 40
0.0000000000
  9
$TDUSRTIMER
 40
0.0000000000
  9
$USRTIMER
 70
     1
  9
$ANGBASE
 50
0.0
  9
$ANGDIR
 70
     0
  9
$PDMODE
 70
     0
  9
$PDSIZE
 40
0.0
  9
$PLINEWID
 40
0.0
  9
$COORDS
 70
     0
  9
$USERI1
 70
     0
  9
$USERI2
 70
     0
  9
$USERI3
 70
     0
  9
$USERI4
 70
     0
  9
$USERI5
 70
     0
  9
$USERR1
 40
0.0
  9
$USERR2
 40
0.0
  9
$USERR3
 40
0.0
  9
$USERR4
 40
0.0
  9
$USERR5
 40
0.0
  9
$CLAYER
  8
M0
  9
$EXTMIN
 10
0.0
 20
0.0
  9
$EXTMAX
 10
420.0
 20
297.0
  9
$LIMMIN
 10
0.0
 20
0.0
  9
$LIMMAX
 10
420.0
 20
297.0
  9
$HANDSEED
  5
114
  0
ENDSEC
  0
SECTION
  2
CLASSES
  0
ENDSEC
  0
SECTION
  2
TABLES
  0
TABLE
  2
VPORT
  5
8
100
AcDbSymbolTable
 70
     2
  0
VPORT
  5
14
100
AcDbSymbolTableRecord
100
AcDbViewportTableRecord
  2
*ACTIVE
 70
     0
 10
0.0
 20
0.0
 11
1.0
 21
1.0
 12
484.0
 22
297.0
 13
0.0
 23
0.0
 14
1.0
 24
1.0
 15
0.0
 25
0.0
 16
0.0
 26
0.0
 36
1.0
 17
0.0
 27
0.0
 37
0.0
 40
594.0
 41
2.0
 42
50.0
 43
0.0
 44
0.0
 50
0.0
 51
0.0
 71
     0
 72
   100
 73
     1
 74
     1
 75
     0
 76
     0
 77
     0
 78
     0
  0
ENDTAB
  0
TABLE
  2
LTYPE
  5
5
100
AcDbSymbolTable
 70
     5
  0
LTYPE
  5
15
100
AcDbSymbolTableRecord
100
AcDbLinetypeTableRecord
  2
BYBLOCK
 70
     0
  3

 72
    65
 73
     0
 40
0.0
  0
LTYPE
  5
16
100
AcDbSymbolTableRecord
100
AcDbLinetypeTableRecord
  2
BYLAYER
 70
     0
  3

 72
    65
 73
     0
 40
0.0
  0
LTYPE
  5
17
100
AcDbSymbolTableRecord
100
AcDbLinetypeTableRecord
  2
CONTINUOUS
 70
    64
  3
Solid line
 72
    65
 73
     0
 40
0.0
  0
LTYPE
  5
18
100
AcDbSymbolTableRecord
100
AcDbLinetypeTableRecord
  2
DASHED
 70
    64
  3
__ __ __ __ __ __ __ __ __ __ __ __ __ __ __ __
 72
    65
 73
     2
 40
0.75
 49
0.5
 74
     0
 49
-0.25
 74
     0
  0
LTYPE
  5
19
100
AcDbSymbolTableRecord
100
AcDbLinetypeTableRecord
  2
DASHDOT
 70
    64
  3
__ . __ . __ . __ . __ . __ . __ . __ . __ . __
 72
    65
 73
     4
 40
1.0
 49
0.5
 74
     0
 49
-0.25
 74
     0
 49
0.0
 74
     0
 49
-0.25
 74
     0
  0
LTYPE
  5
1A
100
AcDbSymbolTableRecord
100
AcDbLinetypeTableRecord
  2
DIVIDE
 70
    64
  3
____ . . ____ . . ____ . . ____ . . ____ . . __
 72
    65
 73
     6
 40
1.25
 49
0.5
 74
     0
 49
-0.25
 74
     0
 49
0.0
 74
     0
 49
-0.25
 74
     0
 49
0.0
 74
     0
 49
-0.25
 74
     0
  0
LTYPE
  5
1B
100
AcDbSymbolTableRecord
100
AcDbLinetypeTableRecord
  2
DOT
 70
    64
  3
. . . . . . . . . . . . . . . . . . . . . . . .
 72
    65
 73
     2
 40
0.25
 49
0.0
 74
     0
 49
-0.25
 74
     0
  0
ENDTAB
  0
TABLE
  2
LAYER
  5
2
100
AcDbSymbolTable
 70
   102
  0
LAYER
  5
F
100
AcDbSymbolTableRecord
100
AcDbLayerTableRecord
  2
0
 70
     0
 62
     7
  6
CONTINUOUS
  0
LAYER
  5
1C
100
AcDbSymbolTableRecord
100
AcDbLayerTableRecord
  2
DEFPOINTS
 70
     0
 62
     7
  6
CONTINUOUS
  0
LAYER
  5
1D
100
AcDbSymbolTableRecord
100
AcDbLayerTableRecord
  2
M0
 70
     0
 62
     3
  6
CONTINUOUS
  0
ENDTAB
  0
TABLE
  2
STYLE
  5
3
100
AcDbSymbolTable
 70
     2
  0
STYLE
  5
10
100
AcDbSymbolTableRecord
100
AcDbTextStyleTableRecord
  2
STANDARD
 70
     0
 40
0.0
 41
1.0
 50
0.0
 71
     0
 42
0.2
  3
txt
  4
BIGFONT
  0
ENDTAB
  0
TABLE
  2
VIEW
  5
6
100
AcDbSymbolTable
 70
     0
  0
ENDTAB
  0
TABLE
  2
UCS
  5
7
100
AcDbSymbolTable
 70
     0
  0
ENDTAB
  0
TABLE
  2
APPID
  5
9
100
AcDbSymbolTable
 70
     1
  0
APPID
  5
11
100
AcDbSymbolTableRecord
100
AcDbRegAppTableRecord
  2
ACAD
 70
     0
  0
ENDTAB
  0
TABLE
  2
DIMSTYLE
  5
A
100
AcDbSymbolTable
 70
     2
  0
DIMSTYLE
105
24
100
AcDbSymbolTableRecord
100
AcDbDimStyleTableRecord
  2
STANDARD
 70
     0
  3

  4

  5

  6
_OPEN
  7
_OPEN
 40
1.0
 41
3.0
 42
0.0
 43
8.0
 44
1.5
 45
0.0
 46
0.0
 47
0.0
 48
0.0
140
3.5
141
0.09
142
0.0
143
0.03937
144
1.0
145
0.0
146
1.0
147
1.0
 71
     0
 72
     0
 73
     0
 74
     0
 75
     0
 76
     0
 77
     3
 78
     8
170
     0
171
     2
172
     0
173
     1
174
     0
175
     0
176
     0
177
     0
178
     0
270
     2
271
     2
272
     4
273
     2
274
     2
340
10
275
     0
280
     0
281
     0
282
     0
283
     1
284
     0
285
     0
286
     0
287
     3
288
     0
  0
DIMSTYLE
105
25
100
AcDbSymbolTableRecord
100
AcDbDimStyleTableRecord
  2
LEADSTYL
 70
     0
  3

  4

  5

  6
_OPEN
  7
_OPEN
 40
1.0
 41
3.0
 42
0.0625
 43
0.38
 44
0.18
 45
0.0
 46
0.0
 47
0.0
 48
0.0
140
3.2
141
0.09
142
0.0
143
25.4
144
1.0
145
0.0
146
1.0
147
1.0
 71
     0
 72
     0
 73
     1
 74
     1
 75
     0
 76
     0
 77
     0
 78
     0
170
     0
171
     2
172
     0
173
     1
174
     0
175
     0
176
     0
177
     0
178
     0
270
     2
271
     4
272
     4
273
     2
274
     2
340
10
275
     0
280
     0
281
     0
282
     0
283
     1
284
     0
285
     0
286
     0
287
     3
288
     0
  0
ENDTAB
  0
TABLE
  2
BLOCK_RECORD
  5
1
100
AcDbSymbolTable
 70
     6
  0
BLOCK_RECORD
  5
1E
100
AcDbSymbolTableRecord
100
AcDbBlockTableRecord
  2
*MODEL_SPACE
  0
BLOCK_RECORD
  5
21
100
AcDbSymbolTableRecord
100
AcDbBlockTableRecord
  2
*PAPER_SPACE
  0
BLOCK_RECORD
  5
26
100
AcDbSymbolTableRecord
100
AcDbBlockTableRecord
  2
_NONE
  0
BLOCK_RECORD
  5
2A
100
AcDbSymbolTableRecord
100
AcDbBlockTableRecord
  2
_OPEN
  0
BLOCK_RECORD
  5
30
100
AcDbSymbolTableRecord
100
AcDbBlockTableRecord
  2
_CLOSED
  0
BLOCK_RECORD
  5
37
100
AcDbSymbolTableRecord
100
AcDbBlockTableRecord
  2
_ORIGIN
  0
BLOCK_RECORD
  5
3C
100
AcDbSymbolTableRecord
100
AcDbBlockTableRecord
  2
_DOT
  0
BLOCK_RECORD
  5
44
100
AcDbSymbolTableRecord
100
AcDbBlockTableRecord
  2
_OBLIQUE
  0
ENDTAB
  0
ENDSEC
  0
SECTION
  2
BLOCKS
  0
BLOCK
  5
1F
100
AcDbEntity
  8
0
100
AcDbBlockBegin
  2
*MODEL_SPACE
 70
     0
 10
0.0
 20
0.0
 30
0.0
  3
*MODEL_SPACE
  1

  0
ENDBLK
  5
20
100
AcDbEntity
  8
0
100
AcDbBlockEnd
  0
BLOCK
  5
22
100
AcDbEntity
 67
     1
  8
0
100
AcDbBlockBegin
  2
*PAPER_SPACE
 70
     0
 10
0.0
 20
0.0
 30
0.0
  3
*PAPER_SPACE
  1

  0
ENDBLK
  5
23
100
AcDbEntity
 67
     1
  8
0
100
AcDbBlockEnd
  0
BLOCK
  5
27
100
AcDbEntity
  8
0
100
AcDbBlockBegin
  2
_NONE
 70
     0
 10
0.0
 20
0.0
  0
CIRCLE
  5
28
100
AcDbEntity
  8
0
 62
     0
100
AcDbCircle
 10
0.0
 20
0.0
 40
0.25
  0
ENDBLK
  5
29
100
AcDbEntity
  8
0
100
AcDbBlockEnd
  0
BLOCK
  5
2B
100
AcDbEntity
  8
0
100
AcDbBlockBegin
  2
_OPEN
 70
     0
 10
0.0
 20
0.0
  0
LINE
  5
2C
100
AcDbEntity
  8
0
 62
     0
100
AcDbLine
 10
-0.965926
 20
0.258819
 11
0.0
 21
0.0
  0
LINE
  5
2D
100
AcDbEntity
  8
0
 62
     0
100
AcDbLine
 10
0.0
 20
0.0
 11
-0.965926
 21
-0.258819
  0
LINE
  5
2E
100
AcDbEntity
  8
0
 62
     0
100
AcDbLine
 10
0.0
 20
0.0
 11
-1.0
 21
0.0
  0
ENDBLK
  5
2F
100
AcDbEntity
  8
0
100
AcDbBlockEnd
  0
BLOCK
  5
31
100
AcDbEntity
  8
0
100
AcDbBlockBegin
  2
_CLOSED
 70
     0
 10
0.0
 20
0.0
  0
LINE
  5
32
100
AcDbEntity
  8
0
 62
     0
100
AcDbLine
 10
-0.965926
 20
0.258819
 11
0.0
 21
0.0
  0
LINE
  5
33
100
AcDbEntity
  8
0
 62
     0
100
AcDbLine
 10
0.0
 20
0.0
 11
-0.965926
 21
-0.258819
  0
LINE
  5
34
100
AcDbEntity
  8
0
 62
     0
100
AcDbLine
 10
-0.965926
 20
0.258819
 11
-0.965926
 21
-0.258819
  0
LINE
  5
35
100
AcDbEntity
  8
0
 62
     0
100
AcDbLine
 10
0.0
 20
0.0
 11
-1.0
 21
0.0
  0
ENDBLK
  5
36
100
AcDbEntity
  8
0
100
AcDbBlockEnd
  0
BLOCK
  5
38
100
AcDbEntity
  8
0
100
AcDbBlockBegin
  2
_ORIGIN
 70
     0
 10
0.0
 20
0.0
  0
CIRCLE
  5
39
100
AcDbEntity
  8
0
 62
     0
100
AcDbCircle
 10
0.0
 20
0.0
 40
0.5
  0
LINE
  5
3A
100
AcDbEntity
  8
0
 62
     0
100
AcDbLine
 10
0.0
 20
0.0
 11
-1.0
 21
0.0
  0
ENDBLK
  5
3B
100
AcDbEntity
  8
0
100
AcDbBlockEnd
  0
BLOCK
  5
3D
100
AcDbEntity
  8
0
100
AcDbBlockBegin
  2
_DOT
 70
     0
 10
0.0
 20
0.0
  0
POLYLINE
  5
3E
100
AcDbEntity
  8
0
 62
     0
100
AcDb2dPolyline
 66
     1
 70
     1
 40
0.5
 41
0.5
  0
VERTEX
  5
3F
100
AcDbEntity
  8
0
 62
     0
100
AcDbVertex
100
AcDb2dVertex
 10
-0.25
 20
0.0
 42
1.0
  0
VERTEX
  5
40
100
AcDbEntity
  8
0
 62
     0
100
AcDbVertex
100
AcDb2dVertex
 10
0.25
 20
0.0
 42
1.0
  0
SEQEND
  5
41
100
AcDbEntity
  8
0
 62
     0
  0
LINE
  5
42
100
AcDbEntity
  8
0
 62
     0
100
AcDbLine
 10
-0.5
 20
0.0
 11
-1.0
 21
0.0
  0
ENDBLK
  5
43
100
AcDbEntity
  8
0
100
AcDbBlockEnd
  0
BLOCK
  5
45
100
AcDbEntity
  8
0
100
AcDbBlockBegin
  2
_OBLIQUE
 70
     0
 10
0.0
 20
0.0
  0
LINE
  5
46
100
AcDbEntity
  8
0
 62
     0
100
AcDbLine
 10
-0.353553
 20
-0.353553
 11
0.353553
 21
0.353553
  0
ENDBLK
  5
47
100
AcDbEntity
  8
0
100
AcDbBlockEnd
  0
ENDSEC
  0
SECTION
  2
ENTITIES
  0
TEXT
  5
48
100
AcDbEntity
  8
M0
 62
     6
100
AcDbText
 10
127.989379
 20
115.427608
 40
4.8
  1
吸上高さ１８ｍ時
 41
0.590278
  7
STANDARD
100
AcDbText
  0
LINE
  5
49
100
AcDbEntity
  8
M0
 62
     6
100
AcDbLine
 10
129.5546
 20
108.910618
 11
121.696327
 21
113.588161
  0
LINE
  5
4A
100
AcDbEntity
  8
M0
 62
     6
100
AcDbLine
 10
136.654182
 20
98.68882
 11
136.532009
 21
99.244151
  0
LINE
  5
4B
100
AcDbEntity
  8
M0
 62
     6
100
AcDbLine
 10
137.376327
 20
90.388161
 11
136.971292
 21
96.463678
  0
LINE
  5
4C
100
AcDbEntity
  8
M0
 62
     6
100
AcDbLine
 10
121.696327
 20
113.588161
 11
107.616327
 21
121.588161
  0
LINE
  5
4D
100
AcDbEntity
  8
M0
 62
     6
100
AcDbLine
 10
107.616327
 20
121.588161
 11
103.133109
 21
124.135444
  0
LINE
  5
4E
100
AcDbEntity
  8
M0
  6
DASHED
 62
     6
100
AcDbLine
 10
72.635425
 20
124.788161
 11
100.663062
 21
124.788161
  0
ARC
  5
4F
100
AcDbEntity
  8
M0
 62
     6
100
AcDbCircle
 10
100.663062
 20
119.788161
 40
5.0
100
AcDbArc
 50
60.395549
 51
90.0
  0
ARC
  5
50
100
AcDbEntity
  8
M0
 62
     6
100
AcDbCircle
 10
121.882342
 20
96.021225
 40
15.0
100
AcDbArc
 50
12.407419
 51
59.23728
  0
ARC
  5
51
100
AcDbEntity
  8
M0
 62
     6
100
AcDbCircle
 10
122.004515
 20
95.465893
 40
15.0
100
AcDbArc
 50
3.814075
 51
12.407419
  0
TEXT
  5
52
100
AcDbEntity
  8
M0
 62
   194
100
AcDbText
 10
351.998759
 20
235.462781
 40
4.8
  1
吸上高さ１２ｍ時
 41
0.590278
  7
STANDARD
100
AcDbText
  0
LINE
  5
53
100
AcDbEntity
  8
M0
 62
   194
100
AcDbLine
 10
366.020199
 20
216.852172
 11
365.878202
 21
218.840134
  0
LINE
  5
54
100
AcDbEntity
  8
M0
 62
   194
100
AcDbLine
 10
361.661401
 20
226.30372
 11
354.842376
 21
231.10585
  0
LINE
  5
55
100
AcDbEntity
  8
M0
 62
   194
100
AcDbLine
 10
353.45161
 20
231.925856
 11
338.566435
 21
239.151669
  0
LINE
  5
56
100
AcDbEntity
  8
M0
 62
   194
100
AcDbLine
 10
336.769642
 20
239.819661
 11
307.620199
 21
247.572172
  0
LINE
  5
57
100
AcDbEntity
  8
M0
 62
   194
100
AcDbLine
 10
307.620199
 20
247.572172
 11
298.121772
 21
250.365827
  0
LINE
  5
58
100
AcDbEntity
  8
M0
  6
DASHED
 62
   194
100
AcDbLine
 10
295.300109
 20
250.772172
 11
269.315425
 21
250.772172
  0
ARC
  5
59
100
AcDbEntity
  8
M0
 62
   194
100
AcDbCircle
 10
355.903615
 20
218.127664
 40
10.0
100
AcDbArc
 50
4.085617
 51
54.845822
  0
ARC
  5
5A
100
AcDbEntity
  8
M0
 62
   194
100
AcDbCircle
 10
349.08459
 20
222.929794
 40
10.0
100
AcDbArc
 50
54.845822
 51
64.106353
  0
ARC
  5
5B
100
AcDbEntity
  8
M0
 62
   194
100
AcDbCircle
 10
334.199415
 20
230.155607
 40
10.0
100
AcDbArc
 50
64.106353
 51
75.106527
  0
ARC
  5
5C
100
AcDbEntity
  8
M0
 62
   194
100
AcDbCircle
 10
295.300109
 20
240.772172
 40
10.0
100
AcDbArc
 50
73.61046
 51
90.0
  0
LINE
  5
5D
100
AcDbEntity
  8
M0
100
AcDbLine
 10
68.431016
 20
267.728813
 11
68.431016
 21
277.728813
  0
LINE
  5
5E
100
AcDbEntity
  8
M0
100
AcDbLine
 10
68.431016
 20
277.728813
 11
38.431016
 21
277.728813
  0
LINE
  5
5F
100
AcDbEntity
  8
M0
100
AcDbLine
 10
38.431016
 20
277.728813
 11
38.431016
 21
267.728813
  0
LINE
  5
60
100
AcDbEntity
  8
M0
100
AcDbLine
 10
38.431016
 20
267.728813
 11
68.431016
 21
267.728813
  0
TEXT
  5
61
100
AcDbEntity
  8
M0
100
AcDbText
 10
40.857683
 20
269.228813
 40
7.0
  1
揚水性能
 41
0.780952
  7
STANDARD
100
AcDbText
  0
LINE
  5
62
100
AcDbEntity
  8
M0
100
AcDbLine
 10
269.315425
 20
254.372172
 11
269.315425
 21
196.372172
  0
LINE
  5
63
100
AcDbEntity
  8
M0
100
AcDbLine
 10
269.315425
 20
196.372172
 11
380.315425
 21
196.372172
  0
LINE
  5
64
100
AcDbEntity
  8
M0
100
AcDbLine
 10
301.315425
 20
196.372172
 11
301.315425
 21
254.372172
  0
LINE
  5
65
100
AcDbEntity
  8
M0
100
AcDbLine
 10
333.315425
 20
196.372172
 11
333.315425
 21
254.372172
  0
LINE
  5
66
100
AcDbEntity
  8
M0
100
AcDbLine
 10
365.315425
 20
196.372172
 11
365.315425
 21
228.372172
  0
TEXT
  5
67
100
AcDbEntity
  8
M0
100
AcDbText
 10
262.995221
 20
194.092141
 40
4.8
  1
０
 41
0.611111
  7
STANDARD
100
AcDbText
  0
TEXT
  5
68
100
AcDbEntity
  8
M0
100
AcDbText
 10
266.195221
 20
188.330133
 40
4.8
  1
０
 41
0.611111
  7
STANDARD
100
AcDbText
  0
TEXT
  5
69
100
AcDbEntity
  8
M0
100
AcDbText
 10
298.19522
 20
188.330133
 40
4.8
  1
１０
 41
0.611111
  7
STANDARD
100
AcDbText
  0
TEXT
  5
6A
100
AcDbEntity
  8
M0
100
AcDbText
 10
330.195226
 20
188.330133
 40
4.8
  1
２０
 41
0.611111
  7
STANDARD
100
AcDbText
  0
TEXT
  5
6B
100
AcDbEntity
  8
M0
100
AcDbText
 10
362.195218
 20
188.330133
 40
4.8
  1
３０
 41
0.611111
  7
STANDARD
100
AcDbText
  0
ARC
  5
6C
100
AcDbEntity
  8
M0
100
AcDbCircle
 10
251.80144
 20
211.971936
 40
7.68
100
AcDbArc
 50
52.58592
 51
127.41408
  0
ARC
  5
6D
100
AcDbEntity
  8
M0
100
AcDbCircle
 10
251.80144
 20
216.791894
 40
7.68
100
AcDbArc
 50
232.58592
 51
307.41408
  0
TEXT
  5
6E
100
AcDbEntity
  8
M0
100
AcDbText
 10
248.601455
 20
234.926607
 40
5.12
  1
全
 41
1.25
  7
STANDARD
100
AcDbText
  0
TEXT
  5
6F
100
AcDbEntity
  8
M0
100
AcDbText
 10
248.601455
 20
229.294607
 40
5.12
  1
揚
 41
1.25
  7
STANDARD
100
AcDbText
  0
TEXT
  5
70
100
AcDbEntity
  8
M0
100
AcDbText
 10
248.601455
 20
223.662607
 40
5.12
  1
程
 41
1.25
  7
STANDARD
100
AcDbText
  0
TEXT
  5
71
100
AcDbEntity
  8
M0
100
AcDbText
 10
248.601455
 20
218.030607
 40
5.12
  1
　
 41
1.25
  7
STANDARD
100
AcDbText
  0
TEXT
  5
72
100
AcDbEntity
  8
M0
100
AcDbText
 10
248.601455
 20
212.398607
 40
5.12
  1
ｍ
 41
1.25
  7
STANDARD
100
AcDbText
  0
TEXT
  5
73
100
AcDbEntity
  8
M0
100
AcDbText
 10
259.795221
 20
242.092139
 40
4.8
  1
３０
 41
0.611111
  7
STANDARD
100
AcDbText
  0
TEXT
  5
74
100
AcDbEntity
  8
M0
100
AcDbText
 10
259.795221
 20
226.092139
 40
4.8
  1
２０
 41
0.611111
  7
STANDARD
100
AcDbText
  0
TEXT
  5
75
100
AcDbEntity
  8
M0
100
AcDbText
 10
259.795221
 20
210.092143
 40
4.8
  1
１０
 41
0.611111
  7
STANDARD
100
AcDbText
  0
LINE
  5
76
100
AcDbEntity
  8
M0
100
AcDbLine
 10
269.315425
 20
244.372172
 11
380.315425
 21
244.372172
  0
LINE
  5
77
100
AcDbEntity
  8
M0
100
AcDbLine
 10
269.315425
 20
212.372172
 11
380.315425
 21
212.372172
  0
LINE
  5
78
100
AcDbEntity
  8
M0
100
AcDbLine
 10
269.315425
 20
228.372172
 11
380.315425
 21
228.372172
  0
LINE
  5
79
100
AcDbEntity
  8
M0
100
AcDbLine
 10
365.315425
 20
228.372172
 11
365.315425
 21
232.594983
  0
TEXT
  5
7A
100
AcDbEntity
  8
M0
100
AcDbText
 10
353.634943
 20
255.260546
 40
4.8
  1
吸込管径：３０ｍｍ
 41
0.590278
  7
STANDARD
100
AcDbText
  0
TEXT
  5
7B
100
AcDbEntity
  8
M0
100
AcDbText
 10
353.634943
 20
249.267123
 40
4.8
  1
圧力管径：２５ｍｍ
 41
0.590278
  7
STANDARD
100
AcDbText
  0
LINE
  5
7C
100
AcDbEntity
  8
M0
100
AcDbLine
 10
268.835424
 20
262.529478
 11
268.835426
 21
268.289479
  0
LINE
  5
7D
100
AcDbEntity
  8
M0
100
AcDbLine
 10
268.835426
 20
268.289479
 11
293.395427
 21
268.289479
  0
LINE
  5
7E
100
AcDbEntity
  8
M0
100
AcDbLine
 10
293.395427
 20
268.289479
 11
293.395425
 21
262.529478
  0
LINE
  5
7F
100
AcDbEntity
  8
M0
100
AcDbLine
 10
293.395425
 20
262.529478
 11
268.835424
 21
262.529478
  0
TEXT
  5
80
100
AcDbEntity
  8
M0
100
AcDbText
 10
269.498758
 20
263.009478
 40
4.8
  1
　深井戸配管　　　標準ジェット（Ｊ２５－６Ｗ）使用時
 41
0.590278
  7
STANDARD
100
AcDbText
  0
TEXT
  5
81
100
AcDbEntity
  8
M0
100
AcDbText
 10
309.009078
 20
178.923051
 40
7.68
  1
揚水量（Ｌ／分）
 41
0.611111
  7
STANDARD
100
AcDbText
  0
TEXT
  5
82
100
AcDbEntity
  8
M0
100
AcDbText
 10
269.565425
 20
172.762931
 40
4.5
  1
※破線部域では６０ｋＰａの圧力変動があります。
 41
0.777778
  7
STANDARD
100
AcDbText
  0
LINE
  5
83
100
AcDbEntity
  8
M0
100
AcDbLine
 10
317.315425
 20
254.372172
 11
317.315425
 21
196.372172
  0
LINE
  5
84
100
AcDbEntity
  8
M0
100
AcDbLine
 10
285.315425
 20
254.372172
 11
285.315425
 21
196.372172
  0
LINE
  5
85
100
AcDbEntity
  8
M0
100
AcDbLine
 10
349.315425
 20
254.372172
 11
349.315425
 21
196.372172
  0
LINE
  5
86
100
AcDbEntity
  8
M0
100
AcDbLine
 10
365.315425
 20
242.189071
 11
365.315425
 21
246.302078
  0
LINE
  5
87
100
AcDbEntity
  8
M0
100
AcDbLine
 10
72.635425
 20
148.788161
 11
72.635425
 21
60.788161
  0
LINE
  5
88
100
AcDbEntity
  8
M0
100
AcDbLine
 10
72.635425
 20
60.788161
 11
179.975462
 21
60.788161
  0
LINE
  5
89
100
AcDbEntity
  8
M0
100
AcDbLine
 10
104.635425
 20
60.788161
 11
104.635425
 21
128.298357
  0
LINE
  5
8A
100
AcDbEntity
  8
M0
100
AcDbLine
 10
136.635425
 20
60.788161
 11
136.635425
 21
112.220817
  0
TEXT
  5
8B
100
AcDbEntity
  8
M0
100
AcDbText
 10
63.115224
 20
74.50813
 40
4.8
  1
１０
 41
0.611111
  7
STANDARD
100
AcDbText
  0
TEXT
  5
8C
100
AcDbEntity
  8
M0
100
AcDbText
 10
66.315221
 20
58.508132
 40
4.8
  1
０
 41
0.611111
  7
STANDARD
100
AcDbText
  0
TEXT
  5
8D
100
AcDbEntity
  8
M0
100
AcDbText
 10
69.515218
 20
52.746124
 40
4.8
  1
０
 41
0.611111
  7
STANDARD
100
AcDbText
  0
TEXT
  5
8E
100
AcDbEntity
  8
M0
100
AcDbText
 10
101.515222
 20
52.746124
 40
4.8
  1
１０
 41
0.611111
  7
STANDARD
100
AcDbText
  0
TEXT
  5
8F
100
AcDbEntity
  8
M0
100
AcDbText
 10
133.515226
 20
52.746124
 40
4.8
  1
２０
 41
0.611111
  7
STANDARD
100
AcDbText
  0
ARC
  5
90
100
AcDbEntity
  8
M0
100
AcDbCircle
 10
55.12144
 20
95.75456
 40
7.68
100
AcDbArc
 50
232.58592
 51
307.41408
  0
TEXT
  5
91
100
AcDbEntity
  8
M0
100
AcDbText
 10
112.329078
 20
43.339034
 40
7.68
  1
揚水量（Ｌ／分）
 41
0.611111
  7
STANDARD
100
AcDbText
  0
ARC
  5
92
100
AcDbEntity
  8
M0
100
AcDbCircle
 10
55.12144
 20
90.934602
 40
7.68
100
AcDbArc
 50
52.58592
 51
127.41408
  0
TEXT
  5
93
100
AcDbEntity
  8
M0
100
AcDbText
 10
51.921455
 20
113.889269
 40
5.12
  1
全
 41
1.25
  7
STANDARD
100
AcDbText
  0
TEXT
  5
94
100
AcDbEntity
  8
M0
100
AcDbText
 10
51.921455
 20
108.257269
 40
5.12
  1
揚
 41
1.25
  7
STANDARD
100
AcDbText
  0
TEXT
  5
95
100
AcDbEntity
  8
M0
100
AcDbText
 10
51.921455
 20
102.625269
 40
5.12
  1
程
 41
1.25
  7
STANDARD
100
AcDbText
  0
TEXT
  5
96
100
AcDbEntity
  8
M0
100
AcDbText
 10
51.921455
 20
96.993269
 40
5.12
  1
　
 41
1.25
  7
STANDARD
100
AcDbText
  0
TEXT
  5
97
100
AcDbEntity
  8
M0
100
AcDbText
 10
51.921455
 20
91.36127
 40
5.12
  1
ｍ
 41
1.25
  7
STANDARD
100
AcDbText
  0
TEXT
  5
98
100
AcDbEntity
  8
M0
100
AcDbText
 10
63.115224
 20
122.508128
 40
4.8
  1
４０
 41
0.611111
  7
STANDARD
100
AcDbText
  0
TEXT
  5
99
100
AcDbEntity
  8
M0
100
AcDbText
 10
63.115224
 20
106.508128
 40
4.8
  1
３０
 41
0.611111
  7
STANDARD
100
AcDbText
  0
TEXT
  5
9A
100
AcDbEntity
  8
M0
100
AcDbText
 10
63.115224
 20
90.508128
 40
4.8
  1
２０
 41
0.611111
  7
STANDARD
100
AcDbText
  0
LINE
  5
9B
100
AcDbEntity
  8
M0
100
AcDbLine
 10
72.635425
 20
76.788161
 11
179.975462
 21
76.788161
  0
LINE
  5
9C
100
AcDbEntity
  8
M0
100
AcDbLine
 10
72.635425
 20
92.788161
 11
179.975462
 21
92.788161
  0
LINE
  5
9D
100
AcDbEntity
  8
M0
100
AcDbLine
 10
72.635425
 20
108.788161
 11
179.975462
 21
108.788161
  0
LINE
  5
9E
100
AcDbEntity
  8
M0
100
AcDbLine
 10
72.635425
 20
124.788161
 11
179.975462
 21
124.788161
  0
TEXT
  5
9F
100
AcDbEntity
  8
M0
100
AcDbText
 10
147.834078
 20
140.72552
 40
4.8
  1
吸込管径：３０ｍｍ
 41
0.590278
  7
STANDARD
100
AcDbText
  0
TEXT
  5
A0
100
AcDbEntity
  8
M0
100
AcDbText
 10
147.834078
 20
134.732097
 40
4.8
  1
圧力管径：３０ｍｍ
 41
0.590278
  7
STANDARD
100
AcDbText
  0
LINE
  5
A1
100
AcDbEntity
  8
M0
100
AcDbLine
 10
136.635425
 20
122.196354
 11
136.635425
 21
148.788161
  0
LINE
  5
A2
100
AcDbEntity
  8
M0
100
AcDbLine
 10
168.635425
 20
60.788161
 11
168.635425
 21
128.360249
  0
TEXT
  5
A3
100
AcDbEntity
  8
M0
100
AcDbText
 10
165.515218
 20
52.746124
 40
4.8
  1
３０
 41
0.611111
  7
STANDARD
100
AcDbText
  0
TEXT
  5
A4
100
AcDbEntity
  8
M0
100
AcDbText
 10
72.885432
 20
37.178924
 40
4.5
  1
※破線部域では６０ｋＰａの圧力変動があります。
 41
0.777778
  7
STANDARD
100
AcDbText
  0
LINE
  5
A5
100
AcDbEntity
  8
M0
100
AcDbLine
 10
152.635425
 20
60.788161
 11
152.635425
 21
112.220817
  0
LINE
  5
A6
100
AcDbEntity
  8
M0
100
AcDbLine
 10
120.635425
 20
60.788161
 11
120.635425
 21
128.298357
  0
LINE
  5
A7
100
AcDbEntity
  8
M0
100
AcDbLine
 10
88.635425
 20
60.788161
 11
88.635425
 21
148.788161
  0
LINE
  5
A8
100
AcDbEntity
  8
M0
100
AcDbLine
 10
72.635425
 20
140.788161
 11
143.433157
 21
140.788161
  0
TEXT
  5
A9
100
AcDbEntity
  8
M0
100
AcDbText
 10
63.115224
 20
138.508128
 40
4.8
  1
５０
 41
0.611111
  7
STANDARD
100
AcDbText
  0
LINE
  5
AA
100
AcDbEntity
  8
M0
100
AcDbLine
 10
120.635425
 20
136.433913
 11
120.635425
 21
148.788161
  0
LINE
  5
AB
100
AcDbEntity
  8
M0
100
AcDbLine
 10
104.635425
 20
136.433913
 11
104.635425
 21
148.788161
  0
LINE
  5
AC
100
AcDbEntity
  8
M0
100
AcDbLine
 10
72.155424
 20
151.791545
 11
72.155426
 21
157.551545
  0
LINE
  5
AD
100
AcDbEntity
  8
M0
100
AcDbLine
 10
72.155426
 20
157.551545
 11
89.915426
 21
157.551545
  0
LINE
  5
AE
100
AcDbEntity
  8
M0
100
AcDbLine
 10
89.915426
 20
157.551545
 11
89.915424
 21
151.791545
  0
LINE
  5
AF
100
AcDbEntity
  8
M0
100
AcDbLine
 10
89.915424
 20
151.791545
 11
72.155424
 21
151.791545
  0
TEXT
  5
B0
100
AcDbEntity
  8
M0
100
AcDbText
 10
72.818758
 20
152.271545
 40
4.8
  1
　深井戸　　　深井戸専用ジェット（Ｊ２５－２４Ｗ）使用時
 41
0.590278
  7
STANDARD
100
AcDbText
  0
LINE
  5
B1
100
AcDbEntity
  8
M0
100
AcDbLine
 10
72.630849
 20
254.026455
 11
72.630849
 21
196.372172
  0
TEXT
  5
B2
100
AcDbEntity
  8
M0
100
AcDbText
 10
63.110646
 20
226.092139
 40
4.8
  1
２０
 41
0.611111
  7
STANDARD
100
AcDbText
  0
TEXT
  5
B3
100
AcDbEntity
  8
M0
100
AcDbText
 10
63.110646
 20
210.092143
 40
4.8
  1
１０
 41
0.611111
  7
STANDARD
100
AcDbText
  0
TEXT
  5
B4
100
AcDbEntity
  8
M0
100
AcDbText
 10
66.310646
 20
194.092141
 40
4.8
  1
０
 41
0.611111
  7
STANDARD
100
AcDbText
  0
ARC
  5
B5
100
AcDbEntity
  8
M0
100
AcDbCircle
 10
55.116865
 20
211.971936
 40
7.68
100
AcDbArc
 50
52.58592
 51
127.41408
  0
ARC
  5
B6
100
AcDbEntity
  8
M0
100
AcDbCircle
 10
55.116865
 20
216.791894
 40
7.68
100
AcDbArc
 50
232.58592
 51
307.41408
  0
TEXT
  5
B7
100
AcDbEntity
  8
M0
100
AcDbText
 10
51.916878
 20
234.926607
 40
5.12
  1
全
 41
1.25
  7
STANDARD
100
AcDbText
  0
TEXT
  5
B8
100
AcDbEntity
  8
M0
100
AcDbText
 10
51.916878
 20
229.294607
 40
5.12
  1
揚
 41
1.25
  7
STANDARD
100
AcDbText
  0
TEXT
  5
B9
100
AcDbEntity
  8
M0
100
AcDbText
 10
51.916878
 20
223.662607
 40
5.12
  1
程
 41
1.25
  7
STANDARD
100
AcDbText
  0
TEXT
  5
BA
100
AcDbEntity
  8
M0
100
AcDbText
 10
51.916878
 20
218.030607
 40
5.12
  1
　
 41
1.25
  7
STANDARD
100
AcDbText
  0
TEXT
  5
BB
100
AcDbEntity
  8
M0
100
AcDbText
 10
51.916878
 20
212.398607
 40
5.12
  1
ｍ
 41
1.25
  7
STANDARD
100
AcDbText
  0
LINE
  5
BC
100
AcDbEntity
  8
M0
100
AcDbLine
 10
72.630849
 20
196.372172
 11
199.630849
 21
196.372172
  0
LINE
  5
BD
100
AcDbEntity
  8
M0
100
AcDbLine
 10
104.630849
 20
196.372172
 11
104.630849
 21
254.026455
  0
LINE
  5
BE
100
AcDbEntity
  8
M0
100
AcDbLine
 10
136.630849
 20
196.372172
 11
136.630849
 21
254.026455
  0
LINE
  5
BF
100
AcDbEntity
  8
M0
100
AcDbLine
 10
168.630849
 20
196.372172
 11
168.630849
 21
228.372172
  0
TEXT
  5
C0
100
AcDbEntity
  8
M0
100
AcDbText
 10
69.510646
 20
188.330133
 40
4.8
  1
０
 41
0.611111
  7
STANDARD
100
AcDbText
  0
TEXT
  5
C1
100
AcDbEntity
  8
M0
100
AcDbText
 10
101.510644
 20
188.330133
 40
4.8
  1
１０
 41
0.611111
  7
STANDARD
100
AcDbText
  0
TEXT
  5
C2
100
AcDbEntity
  8
M0
100
AcDbText
 10
133.51065
 20
188.330133
 40
4.8
  1
２０
 41
0.611111
  7
STANDARD
100
AcDbText
  0
TEXT
  5
C3
100
AcDbEntity
  8
M0
100
AcDbText
 10
165.510643
 20
188.330133
 40
4.8
  1
３０
 41
0.611111
  7
STANDARD
100
AcDbText
  0
TEXT
  5
C4
100
AcDbEntity
  8
M0
100
AcDbText
 10
112.324503
 20
178.923049
 40
7.68
  1
揚水量（Ｌ／分）
 41
0.611111
  7
STANDARD
100
AcDbText
  0
LINE
  5
C5
100
AcDbEntity
  8
M0
100
AcDbLine
 10
72.630849
 20
212.372172
 11
199.630849
 21
212.372172
  0
LINE
  5
C6
100
AcDbEntity
  8
M0
100
AcDbLine
 10
72.630849
 20
228.372172
 11
199.630849
 21
228.372172
  0
LINE
  5
C7
100
AcDbEntity
  8
M0
100
AcDbLine
 10
72.630849
 20
244.372172
 11
199.630849
 21
244.372172
  0
LINE
  5
C8
100
AcDbEntity
  8
M0
100
AcDbLine
 10
168.630849
 20
237.688551
 11
168.630849
 21
251.486525
  0
TEXT
  5
C9
100
AcDbEntity
  8
M0
100
AcDbText
 10
63.110646
 20
242.092139
 40
4.8
  1
３０
 41
0.611111
  7
STANDARD
100
AcDbText
  0
TEXT
  5
CA
100
AcDbEntity
  8
M0
100
AcDbText
 10
168.814183
 20
253.663867
 40
4.8
  1
吸込管径：２５ｍｍ
 41
0.590278
  7
STANDARD
100
AcDbText
  0
LINE
  5
CB
100
AcDbEntity
  8
M0
100
AcDbLine
 10
72.150849
 20
257.492171
 11
72.150851
 21
263.252171
  0
LINE
  5
CC
100
AcDbEntity
  8
M0
100
AcDbLine
 10
72.150851
 20
263.252171
 11
96.710851
 21
263.252171
  0
LINE
  5
CD
100
AcDbEntity
  8
M0
100
AcDbLine
 10
96.710851
 20
263.252171
 11
96.710849
 21
257.492171
  0
LINE
  5
CE
100
AcDbEntity
  8
M0
100
AcDbLine
 10
96.710849
 20
257.492171
 11
72.150849
 21
257.492171
  0
TEXT
  5
CF
100
AcDbEntity
  8
M0
100
AcDbText
 10
72.814183
 20
257.972171
 40
4.8
  1
　浅井戸配管　　　標準ジェット（Ｊ２５－６Ｗ）使用時
 41
0.590278
  7
STANDARD
100
AcDbText
  0
TEXT
  5
D0
100
AcDbEntity
  8
M0
100
AcDbText
 10
72.880854
 20
172.762931
 40
4.5
  1
※破線部域では６０ｋＰａの圧力変動があります。
 41
0.777778
  7
STANDARD
100
AcDbText
  0
LINE
  5
D1
100
AcDbEntity
  8
M0
100
AcDbLine
 10
88.630849
 20
254.026455
 11
88.630849
 21
196.372172
  0
LINE
  5
D2
100
AcDbEntity
  8
M0
100
AcDbLine
 10
120.630849
 20
254.026455
 11
120.630849
 21
196.372172
  0
LINE
  5
D3
100
AcDbEntity
  8
M0
100
AcDbLine
 10
152.630849
 20
254.026455
 11
152.630849
 21
196.372172
  0
LINE
  5
D4
100
AcDbEntity
  8
M0
100
AcDbLine
 10
184.630849
 20
251.486525
 11
184.630849
 21
196.372172
  0
TEXT
  5
D5
100
AcDbEntity
  8
M0
 62
   234
100
AcDbText
 10
155.995202
 20
231.327904
 40
4.8
  1
吸上高さ６ｍ時
 41
0.590278
  7
STANDARD
100
AcDbText
  0
ARC
  5
D6
100
AcDbEntity
  8
M0
 62
   234
100
AcDbCircle
 10
180.723341
 20
208.537734
 40
10.0
100
AcDbArc
 50
8.471145
 51
67.166346
  0
LINE
  5
D7
100
AcDbEntity
  8
M0
 62
   234
100
AcDbLine
 10
190.90596
 20
208.052172
 11
190.614242
 21
210.010847
  0
ARC
  5
D8
100
AcDbEntity
  8
M0
 62
   234
100
AcDbCircle
 10
156.736494
 20
278.00564
 40
50.0
100
AcDbArc
 50
244.394711
 51
259.910618
  0
LINE
  5
D9
100
AcDbEntity
  8
M0
 62
   234
100
AcDbLine
 10
135.128045
 20
232.916008
 11
118.924813
 21
240.681135
  0
ARC
  5
DA
100
AcDbEntity
  8
M0
 62
   234
100
AcDbCircle
 10
116.763968
 20
236.172172
 40
5.0
100
AcDbArc
 50
64.394711
 51
90.0
  0
LINE
  5
DB
100
AcDbEntity
  8
M0
  6
DASHED
 62
   234
100
AcDbLine
 10
72.630849
 20
241.172172
 11
116.763968
 21
241.172172
  0
LINE
  5
DC
100
AcDbEntity
  8
M0
 62
   234
100
AcDbLine
 10
184.603911
 20
217.754088
 11
147.97728
 21
228.778857
  0
LINE
  5
DD
100
AcDbEntity
  8
M0
100
AcDbLine
 10
269.315425
 20
150.260471
 11
269.315425
 21
78.260471
  0
LINE
  5
DE
100
AcDbEntity
  8
M0
100
AcDbLine
 10
269.315425
 20
78.260471
 11
380.315425
 21
78.260471
  0
LINE
  5
DF
100
AcDbEntity
  8
M0
100
AcDbLine
 10
301.315425
 20
78.260471
 11
301.315425
 21
150.260471
  0
LINE
  5
E0
100
AcDbEntity
  8
M0
100
AcDbLine
 10
333.315425
 20
78.260471
 11
333.315425
 21
142.260471
  0
LINE
  5
E1
100
AcDbEntity
  8
M0
100
AcDbLine
 10
365.315425
 20
78.260471
 11
365.315425
 21
142.260471
  0
LINE
  5
E2
100
AcDbEntity
  8
M0
100
AcDbLine
 10
269.315425
 20
94.260471
 11
380.315425
 21
94.260471
  0
LINE
  5
E3
100
AcDbEntity
  8
M0
100
AcDbLine
 10
269.315425
 20
110.260471
 11
380.315425
 21
110.260471
  0
LINE
  5
E4
100
AcDbEntity
  8
M0
100
AcDbLine
 10
269.315425
 20
126.260471
 11
380.315425
 21
126.260471
  0
LINE
  5
E5
100
AcDbEntity
  8
M0
100
AcDbLine
 10
269.315425
 20
142.260471
 11
380.315425
 21
142.260471
  0
LINE
  5
E6
100
AcDbEntity
  8
M0
100
AcDbLine
 10
333.315425
 20
142.260471
 11
333.315425
 21
150.260471
  0
TEXT
  5
E7
100
AcDbEntity
  8
M0
100
AcDbText
 10
269.565432
 20
54.651234
 40
4.5
  1
※破線部域では６０ｋＰａの圧力変動があります。
 41
0.777778
  7
STANDARD
100
AcDbText
  0
TEXT
  5
E8
100
AcDbEntity
  8
M0
100
AcDbText
 10
309.009086
 20
60.811344
 40
7.68
  1
揚水量（Ｌ／分）
 41
0.611111
  7
STANDARD
100
AcDbText
  0
TEXT
  5
E9
100
AcDbEntity
  8
M0
100
AcDbText
 10
262.995221
 20
75.980442
 40
4.8
  1
０
 41
0.611111
  7
STANDARD
100
AcDbText
  0
TEXT
  5
EA
100
AcDbEntity
  8
M0
100
AcDbText
 10
266.195218
 20
70.218433
 40
4.8
  1
０
 41
0.611111
  7
STANDARD
100
AcDbText
  0
TEXT
  5
EB
100
AcDbEntity
  8
M0
100
AcDbText
 10
298.195222
 20
70.218433
 40
4.8
  1
１０
 41
0.611111
  7
STANDARD
100
AcDbText
  0
TEXT
  5
EC
100
AcDbEntity
  8
M0
100
AcDbText
 10
330.195225
 20
70.218433
 40
4.8
  1
２０
 41
0.611111
  7
STANDARD
100
AcDbText
  0
TEXT
  5
ED
100
AcDbEntity
  8
M0
100
AcDbText
 10
362.195216
 20
70.218433
 40
4.8
  1
３０
 41
0.611111
  7
STANDARD
100
AcDbText
  0
ARC
  5
EE
100
AcDbEntity
  8
M0
100
AcDbCircle
 10
251.80144
 20
108.406912
 40
7.68
100
AcDbArc
 50
52.58592
 51
127.41408
  0
ARC
  5
EF
100
AcDbEntity
  8
M0
100
AcDbCircle
 10
251.80144
 20
113.22687
 40
7.68
100
AcDbArc
 50
232.58592
 51
307.41408
  0
TEXT
  5
F0
100
AcDbEntity
  8
M0
100
AcDbText
 10
248.601455
 20
131.361579
 40
5.12
  1
全
 41
1.25
  7
STANDARD
100
AcDbText
  0
TEXT
  5
F1
100
AcDbEntity
  8
M0
100
AcDbText
 10
248.601455
 20
125.729579
 40
5.12
  1
揚
 41
1.25
  7
STANDARD
100
AcDbText
  0
TEXT
  5
F2
100
AcDbEntity
  8
M0
100
AcDbText
 10
248.601455
 20
120.097579
 40
5.12
  1
程
 41
1.25
  7
STANDARD
100
AcDbText
  0
TEXT
  5
F3
100
AcDbEntity
  8
M0
100
AcDbText
 10
248.601455
 20
114.465579
 40
5.12
  1
　
 41
1.25
  7
STANDARD
100
AcDbText
  0
TEXT
  5
F4
100
AcDbEntity
  8
M0
100
AcDbText
 10
248.601455
 20
108.833579
 40
5.12
  1
ｍ
 41
1.25
  7
STANDARD
100
AcDbText
  0
TEXT
  5
F5
100
AcDbEntity
  8
M0
100
AcDbText
 10
259.795224
 20
139.980438
 40
4.8
  1
４０
 41
0.611111
  7
STANDARD
100
AcDbText
  0
TEXT
  5
F6
100
AcDbEntity
  8
M0
100
AcDbText
 10
259.795224
 20
123.980439
 40
4.8
  1
３０
 41
0.611111
  7
STANDARD
100
AcDbText
  0
TEXT
  5
F7
100
AcDbEntity
  8
M0
100
AcDbText
 10
259.795224
 20
107.980439
 40
4.8
  1
２０
 41
0.611111
  7
STANDARD
100
AcDbText
  0
TEXT
  5
F8
100
AcDbEntity
  8
M0
100
AcDbText
 10
259.795224
 20
91.98044
 40
4.8
  1
１０
 41
0.611111
  7
STANDARD
100
AcDbText
  0
TEXT
  5
F9
100
AcDbEntity
  8
M0
100
AcDbText
 10
348.104461
 20
145.271513
 40
4.8
  1
吸込管径：３０ｍｍ
 41
0.590278
  7
STANDARD
100
AcDbText
  0
LINE
  5
FA
100
AcDbEntity
  8
M0
100
AcDbLine
 10
349.315425
 20
78.260471
 11
349.315425
 21
142.260471
  0
LINE
  5
FB
100
AcDbEntity
  8
M0
100
AcDbLine
 10
317.315425
 20
78.260471
 11
317.315425
 21
129.481232
  0
LINE
  5
FC
100
AcDbEntity
  8
M0
100
AcDbLine
 10
285.315425
 20
78.260471
 11
285.315425
 21
150.260471
  0
LINE
  5
FD
100
AcDbEntity
  8
M0
100
AcDbLine
 10
317.315425
 20
139.265698
 11
317.315425
 21
150.260471
  0
LINE
  5
FE
100
AcDbEntity
  8
M0
100
AcDbLine
 10
268.835424
 20
156.730243
 11
268.835426
 21
162.490243
  0
LINE
  5
FF
100
AcDbEntity
  8
M0
100
AcDbLine
 10
268.835426
 20
162.490243
 11
286.595426
 21
162.490243
  0
LINE
  5
100
100
AcDbEntity
  8
M0
100
AcDbLine
 10
286.595426
 20
162.490243
 11
286.595424
 21
156.730243
  0
LINE
  5
101
100
AcDbEntity
  8
M0
100
AcDbLine
 10
286.595424
 20
156.730243
 11
268.835424
 21
156.730243
  0
TEXT
  5
102
100
AcDbEntity
  8
M0
100
AcDbText
 10
269.498758
 20
157.210243
 40
4.8
  1
　深井戸　　　深井戸用シングルジェット（Ｊ２５－１８ＳＷ）使用時
 41
0.590278
  7
STANDARD
100
AcDbText
  0
LINE
  5
103
100
AcDbEntity
  8
M0
 62
   154
100
AcDbLine
 10
296.817423
 20
137.807473
 11
303.709266
 21
127.469709
  0
ARC
  5
104
100
AcDbEntity
  8
M0
 62
   154
100
AcDbCircle
 10
299.715425
 20
124.807148
 40
4.8
100
AcDbArc
 50
0.0
 51
33.690068
  0
LINE
  5
105
100
AcDbEntity
  8
M0
 62
   154
100
AcDbLine
 10
304.515425
 20
124.807148
 11
304.515425
 21
116.660471
  0
ARC
  5
106
100
AcDbEntity
  8
M0
 62
   154
100
AcDbCircle
 10
288.49692
 20
132.260471
 40
10.0
100
AcDbArc
 50
33.690068
 51
90.0
  0
LINE
  5
107
100
AcDbEntity
  8
M0
  6
DASHED
 62
   154
100
AcDbLine
 10
269.315425
 20
142.260471
 11
288.49692
 21
142.260471
  0
TEXT
  5
108
100
AcDbEntity
  8
M0
 62
   154
100
AcDbText
 10
303.998759
 20
131.790006
 40
4.8
  1
吸上高さ１８ｍ時
 41
0.590278
  7
STANDARD
100
AcDbText
  0
TEXT
  5
109
100
AcDbEntity
  8
M0
 62
     1
100
AcDbText
 10
100.21998
 20
130.388161
 40
4.8
  1
吸上高さ２４ｍ時
 41
0.590278
  7
STANDARD
100
AcDbText
  0
LINE
  5
10A
100
AcDbEntity
  8
M0
 62
     1
100
AcDbLine
 10
109.450353
 20
99.668161
 11
108.810353
 21
107.188161
  0
LINE
  5
10B
100
AcDbEntity
  8
M0
 62
     1
100
AcDbLine
 10
108.193465
 20
113.357038
 11
108.810353
 21
107.188161
  0
ARC
  5
10C
100
AcDbEntity
  8
M0
 62
     1
100
AcDbCircle
 10
98.243094
 20
112.362001
 40
10.0
100
AcDbArc
 50
5.710593
 51
26.565051
  0
LINE
  5
10D
100
AcDbEntity
  8
M0
 62
     1
100
AcDbLine
 10
107.187365
 20
116.834137
 11
105.268659
 21
120.67155
  0
ARC
  5
10E
100
AcDbEntity
  8
M0
 62
     1
100
AcDbCircle
 10
96.324387
 20
116.199414
 40
10.0
100
AcDbArc
 50
26.565051
 51
57.994617
  0
LINE
  5
10F
100
AcDbEntity
  8
M0
 62
     1
100
AcDbLine
 10
101.624376
 20
124.679397
 11
94.146457
 21
129.353096
  0
ARC
  5
110
100
AcDbEntity
  8
M0
 62
     1
100
AcDbCircle
 10
99.446447
 20
137.833079
 40
10.0
100
AcDbArc
 50
222.240641
 51
237.994617
  0
ARC
  5
111
100
AcDbEntity
  8
M0
 62
     1
100
AcDbCircle
 10
84.639888
 20
124.388161
 40
10.0
100
AcDbArc
 50
42.240641
 51
90.0
  0
LINE
  5
112
100
AcDbEntity
  8
M0
  6
DASHED
 62
     1
100
AcDbLine
 10
84.639888
 20
134.388161
 11
72.635425
 21
134.388161
  0
ENDSEC
  0
SECTION
  2
OBJECTS
  0
DICTIONARY
  5
C
100
AcDbDictionary
  3
ACAD_GROUP
350
D
  3
ACAD_MLINESTYLE
350
E
  0
DICTIONARY
  5
D
102
{ACAD_REACTORS
330
C
102
}
100
AcDbDictionary
  0
DICTIONARY
  5
E
102
{ACAD_REACTORS
330
C
102
}
100
AcDbDictionary
  3
STANDARD
350
13
  0
MLINESTYLE
  5
13
102
{ACAD_REACTORS
330
E
102
}
100
AcDbMlineStyle
  2
STANDARD
 70
     0
  3

 62
     0
 51
90.0
 52
90.0
 71
     2
 49
0.5
 62
   256
  6
BYLAYER
 49
-0.5
 62
   256
  6
BYLAYER
  0
ENDSEC
  0
EOF
