  0
SECTION
  2
HEADER
  9
$ACADVER
  1
AC1012
  9
$INSBASE
 10
0.000000
 20
0.000000
 30
0.0
  9
$VIEWCTR
 10
7.531722
 20
4.5
  9
$VIEWSIZE
 40
9.0
  9
$SNAPMODE
 70
     0
  9
$SNAPUNIT
 10
1.0
 20
1.0
  9
$SNAPBASE
 10
0.0
 20
0.0
  9
$SNAPANG
 50
0.0
  9
$SNAPSTYLE
 70
     0
  9
$SNAPISOPAIR
 70
     0
  9
$GRIDMODE
 70
     0
  9
$GRIDUNIT
 10
0.0
 20
0.0
  9
$ORTHOMODE
 70
     0
  9
$REGENMODE
 70
     1
  9
$FILLMODE
 70
     1
  9
$QTEXTMODE
 70
     0
  9
$DRAGMODE
 70
     2
  9
$LTSCALE
  40
     1.000000
  9
$OSMODE
 70
     0
  9
$ATTMODE
 70
     1
  9
$TEXTSIZE
 40
0.2
  9
$TRACEWID
 40
0.05
  9
$TEXTSTYLE
  7
STANDARD
  9
$CELTYPE
  6
BYLAYER
  9
$CECOLOR
 62
   256
  9
$DIMSCALE
 40
1.0
  9
$DIMASZ
 40
0.18
  9
$DIMEXO
 40
0.0625
  9
$DIMDLI
 40
0.38
  9
$DIMRND
 40
0.0
  9
$DIMDLE
 40
0.0
  9
$DIMEXE
 40
0.18
  9
$DIMTP
 40
0.0
  9
$DIMTM
 40
0.0
  9
$DIMTXT
 40
0.18
  9
$DIMCEN
 40
0.09
  9
$DIMTSZ
 40
0.0
  9
$DIMTOL
 70
     0
  9
$DIMLIM
 70
     0
  9
$DIMTIH
 70
     1
  9
$DIMTOH
 70
     1
  9
$DIMSE1
 70
     0
  9
$DIMSE2
 70
     0
  9
$DIMTAD
 70
     0
  9
$DIMZIN
 70
     0
  9
$DIMBLK
  1

  9
$LUNITS
 70
     2
  9
$LUPREC
 70
     4
  9
$AXISMODE
 70
     0
  9
$AXISUNIT
 10
0.0
 20
0.0
  9
$SKETCHINC
 40
0.1
  9
$FILLETRAD
 40
0.0
  9
$AUNITS
 70
     0
  9
$AUPREC
 70
     0
  9
$MENU
  1
ACAD
  9
$ELEVATION
 40
0.0
  9
$THICKNESS
 40
0.0
  9
$VIEWDIR
 10
0.0
 20
0.0
 30
1.0
  9
$LIMCHECK
 70
     0
  9
$BLIPMODE
 70
     1
  9
$CHAMFERA
 40
0.0
  9
$CHAMFERB
 40
0.0
  9
$FASTZOOM
 70
     1
  9
$SKPOLY
 70
     0
  9
$TDCREATE
 40
0000000.0000000000
  9
$TDUPDATE
 40
0000000.0000000000
  9
$TDINDWG
 40
0.0000000000
  9
$TDUSRTIMER
 40
0.0000000000
  9
$USRTIMER
 70
     1
  9
$ANGBASE
 50
0.0
  9
$ANGDIR
 70
     0
  9
$PDMODE
 70
     0
  9
$PDSIZE
 40
0.0
  9
$PLINEWID
 40
0.0
  9
$COORDS
 70
     0
  9
$USERI1
 70
     0
  9
$USERI2
 70
     0
  9
$USERI3
 70
     0
  9
$USERI4
 70
     0
  9
$USERI5
 70
     0
  9
$USERR1
 40
0.0
  9
$USERR2
 40
0.0
  9
$USERR3
 40
0.0
  9
$USERR4
 40
0.0
  9
$USERR5
 40
0.0
  9
$CLAYER
  8
M0
  9
$EXTMIN
 10
0.0
 20
0.0
  9
$EXTMAX
 10
420.0
 20
297.0
  9
$LIMMIN
 10
0.0
 20
0.0
  9
$LIMMAX
 10
420.0
 20
297.0
  9
$HANDSEED
  5
10F
  0
ENDSEC
  0
SECTION
  2
CLASSES
  0
ENDSEC
  0
SECTION
  2
TABLES
  0
TABLE
  2
VPORT
  5
8
100
AcDbSymbolTable
 70
     2
  0
VPORT
  5
14
100
AcDbSymbolTableRecord
100
AcDbViewportTableRecord
  2
*ACTIVE
 70
     0
 10
0.0
 20
0.0
 11
1.0
 21
1.0
 12
484.0
 22
297.0
 13
0.0
 23
0.0
 14
1.0
 24
1.0
 15
0.0
 25
0.0
 16
0.0
 26
0.0
 36
1.0
 17
0.0
 27
0.0
 37
0.0
 40
594.0
 41
2.0
 42
50.0
 43
0.0
 44
0.0
 50
0.0
 51
0.0
 71
     0
 72
   100
 73
     1
 74
     1
 75
     0
 76
     0
 77
     0
 78
     0
  0
ENDTAB
  0
TABLE
  2
LTYPE
  5
5
100
AcDbSymbolTable
 70
     5
  0
LTYPE
  5
15
100
AcDbSymbolTableRecord
100
AcDbLinetypeTableRecord
  2
BYBLOCK
 70
     0
  3

 72
    65
 73
     0
 40
0.0
  0
LTYPE
  5
16
100
AcDbSymbolTableRecord
100
AcDbLinetypeTableRecord
  2
BYLAYER
 70
     0
  3

 72
    65
 73
     0
 40
0.0
  0
LTYPE
  5
17
100
AcDbSymbolTableRecord
100
AcDbLinetypeTableRecord
  2
CONTINUOUS
 70
    64
  3
Solid line
 72
    65
 73
     0
 40
0.0
  0
LTYPE
  5
18
100
AcDbSymbolTableRecord
100
AcDbLinetypeTableRecord
  2
DASHED
 70
    64
  3
__ __ __ __ __ __ __ __ __ __ __ __ __ __ __ __
 72
    65
 73
     2
 40
0.75
 49
0.5
 74
     0
 49
-0.25
 74
     0
  0
LTYPE
  5
19
100
AcDbSymbolTableRecord
100
AcDbLinetypeTableRecord
  2
DASHDOT
 70
    64
  3
__ . __ . __ . __ . __ . __ . __ . __ . __ . __
 72
    65
 73
     4
 40
1.0
 49
0.5
 74
     0
 49
-0.25
 74
     0
 49
0.0
 74
     0
 49
-0.25
 74
     0
  0
LTYPE
  5
1A
100
AcDbSymbolTableRecord
100
AcDbLinetypeTableRecord
  2
DIVIDE
 70
    64
  3
____ . . ____ . . ____ . . ____ . . ____ . . __
 72
    65
 73
     6
 40
1.25
 49
0.5
 74
     0
 49
-0.25
 74
     0
 49
0.0
 74
     0
 49
-0.25
 74
     0
 49
0.0
 74
     0
 49
-0.25
 74
     0
  0
LTYPE
  5
1B
100
AcDbSymbolTableRecord
100
AcDbLinetypeTableRecord
  2
DOT
 70
    64
  3
. . . . . . . . . . . . . . . . . . . . . . . .
 72
    65
 73
     2
 40
0.25
 49
0.0
 74
     0
 49
-0.25
 74
     0
  0
ENDTAB
  0
TABLE
  2
LAYER
  5
2
100
AcDbSymbolTable
 70
   102
  0
LAYER
  5
F
100
AcDbSymbolTableRecord
100
AcDbLayerTableRecord
  2
0
 70
     0
 62
     7
  6
CONTINUOUS
  0
LAYER
  5
1C
100
AcDbSymbolTableRecord
100
AcDbLayerTableRecord
  2
DEFPOINTS
 70
     0
 62
     7
  6
CONTINUOUS
  0
LAYER
  5
1D
100
AcDbSymbolTableRecord
100
AcDbLayerTableRecord
  2
M0
 70
     0
 62
     3
  6
CONTINUOUS
  0
LAYER
  5
1E
100
AcDbSymbolTableRecord
100
AcDbLayerTableRecord
  2
DD0
 70
     0
 62
     4
  6
CONTINUOUS
  0
ENDTAB
  0
TABLE
  2
STYLE
  5
3
100
AcDbSymbolTable
 70
     2
  0
STYLE
  5
10
100
AcDbSymbolTableRecord
100
AcDbTextStyleTableRecord
  2
STANDARD
 70
     0
 40
0.0
 41
1.0
 50
0.0
 71
     0
 42
0.2
  3
txt
  4
BIGFONT
  0
ENDTAB
  0
TABLE
  2
VIEW
  5
6
100
AcDbSymbolTable
 70
     0
  0
ENDTAB
  0
TABLE
  2
UCS
  5
7
100
AcDbSymbolTable
 70
     0
  0
ENDTAB
  0
TABLE
  2
APPID
  5
9
100
AcDbSymbolTable
 70
     1
  0
APPID
  5
11
100
AcDbSymbolTableRecord
100
AcDbRegAppTableRecord
  2
ACAD
 70
     0
  0
ENDTAB
  0
TABLE
  2
DIMSTYLE
  5
A
100
AcDbSymbolTable
 70
     2
  0
DIMSTYLE
105
25
100
AcDbSymbolTableRecord
100
AcDbDimStyleTableRecord
  2
STANDARD
 70
     0
  3

  4

  5

  6
_OPEN
  7
_OPEN
 40
1.0
 41
3.0
 42
0.0
 43
8.0
 44
1.5
 45
0.0
 46
0.0
 47
0.0
 48
0.0
140
3.5
141
0.09
142
0.0
143
0.03937
144
1.0
145
0.0
146
1.0
147
1.0
 71
     0
 72
     0
 73
     1
 74
     1
 75
     0
 76
     0
 77
     3
 78
     8
170
     0
171
     2
172
     0
173
     1
174
     0
175
     0
176
     0
177
     0
178
     0
270
     2
271
     2
272
     4
273
     2
274
     2
340
10
275
     0
280
     0
281
     0
282
     0
283
     1
284
     0
285
     0
286
     0
287
     3
288
     0
  0
DIMSTYLE
105
26
100
AcDbSymbolTableRecord
100
AcDbDimStyleTableRecord
  2
LEADSTYL
 70
     0
  3

  4

  5

  6
_OPEN
  7
_OPEN
 40
1.0
 41
3.0
 42
0.0625
 43
0.38
 44
0.18
 45
0.0
 46
0.0
 47
0.0
 48
0.0
140
3.2
141
0.09
142
0.0
143
25.4
144
1.0
145
0.0
146
1.0
147
1.0
 71
     0
 72
     0
 73
     1
 74
     1
 75
     0
 76
     0
 77
     0
 78
     0
170
     0
171
     2
172
     0
173
     1
174
     0
175
     0
176
     0
177
     0
178
     0
270
     2
271
     4
272
     4
273
     2
274
     2
340
10
275
     0
280
     0
281
     0
282
     0
283
     1
284
     0
285
     0
286
     0
287
     3
288
     0
  0
ENDTAB
  0
TABLE
  2
BLOCK_RECORD
  5
1
100
AcDbSymbolTable
 70
     6
  0
BLOCK_RECORD
  5
1F
100
AcDbSymbolTableRecord
100
AcDbBlockTableRecord
  2
*MODEL_SPACE
  0
BLOCK_RECORD
  5
22
100
AcDbSymbolTableRecord
100
AcDbBlockTableRecord
  2
*PAPER_SPACE
  0
BLOCK_RECORD
  5
27
100
AcDbSymbolTableRecord
100
AcDbBlockTableRecord
  2
_NONE
  0
BLOCK_RECORD
  5
2B
100
AcDbSymbolTableRecord
100
AcDbBlockTableRecord
  2
_OPEN
  0
BLOCK_RECORD
  5
31
100
AcDbSymbolTableRecord
100
AcDbBlockTableRecord
  2
_CLOSED
  0
BLOCK_RECORD
  5
38
100
AcDbSymbolTableRecord
100
AcDbBlockTableRecord
  2
_ORIGIN
  0
BLOCK_RECORD
  5
3D
100
AcDbSymbolTableRecord
100
AcDbBlockTableRecord
  2
_DOT
  0
BLOCK_RECORD
  5
45
100
AcDbSymbolTableRecord
100
AcDbBlockTableRecord
  2
_OBLIQUE
  0
ENDTAB
  0
ENDSEC
  0
SECTION
  2
BLOCKS
  0
BLOCK
  5
20
100
AcDbEntity
  8
0
100
AcDbBlockBegin
  2
*MODEL_SPACE
 70
     0
 10
0.0
 20
0.0
 30
0.0
  3
*MODEL_SPACE
  1

  0
ENDBLK
  5
21
100
AcDbEntity
  8
0
100
AcDbBlockEnd
  0
BLOCK
  5
23
100
AcDbEntity
 67
     1
  8
0
100
AcDbBlockBegin
  2
*PAPER_SPACE
 70
     0
 10
0.0
 20
0.0
 30
0.0
  3
*PAPER_SPACE
  1

  0
ENDBLK
  5
24
100
AcDbEntity
 67
     1
  8
0
100
AcDbBlockEnd
  0
BLOCK
  5
28
100
AcDbEntity
  8
0
100
AcDbBlockBegin
  2
_NONE
 70
     0
 10
0.0
 20
0.0
  0
CIRCLE
  5
29
100
AcDbEntity
  8
0
 62
     0
100
AcDbCircle
 10
0.0
 20
0.0
 40
0.25
  0
ENDBLK
  5
2A
100
AcDbEntity
  8
0
100
AcDbBlockEnd
  0
BLOCK
  5
2C
100
AcDbEntity
  8
0
100
AcDbBlockBegin
  2
_OPEN
 70
     0
 10
0.0
 20
0.0
  0
LINE
  5
2D
100
AcDbEntity
  8
0
 62
     0
100
AcDbLine
 10
-0.965926
 20
0.258819
 11
0.0
 21
0.0
  0
LINE
  5
2E
100
AcDbEntity
  8
0
 62
     0
100
AcDbLine
 10
0.0
 20
0.0
 11
-0.965926
 21
-0.258819
  0
LINE
  5
2F
100
AcDbEntity
  8
0
 62
     0
100
AcDbLine
 10
0.0
 20
0.0
 11
-1.0
 21
0.0
  0
ENDBLK
  5
30
100
AcDbEntity
  8
0
100
AcDbBlockEnd
  0
BLOCK
  5
32
100
AcDbEntity
  8
0
100
AcDbBlockBegin
  2
_CLOSED
 70
     0
 10
0.0
 20
0.0
  0
LINE
  5
33
100
AcDbEntity
  8
0
 62
     0
100
AcDbLine
 10
-0.965926
 20
0.258819
 11
0.0
 21
0.0
  0
LINE
  5
34
100
AcDbEntity
  8
0
 62
     0
100
AcDbLine
 10
0.0
 20
0.0
 11
-0.965926
 21
-0.258819
  0
LINE
  5
35
100
AcDbEntity
  8
0
 62
     0
100
AcDbLine
 10
-0.965926
 20
0.258819
 11
-0.965926
 21
-0.258819
  0
LINE
  5
36
100
AcDbEntity
  8
0
 62
     0
100
AcDbLine
 10
0.0
 20
0.0
 11
-1.0
 21
0.0
  0
ENDBLK
  5
37
100
AcDbEntity
  8
0
100
AcDbBlockEnd
  0
BLOCK
  5
39
100
AcDbEntity
  8
0
100
AcDbBlockBegin
  2
_ORIGIN
 70
     0
 10
0.0
 20
0.0
  0
CIRCLE
  5
3A
100
AcDbEntity
  8
0
 62
     0
100
AcDbCircle
 10
0.0
 20
0.0
 40
0.5
  0
LINE
  5
3B
100
AcDbEntity
  8
0
 62
     0
100
AcDbLine
 10
0.0
 20
0.0
 11
-1.0
 21
0.0
  0
ENDBLK
  5
3C
100
AcDbEntity
  8
0
100
AcDbBlockEnd
  0
BLOCK
  5
3E
100
AcDbEntity
  8
0
100
AcDbBlockBegin
  2
_DOT
 70
     0
 10
0.0
 20
0.0
  0
POLYLINE
  5
3F
100
AcDbEntity
  8
0
 62
     0
100
AcDb2dPolyline
 66
     1
 70
     1
 40
0.5
 41
0.5
  0
VERTEX
  5
40
100
AcDbEntity
  8
0
 62
     0
100
AcDbVertex
100
AcDb2dVertex
 10
-0.25
 20
0.0
 42
1.0
  0
VERTEX
  5
41
100
AcDbEntity
  8
0
 62
     0
100
AcDbVertex
100
AcDb2dVertex
 10
0.25
 20
0.0
 42
1.0
  0
SEQEND
  5
42
100
AcDbEntity
  8
0
 62
     0
  0
LINE
  5
43
100
AcDbEntity
  8
0
 62
     0
100
AcDbLine
 10
-0.5
 20
0.0
 11
-1.0
 21
0.0
  0
ENDBLK
  5
44
100
AcDbEntity
  8
0
100
AcDbBlockEnd
  0
BLOCK
  5
46
100
AcDbEntity
  8
0
100
AcDbBlockBegin
  2
_OBLIQUE
 70
     0
 10
0.0
 20
0.0
  0
LINE
  5
47
100
AcDbEntity
  8
0
 62
     0
100
AcDbLine
 10
-0.353553
 20
-0.353553
 11
0.353553
 21
0.353553
  0
ENDBLK
  5
48
100
AcDbEntity
  8
0
100
AcDbBlockEnd
  0
ENDSEC
  0
SECTION
  2
ENTITIES
  0
LEADER
  5
49
100
AcDbEntity
  8
DD0
100
AcDbLeader
  3
LEADSTYL
 76
     3
 10
164.35257
 20
114.108025
 10
168.479126
 20
135.543182
 10
222.979126
 20
135.543182
340
4A
 77
     4
  0
TEXT
  5
4A
100
AcDbEntity
  8
DD0
100
AcDbText
 10
169.770793
 20
136.543182
 40
3.5
  1
「標準」ＯＦＦ圧　２２０ｋＰａ
 41
0.833333
  7
STANDARD
100
AcDbText
  0
LEADER
  5
4B
100
AcDbEntity
  8
DD0
100
AcDbLeader
  3
LEADSTYL
 76
     3
 10
49.334423
 20
222.896133
 10
53.600925
 20
238.296127
 10
108.100922
 20
238.296127
340
4C
 77
     4
  0
TEXT
  5
4C
100
AcDbEntity
  8
DD0
100
AcDbText
 10
54.892592
 20
239.296127
 40
3.5
  1
「標準」ＯＦＦ圧　２２０ｋＰａ
 41
0.833333
  7
STANDARD
100
AcDbText
  0
LEADER
  5
4D
100
AcDbEntity
  8
DD0
100
AcDbLeader
  3
LEADSTYL
 76
     3
 10
47.309425
 20
227.09613
 10
44.51305
 20
248.849762
 10
95.513046
 20
248.849762
340
4E
 77
     4
  0
TEXT
  5
4E
100
AcDbEntity
  8
DD0
100
AcDbText
 10
45.804717
 20
249.849762
 40
3.5
  1
「高」ＯＦＦ圧　２５０ｋＰａ
 41
0.833333
  7
STANDARD
100
AcDbText
  0
LEADER
  5
4F
100
AcDbEntity
  8
DD0
100
AcDbLeader
  3
LEADSTYL
 76
     3
 10
161.214355
 20
229.496109
 10
165.776672
 20
247.696106
 10
216.776672
 20
247.696106
340
50
 77
     4
  0
TEXT
  5
50
100
AcDbEntity
  8
DD0
100
AcDbText
 10
167.068339
 20
248.696106
 40
3.5
  1
「高」ＯＦＦ圧　２５０ｋＰａ
 41
0.833333
  7
STANDARD
100
AcDbText
  0
LEADER
  5
51
100
AcDbEntity
  8
DD0
100
AcDbLeader
  3
LEADSTYL
 76
     3
 10
166.228027
 20
225.296112
 10
173.084885
 20
239.201614
 10
227.584885
 20
239.201614
340
52
 77
     4
  0
TEXT
  5
52
100
AcDbEntity
  8
DD0
100
AcDbText
 10
174.376551
 20
240.201614
 40
3.5
  1
「標準」ＯＦＦ圧　２２０ｋＰａ
 41
0.833333
  7
STANDARD
100
AcDbText
  0
LEADER
  5
53
100
AcDbEntity
  8
DD0
100
AcDbLeader
  3
LEADSTYL
 76
     3
 10
47.721893
 20
122.508018
 10
46.618683
 20
133.690109
 10
101.118683
 20
133.690109
340
54
 77
     4
  0
TEXT
  5
54
100
AcDbEntity
  8
DD0
100
AcDbText
 10
47.91035
 20
134.690109
 40
3.5
  1
「標準」ＯＦＦ圧　２２０ｋＰａ
 41
0.833333
  7
STANDARD
100
AcDbText
  0
LEADER
  5
55
100
AcDbEntity
  8
DD0
100
AcDbLeader
  3
LEADSTYL
 76
     3
 10
63.413654
 20
215.896133
 10
73.642792
 20
227.92218
 10
124.642792
 20
227.92218
340
56
 77
     4
  0
TEXT
  5
56
100
AcDbEntity
  8
DD0
100
AcDbText
 10
74.934458
 20
228.92218
 40
3.5
  1
「低」ＯＦＦ圧　１７０ｋＰａ
 41
0.833333
  7
STANDARD
100
AcDbText
  0
LEADER
  5
57
100
AcDbEntity
  8
DD0
100
AcDbLeader
  3
LEADSTYL
 76
     3
 10
178.896408
 20
218.296112
 10
185.881546
 20
231.517944
 10
236.881546
 20
231.517944
340
58
 77
     4
  0
TEXT
  5
58
100
AcDbEntity
  8
DD0
100
AcDbText
 10
187.173213
 20
232.517944
 40
3.5
  1
「低」ＯＦＦ圧　１７０ｋＰａ
 41
0.833333
  7
STANDARD
100
AcDbText
  0
LEADER
  5
59
100
AcDbEntity
  8
DD0
100
AcDbLeader
  3
LEADSTYL
 76
     3
 10
51.573536
 20
115.508018
 10
64.521019
 20
124.932426
 10
115.521019
 20
124.932426
340
5A
 77
     4
  0
TEXT
  5
5A
100
AcDbEntity
  8
DD0
100
AcDbText
 10
65.812686
 20
125.932426
 40
3.5
  1
「低」ＯＦＦ圧　１７０ｋＰａ
 41
0.833333
  7
STANDARD
100
AcDbText
  0
LEADER
  5
5B
100
AcDbEntity
  8
DD0
100
AcDbLeader
  3
LEADSTYL
 76
     3
 10
166.748779
 20
107.108025
 10
179.455597
 20
122.007706
 10
230.455597
 20
122.007706
340
5C
 77
     4
  0
TEXT
  5
5C
100
AcDbEntity
  8
DD0
100
AcDbText
 10
180.747264
 20
123.007706
 40
3.5
  1
「低」ＯＦＦ圧　１７０ｋＰａ
 41
0.833333
  7
STANDARD
100
AcDbText
  0
TEXT
  5
5D
100
AcDbEntity
  8
M0
100
AcDbText
 10
159.29091
 20
142.681908
 40
3.528
  1
吸上高さ１８ｍ時
 41
0.777778
  7
STANDARD
100
AcDbText
  0
TEXT
  5
5E
100
AcDbEntity
  8
M0
100
AcDbText
 10
155.863713
 20
147.617082
 40
3.528
  1
【深井戸用特殊ジェットＪ２５－１８ＳＸ組合せ時】
 41
0.777778
  7
STANDARD
100
AcDbText
  0
LINE
  5
5F
100
AcDbEntity
  8
M0
100
AcDbLine
 10
172.931091
 20
98.625805
 11
172.931091
 21
91.708022
  0
ARC
  5
60
100
AcDbEntity
  8
M0
100
AcDbCircle
 10
171.531091
 20
98.625805
 40
1.4
100
AcDbArc
 50
1.861079E-012
 51
17.106254
  0
LINE
  5
61
100
AcDbEntity
  8
M0
100
AcDbLine
 10
172.869156
 20
99.037608
 11
168.535218
 21
113.119824
  0
ARC
  5
62
100
AcDbEntity
  8
M0
100
AcDbCircle
 10
167.197153
 20
112.708022
 40
1.4
100
AcDbArc
 50
17.106254
 51
90.0
  0
ARC
  5
63
100
AcDbEntity
  8
M0
100
AcDbCircle
 10
169.35147
 20
105.708022
 40
1.4
100
AcDbArc
 50
17.106254
 51
90.0
  0
LINE
  5
64
100
AcDbEntity
  8
M0
  6
DASHED
 62
     2
100
AcDbLine
 10
157.531091
 20
114.108022
 11
167.197153
 21
114.108022
  0
TEXT
  5
65
100
AcDbEntity
  8
M0
100
AcDbText
 10
159.291684
 20
262.270012
 40
3.528
  1
吸上高さ１２ｍ時
 41
0.777778
  7
STANDARD
100
AcDbText
  0
TEXT
  5
66
100
AcDbEntity
  8
M0
100
AcDbText
 10
155.864475
 20
267.20518
 40
3.528
  1
【深井戸ジェットＪ２５－１２Ｙ組わ合せ時】
 41
0.777778
  7
STANDARD
100
AcDbText
  0
TEXT
  5
67
100
AcDbEntity
  8
M0
100
AcDbText
 10
40.036324
 20
25.566536
 40
3.456
  1
※破線部域では運転圧力「標準」「低」時に６０ｋＰａ、「高」時に９０ｋＰａの圧力変動があります。
 50
-1.001791E-005
 41
0.652006
  7
STANDARD
100
AcDbText
  0
LINE
  5
68
100
AcDbEntity
  8
M0
  6
DASHED
 62
     2
100
AcDbLine
 10
41.531857
 20
222.89613
 11
57.136992
 21
222.89613
  0
LINE
  5
69
100
AcDbEntity
  8
M0
 62
   234
100
AcDbLine
 10
168.231091
 20
114.108022
 11
230.331091
 21
114.108022
  0
LINE
  5
6A
100
AcDbEntity
  8
M0
 62
   234
100
AcDbLine
 10
157.531091
 20
100.108022
 11
230.331091
 21
100.108022
  0
LINE
  5
6B
100
AcDbEntity
  8
M0
 62
   234
100
AcDbLine
 10
230.331091
 20
58.108022
 11
157.531091
 21
58.108022
  0
LINE
  5
6C
100
AcDbEntity
  8
M0
 62
   234
100
AcDbLine
 10
157.531091
 20
72.108022
 11
230.331091
 21
72.108022
  0
LINE
  5
6D
100
AcDbEntity
  8
M0
 62
   234
100
AcDbLine
 10
157.531091
 20
86.108022
 11
201.281091
 21
86.108022
  0
LINE
  5
6E
100
AcDbEntity
  8
M0
 62
   234
100
AcDbLine
 10
171.531091
 20
130.908022
 11
171.531091
 21
58.108022
  0
LINE
  5
6F
100
AcDbEntity
  8
M0
 62
   234
100
AcDbLine
 10
157.531091
 20
130.908022
 11
157.531091
 21
58.108022
  0
LINE
  5
70
100
AcDbEntity
  8
M0
 62
   234
100
AcDbLine
 10
157.531091
 20
86.108022
 11
230.331091
 21
86.108022
  0
LINE
  5
71
100
AcDbEntity
  8
M0
 62
   234
100
AcDbLine
 10
157.531091
 20
128.108022
 11
173.536745
 21
128.108022
  0
LINE
  5
72
100
AcDbEntity
  8
M0
 62
   234
100
AcDbLine
 10
227.531091
 20
116.908022
 11
227.531091
 21
58.108022
  0
LINE
  5
73
100
AcDbEntity
  8
M0
 62
   234
100
AcDbLine
 10
185.531091
 20
116.908022
 11
185.531091
 21
58.108022
  0
LINE
  5
74
100
AcDbEntity
  8
M0
 62
   234
100
AcDbLine
 10
199.531091
 20
116.908022
 11
199.531091
 21
58.108022
  0
LINE
  5
75
100
AcDbEntity
  8
M0
 62
   234
100
AcDbLine
 10
213.531091
 20
116.908022
 11
213.531091
 21
58.108022
  0
TEXT
  5
76
100
AcDbEntity
  8
M0
100
AcDbText
 10
156.371685
 20
53.434943
 40
3.6
  1
０
 41
0.601852
  7
STANDARD
100
AcDbText
  0
TEXT
  5
77
100
AcDbEntity
  8
M0
100
AcDbText
 10
169.389275
 20
53.434943
 40
3.6
  1
１０
 41
0.601852
  7
STANDARD
100
AcDbText
  0
TEXT
  5
78
100
AcDbEntity
  8
M0
100
AcDbText
 10
183.389275
 20
53.434943
 40
3.6
  1
２０
 41
0.601852
  7
STANDARD
100
AcDbText
  0
TEXT
  5
79
100
AcDbEntity
  8
M0
100
AcDbText
 10
197.389269
 20
53.434943
 40
3.6
  1
３０
 41
0.601852
  7
STANDARD
100
AcDbText
  0
TEXT
  5
7A
100
AcDbEntity
  8
M0
100
AcDbText
 10
211.389269
 20
53.434943
 40
3.6
  1
４０
 41
0.601852
  7
STANDARD
100
AcDbText
  0
TEXT
  5
7B
100
AcDbEntity
  8
M0
100
AcDbText
 10
225.389269
 20
53.434943
 40
3.6
  1
５０
 41
0.601852
  7
STANDARD
100
AcDbText
  0
TEXT
  5
7C
100
AcDbEntity
  8
M0
100
AcDbText
 10
185.682944
 20
48.934485
 40
3.6
  1
揚水量（Ｌ／分）
 41
0.63786
  7
STANDARD
100
AcDbText
  0
TEXT
  5
7D
100
AcDbEntity
  8
M0
100
AcDbText
 10
154.255816
 20
56.034943
 40
3.6
  1
０
 41
0.601852
  7
STANDARD
100
AcDbText
  0
TEXT
  5
7E
100
AcDbEntity
  8
M0
100
AcDbText
 10
151.907073
 20
70.398999
 40
3.6
  1
１０
 41
0.601852
  7
STANDARD
100
AcDbText
  0
TEXT
  5
7F
100
AcDbEntity
  8
M0
100
AcDbText
 10
151.907073
 20
84.399005
 40
3.6
  1
２０
 41
0.601852
  7
STANDARD
100
AcDbText
  0
TEXT
  5
80
100
AcDbEntity
  8
M0
100
AcDbText
 10
151.907073
 20
98.399005
 40
3.6
  1
３０
 41
0.601852
  7
STANDARD
100
AcDbText
  0
TEXT
  5
81
100
AcDbEntity
  8
M0
100
AcDbText
 10
151.805523
 20
112.310907
 40
3.6
  1
４０
 41
0.601852
  7
STANDARD
100
AcDbText
  0
TEXT
  5
82
100
AcDbEntity
  8
M0
100
AcDbText
 10
151.805523
 20
126.310907
 40
3.6
  1
５０
 41
0.601852
  7
STANDARD
100
AcDbText
  0
TEXT
  5
83
100
AcDbEntity
  8
M0
100
AcDbText
 10
149.318556
 20
78.899486
 40
3.6
  1
（　）
 50
90.000003
 41
0.63786
  7
STANDARD
100
AcDbText
  0
TEXT
  5
84
100
AcDbEntity
  8
M0
100
AcDbText
 10
146.050136
 20
96.508021
 40
3.6
  1
全
 41
0.833333
  7
STANDARD
100
AcDbText
  0
TEXT
  5
85
100
AcDbEntity
  8
M0
100
AcDbText
 10
146.050136
 20
92.752466
 40
3.6
  1
揚
 41
0.833333
  7
STANDARD
100
AcDbText
  0
TEXT
  5
86
100
AcDbEntity
  8
M0
100
AcDbText
 10
146.050136
 20
88.996911
 40
3.6
  1
程
 41
0.833333
  7
STANDARD
100
AcDbText
  0
TEXT
  5
87
100
AcDbEntity
  8
M0
100
AcDbText
 10
146.050136
 20
85.241355
 40
3.6
  1
　
 41
0.833333
  7
STANDARD
100
AcDbText
  0
TEXT
  5
88
100
AcDbEntity
  8
M0
100
AcDbText
 10
146.050136
 20
81.4858
 40
3.6
  1
ｍ
 41
0.833333
  7
STANDARD
100
AcDbText
  0
TEXT
  5
89
100
AcDbEntity
  8
M0
100
AcDbText
 10
33.319319
 20
203.087593
 40
3.6
  1
（　）
 50
90.000003
 41
0.63786
  7
STANDARD
100
AcDbText
  0
TEXT
  5
8A
100
AcDbEntity
  8
M0
100
AcDbText
 10
30.050899
 20
220.69613
 40
3.6
  1
全
 41
0.833333
  7
STANDARD
100
AcDbText
  0
TEXT
  5
8B
100
AcDbEntity
  8
M0
100
AcDbText
 10
30.050899
 20
216.940575
 40
3.6
  1
揚
 41
0.833333
  7
STANDARD
100
AcDbText
  0
TEXT
  5
8C
100
AcDbEntity
  8
M0
100
AcDbText
 10
30.050899
 20
213.185019
 40
3.6
  1
程
 41
0.833333
  7
STANDARD
100
AcDbText
  0
TEXT
  5
8D
100
AcDbEntity
  8
M0
100
AcDbText
 10
30.050899
 20
209.429464
 40
3.6
  1
　
 41
0.833333
  7
STANDARD
100
AcDbText
  0
TEXT
  5
8E
100
AcDbEntity
  8
M0
100
AcDbText
 10
30.050899
 20
205.673909
 40
3.6
  1
ｍ
 41
0.833333
  7
STANDARD
100
AcDbText
  0
LINE
  5
8F
100
AcDbEntity
  8
M0
  6
DASHED
 62
     1
100
AcDbLine
 10
41.531857
 20
227.09613
 11
53.086992
 21
227.09613
  0
LINE
  5
90
100
AcDbEntity
  8
M0
  6
DASHDOT
 62
     1
100
AcDbLine
 10
54.094774
 20
226.667919
 11
60.431857
 21
220.09613
  0
ARC
  5
91
100
AcDbEntity
  8
M0
  6
DASHDOT
 62
     1
100
AcDbCircle
 10
53.086992
 20
225.69613
 40
1.4
100
AcDbArc
 50
43.958373
 51
90.0
  0
TEXT
  5
92
100
AcDbEntity
  8
M0
100
AcDbText
 10
38.256579
 20
180.22305
 40
3.6
  1
０
 41
0.601852
  7
STANDARD
100
AcDbText
  0
TEXT
  5
93
100
AcDbEntity
  8
M0
100
AcDbText
 10
35.907836
 20
194.587107
 40
3.6
  1
１０
 41
0.601852
  7
STANDARD
100
AcDbText
  0
TEXT
  5
94
100
AcDbEntity
  8
M0
100
AcDbText
 10
35.907836
 20
208.587112
 40
3.6
  1
２０
 41
0.601852
  7
STANDARD
100
AcDbText
  0
TEXT
  5
95
100
AcDbEntity
  8
M0
100
AcDbText
 10
35.907836
 20
222.587112
 40
3.6
  1
３０
 41
0.601852
  7
STANDARD
100
AcDbText
  0
TEXT
  5
96
100
AcDbEntity
  8
M0
100
AcDbText
 10
35.806286
 20
236.499017
 40
3.6
  1
４０
 41
0.601852
  7
STANDARD
100
AcDbText
  0
TEXT
  5
97
100
AcDbEntity
  8
M0
100
AcDbText
 10
69.683707
 20
173.122593
 40
3.6
  1
揚水量（Ｌ／分）
 41
0.63786
  7
STANDARD
100
AcDbText
  0
TEXT
  5
98
100
AcDbEntity
  8
M0
100
AcDbText
 10
40.372448
 20
177.62305
 40
3.6
  1
０
 41
0.601852
  7
STANDARD
100
AcDbText
  0
TEXT
  5
99
100
AcDbEntity
  8
M0
100
AcDbText
 10
53.390038
 20
177.62305
 40
3.6
  1
１０
 41
0.601852
  7
STANDARD
100
AcDbText
  0
TEXT
  5
9A
100
AcDbEntity
  8
M0
100
AcDbText
 10
67.390038
 20
177.62305
 40
3.6
  1
２０
 41
0.601852
  7
STANDARD
100
AcDbText
  0
TEXT
  5
9B
100
AcDbEntity
  8
M0
100
AcDbText
 10
81.390038
 20
177.62305
 40
3.6
  1
３０
 41
0.601852
  7
STANDARD
100
AcDbText
  0
TEXT
  5
9C
100
AcDbEntity
  8
M0
100
AcDbText
 10
95.390032
 20
177.62305
 40
3.6
  1
４０
 41
0.601852
  7
STANDARD
100
AcDbText
  0
TEXT
  5
9D
100
AcDbEntity
  8
M0
100
AcDbText
 10
109.390035
 20
177.62305
 40
3.6
  1
５０
 41
0.601852
  7
STANDARD
100
AcDbText
  0
LINE
  5
9E
100
AcDbEntity
  8
M0
 62
   234
100
AcDbLine
 10
41.531857
 20
241.615064
 11
41.531857
 21
182.29613
  0
LINE
  5
9F
100
AcDbEntity
  8
M0
 62
   234
100
AcDbLine
 10
116.352903
 20
182.29613
 11
41.531857
 21
182.29613
  0
LINE
  5
A0
100
AcDbEntity
  8
M0
 62
   234
100
AcDbLine
 10
55.531857
 20
232.92262
 11
55.531857
 21
182.29613
  0
LINE
  5
A1
100
AcDbEntity
  8
M0
 62
   234
100
AcDbLine
 10
69.531857
 20
235.713785
 11
69.531857
 21
182.29613
  0
LINE
  5
A2
100
AcDbEntity
  8
M0
 62
   234
100
AcDbLine
 10
41.531857
 20
196.29613
 11
116.352903
 21
196.29613
  0
LINE
  5
A3
100
AcDbEntity
  8
M0
 62
   234
100
AcDbLine
 10
41.531857
 20
210.29613
 11
94.107683
 21
210.29613
  0
LINE
  5
A4
100
AcDbEntity
  8
M0
 62
   234
100
AcDbLine
 10
41.531857
 20
224.29613
 11
115.021812
 21
224.29613
  0
LINE
  5
A5
100
AcDbEntity
  8
M0
 62
   234
100
AcDbLine
 10
83.531857
 20
225.69613
 11
83.531857
 21
182.29613
  0
LINE
  5
A6
100
AcDbEntity
  8
M0
 62
   234
100
AcDbLine
 10
41.531857
 20
210.29613
 11
116.352903
 21
210.29613
  0
LINE
  5
A7
100
AcDbEntity
  8
M0
 62
   234
100
AcDbLine
 10
97.531857
 20
182.29613
 11
97.531857
 21
225.69613
  0
LINE
  5
A8
100
AcDbEntity
  8
M0
 62
   234
100
AcDbLine
 10
41.531857
 20
238.29613
 11
52.711211
 21
238.29613
  0
LINE
  5
A9
100
AcDbEntity
  8
M0
 62
   234
100
AcDbLine
 10
111.531857
 20
182.29613
 11
111.531857
 21
225.69613
  0
TEXT
  5
AA
100
AcDbEntity
  8
M0
100
AcDbText
 10
43.291674
 20
262.270011
 40
3.528
  1
吸上高さ７ｍ時
 41
0.777778
  7
STANDARD
100
AcDbText
  0
TEXT
  5
AB
100
AcDbEntity
  8
M0
100
AcDbText
 10
39.864477
 20
267.205179
 40
3.528
  1
【浅井戸ジェットＪ２５－１２Ｙ組合わせ時】
 41
0.777778
  7
STANDARD
100
AcDbText
  0
LINE
  5
AC
100
AcDbEntity
  8
M0
100
AcDbLine
 10
169.075807
 20
229.277241
 11
184.131863
 21
219.696115
  0
LINE
  5
AD
100
AcDbEntity
  8
M0
100
AcDbLine
 10
184.131863
 20
219.696115
 11
196.108443
 21
211.711728
  0
ARC
  5
AE
100
AcDbEntity
  8
M0
100
AcDbCircle
 10
174.924182
 20
223.896115
 40
1.4
100
AcDbArc
 50
57.528808
 51
90.0
  0
ARC
  5
AF
100
AcDbEntity
  8
M0
100
AcDbCircle
 10
185.807977
 20
216.896115
 40
1.4
100
AcDbArc
 50
56.309932
 51
90.0
  0
TEXT
  5
B0
100
AcDbEntity
  8
M0
100
AcDbText
 10
154.256591
 20
175.62304
 40
3.6
  1
０
 41
0.601852
  7
STANDARD
100
AcDbText
  0
TEXT
  5
B1
100
AcDbEntity
  8
M0
100
AcDbText
 10
151.907848
 20
189.987091
 40
3.6
  1
１０
 41
0.601852
  7
STANDARD
100
AcDbText
  0
TEXT
  5
B2
100
AcDbEntity
  8
M0
100
AcDbText
 10
151.907848
 20
203.987103
 40
3.6
  1
２０
 41
0.601852
  7
STANDARD
100
AcDbText
  0
TEXT
  5
B3
100
AcDbEntity
  8
M0
100
AcDbText
 10
151.907848
 20
217.987103
 40
3.6
  1
３０
 41
0.601852
  7
STANDARD
100
AcDbText
  0
TEXT
  5
B4
100
AcDbEntity
  8
M0
100
AcDbText
 10
151.806298
 20
231.899005
 40
3.6
  1
４０
 41
0.601852
  7
STANDARD
100
AcDbText
  0
TEXT
  5
B5
100
AcDbEntity
  8
M0
100
AcDbText
 10
156.37246
 20
173.02304
 40
3.6
  1
０
 41
0.601852
  7
STANDARD
100
AcDbText
  0
TEXT
  5
B6
100
AcDbEntity
  8
M0
100
AcDbText
 10
169.390038
 20
173.02304
 40
3.6
  1
１０
 41
0.601852
  7
STANDARD
100
AcDbText
  0
TEXT
  5
B7
100
AcDbEntity
  8
M0
100
AcDbText
 10
183.390051
 20
173.02304
 40
3.6
  1
２０
 41
0.601852
  7
STANDARD
100
AcDbText
  0
TEXT
  5
B8
100
AcDbEntity
  8
M0
100
AcDbText
 10
197.390038
 20
173.02304
 40
3.6
  1
３０
 41
0.601852
  7
STANDARD
100
AcDbText
  0
TEXT
  5
B9
100
AcDbEntity
  8
M0
100
AcDbText
 10
211.390038
 20
173.02304
 40
3.6
  1
４０
 41
0.601852
  7
STANDARD
100
AcDbText
  0
TEXT
  5
BA
100
AcDbEntity
  8
M0
100
AcDbText
 10
225.390038
 20
173.02304
 40
3.6
  1
５０
 41
0.601852
  7
STANDARD
100
AcDbText
  0
TEXT
  5
BB
100
AcDbEntity
  8
M0
100
AcDbText
 10
185.683719
 20
168.522583
 40
3.6
  1
揚水量（Ｌ／分）
 41
0.63786
  7
STANDARD
100
AcDbText
  0
LINE
  5
BC
100
AcDbEntity
  8
M0
 62
   234
100
AcDbLine
 10
227.531863
 20
219.696115
 11
157.531863
 21
219.696115
  0
LINE
  5
BD
100
AcDbEntity
  8
M0
 62
   234
100
AcDbLine
 10
157.531863
 20
253.591118
 11
157.531863
 21
177.696115
  0
LINE
  5
BE
100
AcDbEntity
  8
M0
 62
   234
100
AcDbLine
 10
230.331863
 20
177.696115
 11
157.531863
 21
177.696115
  0
LINE
  5
BF
100
AcDbEntity
  8
M0
 62
   234
100
AcDbLine
 10
171.531863
 20
230.366115
 11
171.531863
 21
177.696115
  0
LINE
  5
C0
100
AcDbEntity
  8
M0
 62
   234
100
AcDbLine
 10
185.531863
 20
229.734978
 11
185.531863
 21
177.696115
  0
LINE
  5
C1
100
AcDbEntity
  8
M0
 62
   234
100
AcDbLine
 10
157.531863
 20
191.696115
 11
230.331863
 21
191.696115
  0
LINE
  5
C2
100
AcDbEntity
  8
M0
 62
   234
100
AcDbLine
 10
157.531863
 20
205.696115
 11
230.331863
 21
205.696115
  0
LINE
  5
C3
100
AcDbEntity
  8
M0
 62
   234
100
AcDbLine
 10
213.531863
 20
177.696115
 11
213.531863
 21
229.552549
  0
LINE
  5
C4
100
AcDbEntity
  8
M0
 62
   234
100
AcDbLine
 10
157.531863
 20
233.696115
 11
168.49806
 21
233.696115
  0
LINE
  5
C5
100
AcDbEntity
  8
M0
 62
   234
100
AcDbLine
 10
227.531863
 20
177.696115
 11
227.531863
 21
229.552549
  0
LINE
  5
C6
100
AcDbEntity
  8
M0
 62
   234
100
AcDbLine
 10
199.531863
 20
229.552549
 11
199.531863
 21
177.696115
  0
LINE
  5
C7
100
AcDbEntity
  8
M0
 62
   234
100
AcDbLine
 10
163.21537
 20
247.696115
 11
157.531863
 21
247.696115
  0
TEXT
  5
C8
100
AcDbEntity
  8
M0
100
AcDbText
 10
43.291661
 20
142.681908
 40
3.528
  1
吸上高さ２４ｍ時
 41
0.777778
  7
STANDARD
100
AcDbText
  0
TEXT
  5
C9
100
AcDbEntity
  8
M0
100
AcDbText
 10
39.864464
 20
147.617082
 40
3.528
  1
【浅井戸ジェットＪ２５－２４Ｘ組合わせ時】
 41
0.777778
  7
STANDARD
100
AcDbText
  0
LINE
  5
CA
100
AcDbEntity
  8
M0
  6
DASHED
 62
     1
100
AcDbLine
 10
157.531863
 20
229.496115
 11
168.324182
 21
229.496115
  0
ARC
  5
CB
100
AcDbEntity
  8
M0
 62
     1
100
AcDbCircle
 10
168.324182
 20
228.096115
 40
1.4
100
AcDbArc
 50
57.528808
 51
90.0
  0
TEXT
  5
CC
100
AcDbEntity
  8
M0
100
AcDbText
 10
149.319331
 20
198.487583
 40
3.6
  1
（　）
 50
90.000003
 41
0.63786
  7
STANDARD
100
AcDbText
  0
TEXT
  5
CD
100
AcDbEntity
  8
M0
100
AcDbText
 10
146.050911
 20
216.09612
 40
3.6
  1
全
 41
0.833333
  7
STANDARD
100
AcDbText
  0
TEXT
  5
CE
100
AcDbEntity
  8
M0
100
AcDbText
 10
146.050911
 20
212.340564
 40
3.6
  1
揚
 41
0.833333
  7
STANDARD
100
AcDbText
  0
TEXT
  5
CF
100
AcDbEntity
  8
M0
100
AcDbText
 10
146.050911
 20
208.585009
 40
3.6
  1
程
 41
0.833333
  7
STANDARD
100
AcDbText
  0
TEXT
  5
D0
100
AcDbEntity
  8
M0
100
AcDbText
 10
146.050911
 20
204.829453
 40
3.6
  1
　
 41
0.833333
  7
STANDARD
100
AcDbText
  0
TEXT
  5
D1
100
AcDbEntity
  8
M0
100
AcDbText
 10
146.050911
 20
201.073898
 40
3.6
  1
ｍ
 41
0.833333
  7
STANDARD
100
AcDbText
  0
LINE
  5
D2
100
AcDbEntity
  8
M0
  6
DASHED
 62
     2
100
AcDbLine
 10
157.531863
 20
225.296115
 11
174.924182
 21
225.296115
  0
TEXT
  5
D3
100
AcDbEntity
  8
M0
100
AcDbText
 10
33.319307
 20
78.899486
 40
3.6
  1
（　）
 50
90.000003
 41
0.63786
  7
STANDARD
100
AcDbText
  0
TEXT
  5
D4
100
AcDbEntity
  8
M0
100
AcDbText
 10
30.050886
 20
96.508021
 40
3.6
  1
全
 41
0.833333
  7
STANDARD
100
AcDbText
  0
TEXT
  5
D5
100
AcDbEntity
  8
M0
100
AcDbText
 10
30.050886
 20
92.752466
 40
3.6
  1
揚
 41
0.833333
  7
STANDARD
100
AcDbText
  0
TEXT
  5
D6
100
AcDbEntity
  8
M0
100
AcDbText
 10
30.050886
 20
88.996911
 40
3.6
  1
程
 41
0.833333
  7
STANDARD
100
AcDbText
  0
TEXT
  5
D7
100
AcDbEntity
  8
M0
100
AcDbText
 10
30.050886
 20
85.241355
 40
3.6
  1
　
 41
0.833333
  7
STANDARD
100
AcDbText
  0
TEXT
  5
D8
100
AcDbEntity
  8
M0
100
AcDbText
 10
30.050886
 20
81.4858
 40
3.6
  1
ｍ
 41
0.833333
  7
STANDARD
100
AcDbText
  0
TEXT
  5
D9
100
AcDbEntity
  8
M0
100
AcDbText
 10
69.683694
 20
48.934485
 40
3.6
  1
揚水量（Ｌ／分）
 41
0.63786
  7
STANDARD
100
AcDbText
  0
LINE
  5
DA
100
AcDbEntity
  8
M0
100
AcDbLine
 10
52.463033
 20
121.692772
 11
56.803874
 21
112.249952
  0
ARC
  5
DB
100
AcDbEntity
  8
M0
100
AcDbCircle
 10
51.191001
 20
121.108022
 40
1.4
100
AcDbArc
 50
24.688123
 51
90.0
  0
ARC
  5
DC
100
AcDbEntity
  8
M0
100
AcDbCircle
 10
54.408883
 20
114.108022
 40
1.4
100
AcDbArc
 50
24.688123
 51
90.0
  0
LINE
  5
DD
100
AcDbEntity
  8
M0
  6
DASHED
 62
     2
100
AcDbLine
 10
51.191001
 20
122.508022
 11
41.531842
 21
122.508022
  0
TEXT
  5
DE
100
AcDbEntity
  8
M0
100
AcDbText
 10
40.372436
 20
53.434943
 40
3.6
  1
０
 41
0.601852
  7
STANDARD
100
AcDbText
  0
TEXT
  5
DF
100
AcDbEntity
  8
M0
100
AcDbText
 10
53.390026
 20
53.434943
 40
3.6
  1
１０
 41
0.601852
  7
STANDARD
100
AcDbText
  0
TEXT
  5
E0
100
AcDbEntity
  8
M0
100
AcDbText
 10
67.390026
 20
53.434943
 40
3.6
  1
２０
 41
0.601852
  7
STANDARD
100
AcDbText
  0
TEXT
  5
E1
100
AcDbEntity
  8
M0
100
AcDbText
 10
81.39002
 20
53.434943
 40
3.6
  1
３０
 41
0.601852
  7
STANDARD
100
AcDbText
  0
TEXT
  5
E2
100
AcDbEntity
  8
M0
100
AcDbText
 10
95.39002
 20
53.434943
 40
3.6
  1
４０
 41
0.601852
  7
STANDARD
100
AcDbText
  0
TEXT
  5
E3
100
AcDbEntity
  8
M0
100
AcDbText
 10
109.39002
 20
53.434943
 40
3.6
  1
５０
 41
0.601852
  7
STANDARD
100
AcDbText
  0
LINE
  5
E4
100
AcDbEntity
  8
M0
 62
   234
100
AcDbLine
 10
41.531842
 20
114.108022
 11
114.331842
 21
114.108022
  0
LINE
  5
E5
100
AcDbEntity
  8
M0
 62
   234
100
AcDbLine
 10
41.531842
 20
100.108022
 11
114.331842
 21
100.108022
  0
LINE
  5
E6
100
AcDbEntity
  8
M0
 62
   234
100
AcDbLine
 10
114.331842
 20
58.108022
 11
41.531842
 21
58.108022
  0
LINE
  5
E7
100
AcDbEntity
  8
M0
 62
   234
100
AcDbLine
 10
41.531842
 20
72.108022
 11
114.331842
 21
72.108022
  0
LINE
  5
E8
100
AcDbEntity
  8
M0
 62
   234
100
AcDbLine
 10
41.531842
 20
86.108022
 11
85.281842
 21
86.108022
  0
LINE
  5
E9
100
AcDbEntity
  8
M0
 62
   234
100
AcDbLine
 10
55.531842
 20
130.908022
 11
55.531842
 21
58.108022
  0
LINE
  5
EA
100
AcDbEntity
  8
M0
 62
   234
100
AcDbLine
 10
41.531842
 20
130.908022
 11
41.531842
 21
58.108022
  0
LINE
  5
EB
100
AcDbEntity
  8
M0
 62
   234
100
AcDbLine
 10
41.531842
 20
86.108022
 11
114.331842
 21
86.108022
  0
LINE
  5
EC
100
AcDbEntity
  8
M0
 62
   234
100
AcDbLine
 10
41.531842
 20
128.108022
 11
57.049278
 21
128.108022
  0
LINE
  5
ED
100
AcDbEntity
  8
M0
 62
   234
100
AcDbLine
 10
111.531842
 20
115.508022
 11
111.531842
 21
58.108022
  0
LINE
  5
EE
100
AcDbEntity
  8
M0
 62
   234
100
AcDbLine
 10
69.531842
 20
115.508022
 11
69.531842
 21
58.108022
  0
LINE
  5
EF
100
AcDbEntity
  8
M0
 62
   234
100
AcDbLine
 10
83.531842
 20
115.508022
 11
83.531842
 21
58.108022
  0
LINE
  5
F0
100
AcDbEntity
  8
M0
 62
   234
100
AcDbLine
 10
97.531842
 20
115.508022
 11
97.531842
 21
58.108022
  0
LINE
  5
F1
100
AcDbEntity
  8
M0
100
AcDbLine
 10
59.979765
 20
282.860279
 11
29.979765
 21
282.860279
  0
LINE
  5
F2
100
AcDbEntity
  8
M0
100
AcDbLine
 10
59.979765
 20
272.86028
 11
59.979765
 21
282.860279
  0
LINE
  5
F3
100
AcDbEntity
  8
M0
100
AcDbLine
 10
29.979765
 20
272.86028
 11
59.979765
 21
272.86028
  0
LINE
  5
F4
100
AcDbEntity
  8
M0
100
AcDbLine
 10
29.979765
 20
282.860279
 11
29.979765
 21
272.86028
  0
TEXT
  5
F5
100
AcDbEntity
  8
M0
100
AcDbText
 10
32.406432
 20
274.36028
 40
7.0
  1
揚水性能
 41
0.780952
  7
STANDARD
100
AcDbText
  0
TEXT
  5
F6
100
AcDbEntity
  8
M0
100
AcDbText
 10
38.256567
 20
56.034943
 40
3.6
  1
０
 41
0.601852
  7
STANDARD
100
AcDbText
  0
TEXT
  5
F7
100
AcDbEntity
  8
M0
100
AcDbText
 10
35.907824
 20
70.398999
 40
3.6
  1
１０
 41
0.601852
  7
STANDARD
100
AcDbText
  0
TEXT
  5
F8
100
AcDbEntity
  8
M0
100
AcDbText
 10
35.907824
 20
84.399005
 40
3.6
  1
２０
 41
0.601852
  7
STANDARD
100
AcDbText
  0
TEXT
  5
F9
100
AcDbEntity
  8
M0
100
AcDbText
 10
35.907824
 20
98.399005
 40
3.6
  1
３０
 41
0.601852
  7
STANDARD
100
AcDbText
  0
TEXT
  5
FA
100
AcDbEntity
  8
M0
100
AcDbText
 10
35.806274
 20
112.310907
 40
3.6
  1
４０
 41
0.601852
  7
STANDARD
100
AcDbText
  0
TEXT
  5
FB
100
AcDbEntity
  8
M0
100
AcDbText
 10
35.806274
 20
126.310907
 40
3.6
  1
５０
 41
0.601852
  7
STANDARD
100
AcDbText
  0
TEXT
  5
FC
100
AcDbEntity
  8
M0
100
AcDbText
 10
151.806294
 20
245.899005
 40
3.6
  1
５０
 41
0.601852
  7
STANDARD
100
AcDbText
  0
LINE
  5
FD
100
AcDbEntity
  8
M0
 62
     7
100
AcDbLine
 10
90.531857
 20
205.100815
 11
90.531857
 21
192.302083
  0
LINE
  5
FE
100
AcDbEntity
  8
M0
 62
     7
100
AcDbLine
 10
56.931842
 20
91.708022
 11
56.931842
 21
111.665201
  0
LINE
  5
FF
100
AcDbEntity
  8
M0
 62
     7
100
AcDbLine
 10
196.731863
 20
210.546857
 11
196.731863
 21
194.496115
  0
LINE
  5
100
100
AcDbEntity
  8
M0
 62
     7
100
AcDbLine
 10
89.591786
 20
206.423111
 11
74.568325
 21
211.648662
  0
ARC
  5
101
100
AcDbEntity
  8
M0
 62
     7
100
AcDbCircle
 10
89.131857
 20
205.100815
 40
1.4
100
AcDbArc
 50
0.0
 51
70.820992
  0
LINE
  5
102
100
AcDbEntity
  8
M0
  6
DASHED
 62
     7
100
AcDbLine
 10
41.531857
 20
215.89613
 11
67.044079
 21
215.89613
  0
LINE
  5
103
100
AcDbEntity
  8
M0
  6
DASHED
 62
     7
100
AcDbLine
 10
157.531863
 20
218.296115
 11
185.807977
 21
218.296115
  0
LINE
  5
104
100
AcDbEntity
  8
M0
  6
DASHED
 62
     7
100
AcDbLine
 10
41.531842
 20
115.508022
 11
54.408883
 21
115.508022
  0
LINE
  5
105
100
AcDbEntity
  8
M0
  6
DASHED
 62
     7
100
AcDbLine
 10
157.531091
 20
107.108022
 11
169.35147
 21
107.108022
  0
LINE
  5
106
100
AcDbEntity
  8
M0
 62
     7
100
AcDbLine
 10
74.30796
 20
211.770468
 11
60.431857
 21
220.09613
  0
LINE
  5
107
100
AcDbEntity
  8
M0
 62
     7
100
AcDbLine
 10
60.303246
 20
220.229503
 11
54.094774
 21
226.667919
  0
ARC
  5
108
100
AcDbEntity
  8
M0
 62
     7
100
AcDbCircle
 10
75.028254
 20
212.970958
 40
1.4
100
AcDbArc
 50
239.036243
 51
250.820992
  0
ARC
  5
109
100
AcDbEntity
  8
M0
 62
     7
100
AcDbCircle
 10
61.311028
 20
221.201293
 40
1.4
100
AcDbArc
 50
223.958373
 51
239.036243
  0
ARC
  5
10A
100
AcDbEntity
  8
M0
 62
     7
100
AcDbCircle
 10
67.044079
 20
214.49613
 40
1.4
100
AcDbArc
 50
59.036243
 51
90.0
  0
ARC
  5
10B
100
AcDbEntity
  8
M0
 62
     7
100
AcDbCircle
 10
57.136992
 20
221.49613
 40
1.4
100
AcDbArc
 50
43.958373
 51
90.0
  0
ARC
  5
10C
100
AcDbEntity
  8
M0
 62
     7
100
AcDbCircle
 10
195.331863
 20
210.546857
 40
1.4
100
AcDbArc
 50
1.861079E-012
 51
56.309932
  0
ARC
  5
10D
100
AcDbEntity
  8
M0
 62
     7
100
AcDbCircle
 10
55.531842
 20
111.665201
 40
1.4
100
AcDbArc
 50
0.0
 51
24.688123
  0
ENDSEC
  0
SECTION
  2
OBJECTS
  0
DICTIONARY
  5
C
100
AcDbDictionary
  3
ACAD_GROUP
350
D
  3
ACAD_MLINESTYLE
350
E
  0
DICTIONARY
  5
D
102
{ACAD_REACTORS
330
C
102
}
100
AcDbDictionary
  0
DICTIONARY
  5
E
102
{ACAD_REACTORS
330
C
102
}
100
AcDbDictionary
  3
STANDARD
350
13
  0
MLINESTYLE
  5
13
102
{ACAD_REACTORS
330
E
102
}
100
AcDbMlineStyle
  2
STANDARD
 70
     0
  3

 62
     0
 51
90.0
 52
90.0
 71
     2
 49
0.5
 62
   256
  6
BYLAYER
 49
-0.5
 62
   256
  6
BYLAYER
  0
ENDSEC
  0
EOF
