  0
SECTION
  2
HEADER
  9
$ACADVER
  1
AC1012
  9
$INSBASE
 10
0.0
 20
0.0
  9
$VIEWCTR
 10
7.531722
 20
4.5
  9
$VIEWSIZE
 40
9.0
  9
$SNAPMODE
 70
     0
  9
$SNAPUNIT
 10
1.0
 20
1.0
  9
$SNAPBASE
 10
0.0
 20
0.0
  9
$SNAPANG
 50
0.0
  9
$SNAPSTYLE
 70
     0
  9
$SNAPISOPAIR
 70
     0
  9
$GRIDMODE
 70
     0
  9
$GRIDUNIT
 10
0.0
 20
0.0
  9
$ORTHOMODE
 70
     0
  9
$REGENMODE
 70
     1
  9
$FILLMODE
 70
     1
  9
$QTEXTMODE
 70
     0
  9
$DRAGMODE
 70
     2
  9
$LTSCALE
 40
1.0
  9
$OSMODE
 70
     0
  9
$ATTMODE
 70
     1
  9
$TEXTSIZE
 40
0.2
  9
$TRACEWID
 40
0.05
  9
$TEXTSTYLE
  7
STANDARD
  9
$CELTYPE
  6
BYLAYER
  9
$CECOLOR
 62
   256
  9
$DIMSCALE
 40
1.0
  9
$DIMASZ
 40
0.18
  9
$DIMEXO
 40
0.0625
  9
$DIMDLI
 40
0.38
  9
$DIMRND
 40
0.0
  9
$DIMDLE
 40
0.0
  9
$DIMEXE
 40
0.18
  9
$DIMTP
 40
0.0
  9
$DIMTM
 40
0.0
  9
$DIMTXT
 40
0.18
  9
$DIMCEN
 40
0.09
  9
$DIMTSZ
 40
0.0
  9
$DIMTOL
 70
     0
  9
$DIMLIM
 70
     0
  9
$DIMTIH
 70
     1
  9
$DIMTOH
 70
     1
  9
$DIMSE1
 70
     0
  9
$DIMSE2
 70
     0
  9
$DIMTAD
 70
     0
  9
$DIMZIN
 70
     0
  9
$DIMBLK
  1

  9
$LUNITS
 70
     2
  9
$LUPREC
 70
     4
  9
$AXISMODE
 70
     0
  9
$AXISUNIT
 10
0.0
 20
0.0
  9
$SKETCHINC
 40
0.1
  9
$FILLETRAD
 40
0.0
  9
$AUNITS
 70
     0
  9
$AUPREC
 70
     0
  9
$MENU
  1
ACAD
  9
$ELEVATION
 40
0.0
  9
$THICKNESS
 40
0.0
  9
$VIEWDIR
 10
0.0
 20
0.0
 30
1.0
  9
$LIMCHECK
 70
     0
  9
$BLIPMODE
 70
     1
  9
$CHAMFERA
 40
0.0
  9
$CHAMFERB
 40
0.0
  9
$FASTZOOM
 70
     1
  9
$SKPOLY
 70
     0
  9
$TDCREATE
 40
0000000.0000000000
  9
$TDUPDATE
 40
0000000.0000000000
  9
$TDINDWG
 40
0.0000000000
  9
$TDUSRTIMER
 40
0.0000000000
  9
$USRTIMER
 70
     1
  9
$ANGBASE
 50
0.0
  9
$ANGDIR
 70
     0
  9
$PDMODE
 70
     0
  9
$PDSIZE
 40
0.0
  9
$PLINEWID
 40
0.0
  9
$COORDS
 70
     0
  9
$USERI1
 70
     0
  9
$USERI2
 70
     0
  9
$USERI3
 70
     0
  9
$USERI4
 70
     0
  9
$USERI5
 70
     0
  9
$USERR1
 40
0.0
  9
$USERR2
 40
0.0
  9
$USERR3
 40
0.0
  9
$USERR4
 40
0.0
  9
$USERR5
 40
0.0
  9
$CLAYER
  8
M80
  9
$EXTMIN
 10
0.0
 20
0.0
  9
$EXTMAX
 10
420.0
 20
297.0
  9
$LIMMIN
 10
0.0
 20
0.0
  9
$LIMMAX
 10
420.0
 20
297.0
  9
$HANDSEED
  5
163
  0
ENDSEC
  0
SECTION
  2
CLASSES
  0
ENDSEC
  0
SECTION
  2
TABLES
  0
TABLE
  2
VPORT
  5
8
100
AcDbSymbolTable
 70
     2
  0
VPORT
  5
14
100
AcDbSymbolTableRecord
100
AcDbViewportTableRecord
  2
*ACTIVE
 70
     0
 10
0.0
 20
0.0
 11
1.0
 21
1.0
 12
484.0
 22
297.0
 13
0.0
 23
0.0
 14
1.0
 24
1.0
 15
0.0
 25
0.0
 16
0.0
 26
0.0
 36
1.0
 17
0.0
 27
0.0
 37
0.0
 40
594.0
 41
2.0
 42
50.0
 43
0.0
 44
0.0
 50
0.0
 51
0.0
 71
     0
 72
   100
 73
     1
 74
     1
 75
     0
 76
     0
 77
     0
 78
     0
  0
ENDTAB
  0
TABLE
  2
LTYPE
  5
5
100
AcDbSymbolTable
 70
     5
  0
LTYPE
  5
15
100
AcDbSymbolTableRecord
100
AcDbLinetypeTableRecord
  2
BYBLOCK
 70
     0
  3

 72
    65
 73
     0
 40
0.0
  0
LTYPE
  5
16
100
AcDbSymbolTableRecord
100
AcDbLinetypeTableRecord
  2
BYLAYER
 70
     0
  3

 72
    65
 73
     0
 40
0.0
  0
LTYPE
  5
17
100
AcDbSymbolTableRecord
100
AcDbLinetypeTableRecord
  2
CONTINUOUS
 70
    64
  3
Solid line
 72
    65
 73
     0
 40
0.0
  0
LTYPE
  5
18
100
AcDbSymbolTableRecord
100
AcDbLinetypeTableRecord
  2
DASHED
 70
    64
  3
__ __ __ __ __ __ __ __ __ __ __ __ __ __ __ __
 72
    65
 73
     2
 40
0.75
 49
0.5
 74
     0
 49
-0.25
 74
     0
  0
LTYPE
  5
19
100
AcDbSymbolTableRecord
100
AcDbLinetypeTableRecord
  2
DASHDOT
 70
    64
  3
__ . __ . __ . __ . __ . __ . __ . __ . __ . __
 72
    65
 73
     4
 40
1.0
 49
0.5
 74
     0
 49
-0.25
 74
     0
 49
0.0
 74
     0
 49
-0.25
 74
     0
  0
LTYPE
  5
1A
100
AcDbSymbolTableRecord
100
AcDbLinetypeTableRecord
  2
DIVIDE
 70
    64
  3
____ . . ____ . . ____ . . ____ . . ____ . . __
 72
    65
 73
     6
 40
1.25
 49
0.5
 74
     0
 49
-0.25
 74
     0
 49
0.0
 74
     0
 49
-0.25
 74
     0
 49
0.0
 74
     0
 49
-0.25
 74
     0
  0
LTYPE
  5
1B
100
AcDbSymbolTableRecord
100
AcDbLinetypeTableRecord
  2
DOT
 70
    64
  3
. . . . . . . . . . . . . . . . . . . . . . . .
 72
    65
 73
     2
 40
0.25
 49
0.0
 74
     0
 49
-0.25
 74
     0
  0
ENDTAB
  0
TABLE
  2
LAYER
  5
2
100
AcDbSymbolTable
 70
   102
  0
LAYER
  5
F
100
AcDbSymbolTableRecord
100
AcDbLayerTableRecord
  2
0
 70
     0
 62
     7
  6
CONTINUOUS
  0
LAYER
  5
1C
100
AcDbSymbolTableRecord
100
AcDbLayerTableRecord
  2
DEFPOINTS
 70
     0
 62
     7
  6
CONTINUOUS
  0
LAYER
  5
1D
100
AcDbSymbolTableRecord
100
AcDbLayerTableRecord
  2
M0
 70
     0
 62
     3
  6
CONTINUOUS
  0
LAYER
  5
1E
100
AcDbSymbolTableRecord
100
AcDbLayerTableRecord
  2
M46
 70
     0
 62
     3
  6
CONTINUOUS
  0
ENDTAB
  0
TABLE
  2
STYLE
  5
3
100
AcDbSymbolTable
 70
     2
  0
STYLE
  5
10
100
AcDbSymbolTableRecord
100
AcDbTextStyleTableRecord
  2
STANDARD
 70
     0
 40
0.0
 41
1.0
 50
0.0
 71
     0
 42
0.2
  3
txt
  4
BIGFONT
  0
ENDTAB
  0
TABLE
  2
VIEW
  5
6
100
AcDbSymbolTable
 70
     0
  0
ENDTAB
  0
TABLE
  2
UCS
  5
7
100
AcDbSymbolTable
 70
     0
  0
ENDTAB
  0
TABLE
  2
APPID
  5
9
100
AcDbSymbolTable
 70
     1
  0
APPID
  5
11
100
AcDbSymbolTableRecord
100
AcDbRegAppTableRecord
  2
ACAD
 70
     0
  0
ENDTAB
  0
TABLE
  2
DIMSTYLE
  5
A
100
AcDbSymbolTable
 70
     2
  0
DIMSTYLE
105
25
100
AcDbSymbolTableRecord
100
AcDbDimStyleTableRecord
  2
STANDARD
 70
     0
  3

  4

  5

  6
_OPEN
  7
_OPEN
 40
1.0
 41
3.0
 42
0.0
 43
8.0
 44
1.5
 45
0.0
 46
0.0
 47
0.0
 48
0.0
140
3.5
141
0.09
142
0.0
143
0.03937
144
1.0
145
0.0
146
1.0
147
1.0
 71
     0
 72
     0
 73
     0
 74
     0
 75
     0
 76
     0
 77
     3
 78
     8
170
     0
171
     2
172
     0
173
     1
174
     0
175
     0
176
     0
177
     0
178
     0
270
     2
271
     2
272
     4
273
     2
274
     2
340
10
275
     0
280
     0
281
     0
282
     0
283
     1
284
     0
285
     0
286
     0
287
     3
288
     0
  0
DIMSTYLE
105
26
100
AcDbSymbolTableRecord
100
AcDbDimStyleTableRecord
  2
LEADSTYL
 70
     0
  3

  4

  5

  6
_OPEN
  7
_OPEN
 40
1.0
 41
3.0
 42
0.0625
 43
0.38
 44
0.18
 45
0.0
 46
0.0
 47
0.0
 48
0.0
140
3.2
141
0.09
142
0.0
143
25.4
144
1.0
145
0.0
146
1.0
147
1.0
 71
     0
 72
     0
 73
     1
 74
     1
 75
     0
 76
     0
 77
     0
 78
     0
170
     0
171
     2
172
     0
173
     1
174
     0
175
     0
176
     0
177
     0
178
     0
270
     2
271
     4
272
     4
273
     2
274
     2
340
10
275
     0
280
     0
281
     0
282
     0
283
     1
284
     0
285
     0
286
     0
287
     3
288
     0
  0
ENDTAB
  0
TABLE
  2
BLOCK_RECORD
  5
1
100
AcDbSymbolTable
 70
     6
  0
BLOCK_RECORD
  5
1F
100
AcDbSymbolTableRecord
100
AcDbBlockTableRecord
  2
*MODEL_SPACE
  0
BLOCK_RECORD
  5
22
100
AcDbSymbolTableRecord
100
AcDbBlockTableRecord
  2
*PAPER_SPACE
  0
BLOCK_RECORD
  5
27
100
AcDbSymbolTableRecord
100
AcDbBlockTableRecord
  2
_NONE
  0
BLOCK_RECORD
  5
2B
100
AcDbSymbolTableRecord
100
AcDbBlockTableRecord
  2
_OPEN
  0
BLOCK_RECORD
  5
31
100
AcDbSymbolTableRecord
100
AcDbBlockTableRecord
  2
_CLOSED
  0
BLOCK_RECORD
  5
38
100
AcDbSymbolTableRecord
100
AcDbBlockTableRecord
  2
_ORIGIN
  0
BLOCK_RECORD
  5
3D
100
AcDbSymbolTableRecord
100
AcDbBlockTableRecord
  2
_DOT
  0
BLOCK_RECORD
  5
45
100
AcDbSymbolTableRecord
100
AcDbBlockTableRecord
  2
_OBLIQUE
  0
ENDTAB
  0
ENDSEC
  0
SECTION
  2
BLOCKS
  0
BLOCK
  5
20
100
AcDbEntity
  8
0
100
AcDbBlockBegin
  2
*MODEL_SPACE
 70
     0
 10
0.0
 20
0.0
 30
0.0
  3
*MODEL_SPACE
  1

  0
ENDBLK
  5
21
100
AcDbEntity
  8
0
100
AcDbBlockEnd
  0
BLOCK
  5
23
100
AcDbEntity
 67
     1
  8
0
100
AcDbBlockBegin
  2
*PAPER_SPACE
 70
     0
 10
0.0
 20
0.0
 30
0.0
  3
*PAPER_SPACE
  1

  0
ENDBLK
  5
24
100
AcDbEntity
 67
     1
  8
0
100
AcDbBlockEnd
  0
BLOCK
  5
28
100
AcDbEntity
  8
0
100
AcDbBlockBegin
  2
_NONE
 70
     0
 10
0.0
 20
0.0
  0
CIRCLE
  5
29
100
AcDbEntity
  8
0
 62
     0
100
AcDbCircle
 10
0.0
 20
0.0
 40
0.25
  0
ENDBLK
  5
2A
100
AcDbEntity
  8
0
100
AcDbBlockEnd
  0
BLOCK
  5
2C
100
AcDbEntity
  8
0
100
AcDbBlockBegin
  2
_OPEN
 70
     0
 10
0.0
 20
0.0
  0
LINE
  5
2D
100
AcDbEntity
  8
0
 62
     0
100
AcDbLine
 10
-0.965926
 20
0.258819
 11
0.0
 21
0.0
  0
LINE
  5
2E
100
AcDbEntity
  8
0
 62
     0
100
AcDbLine
 10
0.0
 20
0.0
 11
-0.965926
 21
-0.258819
  0
LINE
  5
2F
100
AcDbEntity
  8
0
 62
     0
100
AcDbLine
 10
0.0
 20
0.0
 11
-1.0
 21
0.0
  0
ENDBLK
  5
30
100
AcDbEntity
  8
0
100
AcDbBlockEnd
  0
BLOCK
  5
32
100
AcDbEntity
  8
0
100
AcDbBlockBegin
  2
_CLOSED
 70
     0
 10
0.0
 20
0.0
  0
LINE
  5
33
100
AcDbEntity
  8
0
 62
     0
100
AcDbLine
 10
-0.965926
 20
0.258819
 11
0.0
 21
0.0
  0
LINE
  5
34
100
AcDbEntity
  8
0
 62
     0
100
AcDbLine
 10
0.0
 20
0.0
 11
-0.965926
 21
-0.258819
  0
LINE
  5
35
100
AcDbEntity
  8
0
 62
     0
100
AcDbLine
 10
-0.965926
 20
0.258819
 11
-0.965926
 21
-0.258819
  0
LINE
  5
36
100
AcDbEntity
  8
0
 62
     0
100
AcDbLine
 10
0.0
 20
0.0
 11
-1.0
 21
0.0
  0
ENDBLK
  5
37
100
AcDbEntity
  8
0
100
AcDbBlockEnd
  0
BLOCK
  5
39
100
AcDbEntity
  8
0
100
AcDbBlockBegin
  2
_ORIGIN
 70
     0
 10
0.0
 20
0.0
  0
CIRCLE
  5
3A
100
AcDbEntity
  8
0
 62
     0
100
AcDbCircle
 10
0.0
 20
0.0
 40
0.5
  0
LINE
  5
3B
100
AcDbEntity
  8
0
 62
     0
100
AcDbLine
 10
0.0
 20
0.0
 11
-1.0
 21
0.0
  0
ENDBLK
  5
3C
100
AcDbEntity
  8
0
100
AcDbBlockEnd
  0
BLOCK
  5
3E
100
AcDbEntity
  8
0
100
AcDbBlockBegin
  2
_DOT
 70
     0
 10
0.0
 20
0.0
  0
POLYLINE
  5
3F
100
AcDbEntity
  8
0
 62
     0
100
AcDb2dPolyline
 66
     1
 70
     1
 40
0.5
 41
0.5
  0
VERTEX
  5
40
100
AcDbEntity
  8
0
 62
     0
100
AcDbVertex
100
AcDb2dVertex
 10
-0.25
 20
0.0
 42
1.0
  0
VERTEX
  5
41
100
AcDbEntity
  8
0
 62
     0
100
AcDbVertex
100
AcDb2dVertex
 10
0.25
 20
0.0
 42
1.0
  0
SEQEND
  5
42
100
AcDbEntity
  8
0
 62
     0
  0
LINE
  5
43
100
AcDbEntity
  8
0
 62
     0
100
AcDbLine
 10
-0.5
 20
0.0
 11
-1.0
 21
0.0
  0
ENDBLK
  5
44
100
AcDbEntity
  8
0
100
AcDbBlockEnd
  0
BLOCK
  5
46
100
AcDbEntity
  8
0
100
AcDbBlockBegin
  2
_OBLIQUE
 70
     0
 10
0.0
 20
0.0
  0
LINE
  5
47
100
AcDbEntity
  8
0
 62
     0
100
AcDbLine
 10
-0.353553
 20
-0.353553
 11
0.353553
 21
0.353553
  0
ENDBLK
  5
48
100
AcDbEntity
  8
0
100
AcDbBlockEnd
  0
ENDSEC
  0
SECTION
  2
ENTITIES
  0
LINE
  5
49
100
AcDbEntity
  8
M0
 62
     4
100
AcDbLine
 10
49.783576
 20
271.536635
 11
49.783576
 21
183.536635
  0
LINE
  5
4A
100
AcDbEntity
  8
M0
 62
     4
100
AcDbLine
 10
49.783576
 20
183.536635
 11
160.783576
 21
183.536635
  0
LINE
  5
4B
100
AcDbEntity
  8
M0
 62
     4
100
AcDbLine
 10
81.783576
 20
183.536635
 11
81.783576
 21
231.536635
  0
LINE
  5
4C
100
AcDbEntity
  8
M0
 62
     4
100
AcDbLine
 10
113.783576
 20
183.536635
 11
113.783576
 21
231.536635
  0
LINE
  5
4D
100
AcDbEntity
  8
M0
 62
     4
100
AcDbLine
 10
145.783576
 20
183.536635
 11
145.783576
 21
263.536635
  0
LINE
  5
4E
100
AcDbEntity
  8
M0
 62
     4
100
AcDbLine
 10
49.783576
 20
199.536635
 11
160.783576
 21
199.536635
  0
LINE
  5
4F
100
AcDbEntity
  8
M0
 62
     4
100
AcDbLine
 10
49.783576
 20
215.536635
 11
160.783576
 21
215.536635
  0
LINE
  5
50
100
AcDbEntity
  8
M0
 62
     4
100
AcDbLine
 10
81.783576
 20
231.536635
 11
81.783576
 21
271.536635
  0
LINE
  5
51
100
AcDbEntity
  8
M0
 62
     4
100
AcDbLine
 10
65.783576
 20
183.536635
 11
65.783576
 21
271.536635
  0
LINE
  5
52
100
AcDbEntity
  8
M0
 62
     4
100
AcDbLine
 10
97.783576
 20
183.536635
 11
97.783576
 21
271.536635
  0
LINE
  5
53
100
AcDbEntity
  8
M0
 62
     4
100
AcDbLine
 10
129.783576
 20
183.536635
 11
129.783576
 21
271.536635
  0
LINE
  5
54
100
AcDbEntity
  8
M0
 62
     4
100
AcDbLine
 10
49.783576
 20
247.536635
 11
160.783576
 21
247.536635
  0
LINE
  5
55
100
AcDbEntity
  8
M0
 62
     4
100
AcDbLine
 10
49.783576
 20
263.536635
 11
160.783576
 21
263.536635
  0
LINE
  5
56
100
AcDbEntity
  8
M0
 62
     4
100
AcDbLine
 10
113.783576
 20
241.085482
 11
113.783576
 21
271.536635
  0
LINE
  5
57
100
AcDbEntity
  8
M0
 62
     4
100
AcDbLine
 10
160.783576
 20
231.536635
 11
49.783576
 21
231.536635
  0
TEXT
  5
58
100
AcDbEntity
  8
M0
 62
     4
100
AcDbText
 10
32.209628
 20
229.743774
 40
3.584
  1
全
 41
1.25
  7
STANDARD
100
AcDbText
  0
TEXT
  5
59
100
AcDbEntity
  8
M0
 62
     4
100
AcDbText
 10
32.209628
 20
225.801374
 40
3.584
  1
揚
 41
1.25
  7
STANDARD
100
AcDbText
  0
TEXT
  5
5A
100
AcDbEntity
  8
M0
 62
     4
100
AcDbText
 10
32.209628
 20
221.858975
 40
3.584
  1
程
 41
1.25
  7
STANDARD
100
AcDbText
  0
TEXT
  5
5B
100
AcDbEntity
  8
M0
 62
     4
100
AcDbText
 10
32.209628
 20
217.916575
 40
3.584
  1
　
 41
1.25
  7
STANDARD
100
AcDbText
  0
TEXT
  5
5C
100
AcDbEntity
  8
M0
 62
     4
100
AcDbText
 10
32.209628
 20
213.974175
 40
3.584
  1
ｍ
 41
1.25
  7
STANDARD
100
AcDbText
  0
ARC
  5
5D
100
AcDbEntity
  8
M0
 62
     4
100
AcDbCircle
 10
34.449628
 20
213.67551
 40
5.376
100
AcDbArc
 50
52.58592
 51
127.41408
  0
ARC
  5
5E
100
AcDbEntity
  8
M0
 62
     4
100
AcDbCircle
 10
34.449628
 20
217.04948
 40
5.376
100
AcDbArc
 50
232.58592
 51
307.41408
  0
TEXT
  5
5F
100
AcDbEntity
  8
M0
 62
     4
100
AcDbText
 10
40.263375
 20
229.256602
 40
4.8
  1
３０
 41
0.611111
  7
STANDARD
100
AcDbText
  0
TEXT
  5
60
100
AcDbEntity
  8
M0
 62
     4
100
AcDbText
 10
40.263375
 20
213.256602
 40
4.8
  1
２０
 41
0.611111
  7
STANDARD
100
AcDbText
  0
TEXT
  5
61
100
AcDbEntity
  8
M0
 62
     4
100
AcDbText
 10
40.263375
 20
197.256606
 40
4.8
  1
１０
 41
0.611111
  7
STANDARD
100
AcDbText
  0
TEXT
  5
62
100
AcDbEntity
  8
M0
 62
     4
100
AcDbText
 10
43.463372
 20
181.256599
 40
4.8
  1
０
 41
0.611111
  7
STANDARD
100
AcDbText
  0
TEXT
  5
63
100
AcDbEntity
  8
M0
 62
     4
100
AcDbText
 10
46.663371
 20
175.49459
 40
4.8
  1
０
 41
0.611111
  7
STANDARD
100
AcDbText
  0
TEXT
  5
64
100
AcDbEntity
  8
M0
 62
     4
100
AcDbText
 10
78.663372
 20
175.49459
 40
4.8
  1
２０
 41
0.611111
  7
STANDARD
100
AcDbText
  0
TEXT
  5
65
100
AcDbEntity
  8
M0
 62
     4
100
AcDbText
 10
110.663375
 20
175.49459
 40
4.8
  1
４０
 41
0.611111
  7
STANDARD
100
AcDbText
  0
TEXT
  5
66
100
AcDbEntity
  8
M0
 62
     4
100
AcDbText
 10
89.413235
 20
169.087501
 40
5.376
  1
揚水量（Ｌ／分）
 41
0.611111
  7
STANDARD
100
AcDbText
  0
TEXT
  5
67
100
AcDbEntity
  8
M0
 62
     4
100
AcDbText
 10
142.663367
 20
175.49459
 40
4.8
  1
６０
 41
0.611111
  7
STANDARD
100
AcDbText
  0
TEXT
  5
68
100
AcDbEntity
  8
M0
 62
     4
100
AcDbText
 10
62.663372
 20
175.49459
 40
4.8
  1
１０
 41
0.611111
  7
STANDARD
100
AcDbText
  0
TEXT
  5
69
100
AcDbEntity
  8
M0
 62
     4
100
AcDbText
 10
94.663375
 20
175.49459
 40
4.8
  1
３０
 41
0.611111
  7
STANDARD
100
AcDbText
  0
TEXT
  5
6A
100
AcDbEntity
  8
M0
 62
     4
100
AcDbText
 10
126.663367
 20
175.49459
 40
4.8
  1
５０
 41
0.611111
  7
STANDARD
100
AcDbText
  0
TEXT
  5
6B
100
AcDbEntity
  8
M0
 62
     4
100
AcDbText
 10
40.263375
 20
245.256602
 40
4.8
  1
４０
 41
0.611111
  7
STANDARD
100
AcDbText
  0
TEXT
  5
6C
100
AcDbEntity
  8
M0
 62
     4
100
AcDbText
 10
40.263375
 20
261.256602
 40
4.8
  1
５０
 41
0.611111
  7
STANDARD
100
AcDbText
  0
ARC
  5
6D
100
AcDbEntity
  8
M0
100
AcDbCircle
 10
-314.576671
 20
261.699649
 40
20.0
100
AcDbArc
 50
262.874984
 51
437.905243
  0
LINE
  5
6E
100
AcDbEntity
  8
M0
 62
     4
100
AcDbLine
 10
62.2605
 20
275.679864
 11
62.260501
 21
281.439864
  0
LINE
  5
6F
100
AcDbEntity
  8
M0
 62
     4
100
AcDbLine
 10
62.260501
 20
281.439864
 11
86.820504
 21
281.439864
  0
LINE
  5
70
100
AcDbEntity
  8
M0
 62
     4
100
AcDbLine
 10
86.820504
 20
281.439864
 11
86.820502
 21
275.679864
  0
LINE
  5
71
100
AcDbEntity
  8
M0
 62
     4
100
AcDbLine
 10
86.820502
 20
275.679864
 11
62.2605
 21
275.679864
  0
TEXT
  5
72
100
AcDbEntity
  8
M0
 62
     4
100
AcDbText
 10
62.923833
 20
276.159864
 40
4.8
  1
　浅井戸配管　　　標準ジェット（Ｊ４０－６Ｖ）使用時
 41
0.590278
  7
STANDARD
100
AcDbText
  0
TEXT
  5
73
100
AcDbEntity
  8
M0
 62
     4
100
AcDbText
 10
132.52189
 20
264.196446
 40
4.8
  1
吸込管径：３０ｍｍ
 41
0.590278
  7
STANDARD
100
AcDbText
  0
LINE
  5
74
100
AcDbEntity
  8
M0
 62
     4
100
AcDbLine
 10
30.883606
 20
274.006636
 11
54.268013
 21
274.006636
  0
LINE
  5
75
100
AcDbEntity
  8
M0
 62
     4
100
AcDbLine
 10
54.268013
 20
283.538566
 11
30.883606
 21
283.538566
  0
LINE
  5
76
100
AcDbEntity
  8
M0
 62
     4
100
AcDbLine
 10
30.883606
 20
283.538566
 11
30.883606
 21
274.006636
  0
LINE
  5
77
100
AcDbEntity
  8
M0
 62
     4
100
AcDbLine
 10
54.268013
 20
283.538566
 11
54.268013
 21
274.006636
  0
TEXT
  5
78
100
AcDbEntity
  8
M0
 62
     4
100
AcDbText
 10
33.325355
 20
276.021239
 40
5.4
  1
揚水性能
 41
0.740741
  7
STANDARD
100
AcDbText
  0
TEXT
  5
79
100
AcDbEntity
  8
M0
 62
     4
100
AcDbText
 10
99.509748
 20
234.230033
 40
4.8
  1
吸上高さ６ｍ時
 41
0.590278
  7
STANDARD
100
AcDbText
  0
LINE
  5
7A
100
AcDbEntity
  8
M0
 62
     4
100
AcDbLine
 10
61.2605
 20
154.075637
 11
61.260501
 21
159.835637
  0
LINE
  5
7B
100
AcDbEntity
  8
M0
 62
     4
100
AcDbLine
 10
61.260501
 20
159.835637
 11
85.820504
 21
159.835637
  0
LINE
  5
7C
100
AcDbEntity
  8
M0
 62
     4
100
AcDbLine
 10
85.820504
 20
159.835637
 11
85.820502
 21
154.075637
  0
LINE
  5
7D
100
AcDbEntity
  8
M0
 62
     4
100
AcDbLine
 10
85.820502
 20
154.075637
 11
61.2605
 21
154.075637
  0
TEXT
  5
7E
100
AcDbEntity
  8
M0
 62
     4
100
AcDbText
 10
61.923833
 20
154.555637
 40
4.8
  1
　深井戸配管　　　標準ジェット（Ｊ４０－６Ｖ）使用時
 41
0.590278
  7
STANDARD
100
AcDbText
  0
TEXT
  5
7F
100
AcDbEntity
  8
M0
 62
     4
100
AcDbText
 10
101.011853
 20
124.889529
 40
4.8
  1
吸上高さ１２ｍ時
 41
0.590278
  7
STANDARD
100
AcDbText
  0
TEXT
  5
80
100
AcDbEntity
  8
M0
 62
     4
100
AcDbText
 10
234.249502
 20
245.136635
 40
4.8
  1
吸上高さ１８ｍ時
 41
0.590278
  7
STANDARD
100
AcDbText
  0
TEXT
  5
81
100
AcDbEntity
  8
M0
 62
     4
100
AcDbText
 10
218.69065
 20
140.817348
 40
4.8
  1
吸上高さ３０ｍ時
 41
0.590278
  7
STANDARD
100
AcDbText
  0
TEXT
  5
82
100
AcDbEntity
  8
M0
 62
     4
100
AcDbText
 10
228.833688
 20
112.730899
 40
4.8
  1
吸上高さ２４ｍ時
 41
0.590278
  7
STANDARD
100
AcDbText
  0
TEXT
  5
83
100
AcDbEntity
  8
M0
 62
     4
100
AcDbText
 10
355.937719
 20
194.285548
 40
4.8
  1
吸上高さ１８ｍ時
 41
0.590278
  7
STANDARD
100
AcDbText
  0
TEXT
  5
84
100
AcDbEntity
  8
M0
 62
     4
100
AcDbText
 10
331.937719
 20
210.285545
 40
4.8
  1
吸上高さ２４ｍ時
 41
0.590278
  7
STANDARD
100
AcDbText
  0
TEXT
  5
85
100
AcDbEntity
  8
M0
 62
     4
100
AcDbText
 10
59.033575
 20
41.6552
 40
4.5
  1
※破線部域では６０ｋＰａの圧力変動があります。
 41
0.777778
  7
STANDARD
100
AcDbText
  0
TEXT
  5
86
100
AcDbEntity
  8
M0
 62
     4
100
AcDbText
 10
59.033575
 20
162.73817
 40
4.5
  1
※破線部域では６０ｋＰａの圧力変動があります。
 41
0.777778
  7
STANDARD
100
AcDbText
  0
TEXT
  5
87
100
AcDbEntity
  8
M0
 62
     4
100
AcDbText
 10
191.653621
 20
162.73817
 40
4.5
  1
※破線部域では６０ｋＰａの圧力変動があります。
 41
0.777778
  7
STANDARD
100
AcDbText
  0
TEXT
  5
88
100
AcDbEntity
  8
M0
 62
     4
100
AcDbText
 10
257.66622
 20
49.390369
 40
4.5
  1
※破線部域では６０ｋＰａの圧力変動があります。
 41
0.777778
  7
STANDARD
100
AcDbText
  0
TEXT
  5
89
100
AcDbEntity
  8
M0
 62
     4
100
AcDbText
 10
309.461546
 20
123.082416
 40
4.5
  1
※破線部域では６０ｋＰａの圧力変動があります。
 41
0.777778
  7
STANDARD
100
AcDbText
  0
LINE
  5
8A
100
AcDbEntity
  8
M0
100
AcDbLine
 10
198.949755
 20
183.536635
 11
270.949755
 21
183.536635
  0
LINE
  5
8B
100
AcDbEntity
  8
M0
100
AcDbLine
 10
198.949755
 20
271.536635
 11
198.949755
 21
183.536635
  0
LINE
  5
8C
100
AcDbEntity
  8
M0
100
AcDbLine
 10
230.949755
 20
183.536635
 11
230.949755
 21
231.536635
  0
LINE
  5
8D
100
AcDbEntity
  8
M0
100
AcDbLine
 10
262.949755
 20
183.536635
 11
262.949755
 21
263.536635
  0
LINE
  5
8E
100
AcDbEntity
  8
M0
100
AcDbLine
 10
198.949755
 20
199.536635
 11
270.949755
 21
199.536635
  0
LINE
  5
8F
100
AcDbEntity
  8
M0
100
AcDbLine
 10
198.949755
 20
215.536635
 11
270.949755
 21
215.536635
  0
LINE
  5
90
100
AcDbEntity
  8
M0
100
AcDbLine
 10
230.949755
 20
231.536635
 11
230.949755
 21
271.536635
  0
LINE
  5
91
100
AcDbEntity
  8
M0
100
AcDbLine
 10
214.949755
 20
183.536635
 11
214.949755
 21
271.536635
  0
LINE
  5
92
100
AcDbEntity
  8
M0
100
AcDbLine
 10
246.949755
 20
183.536635
 11
246.949755
 21
241.312512
  0
LINE
  5
93
100
AcDbEntity
  8
M0
100
AcDbLine
 10
198.949755
 20
247.536635
 11
230.949755
 21
247.536635
  0
LINE
  5
94
100
AcDbEntity
  8
M0
100
AcDbLine
 10
198.949755
 20
231.536635
 11
270.949755
 21
231.536635
  0
ARC
  5
95
100
AcDbEntity
  8
M0
100
AcDbCircle
 10
183.297815
 20
213.736343
 40
5.376
100
AcDbArc
 50
52.58592
 51
127.41408
  0
ARC
  5
96
100
AcDbEntity
  8
M0
100
AcDbCircle
 10
183.297815
 20
217.110313
 40
5.376
100
AcDbArc
 50
232.58592
 51
307.41408
  0
TEXT
  5
97
100
AcDbEntity
  8
M0
100
AcDbText
 10
181.057808
 20
229.804606
 40
3.584
  1
全
 41
1.25
  7
STANDARD
100
AcDbText
  0
TEXT
  5
98
100
AcDbEntity
  8
M0
100
AcDbText
 10
181.057808
 20
225.862206
 40
3.584
  1
揚
 41
1.25
  7
STANDARD
100
AcDbText
  0
TEXT
  5
99
100
AcDbEntity
  8
M0
100
AcDbText
 10
181.057808
 20
221.919806
 40
3.584
  1
程
 41
1.25
  7
STANDARD
100
AcDbText
  0
TEXT
  5
9A
100
AcDbEntity
  8
M0
100
AcDbText
 10
181.057808
 20
217.977406
 40
3.584
  1
　
 41
1.25
  7
STANDARD
100
AcDbText
  0
TEXT
  5
9B
100
AcDbEntity
  8
M0
100
AcDbText
 10
181.057808
 20
214.035007
 40
3.584
  1
ｍ
 41
1.25
  7
STANDARD
100
AcDbText
  0
TEXT
  5
9C
100
AcDbEntity
  8
M0
100
AcDbText
 10
189.429555
 20
229.256602
 40
4.8
  1
３０
 41
0.611111
  7
STANDARD
100
AcDbText
  0
TEXT
  5
9D
100
AcDbEntity
  8
M0
100
AcDbText
 10
189.429555
 20
213.256606
 40
4.8
  1
２０
 41
0.611111
  7
STANDARD
100
AcDbText
  0
TEXT
  5
9E
100
AcDbEntity
  8
M0
100
AcDbText
 10
189.429555
 20
197.256602
 40
4.8
  1
１０
 41
0.611111
  7
STANDARD
100
AcDbText
  0
TEXT
  5
9F
100
AcDbEntity
  8
M0
100
AcDbText
 10
192.629552
 20
181.256603
 40
4.8
  1
０
 41
0.611111
  7
STANDARD
100
AcDbText
  0
TEXT
  5
A0
100
AcDbEntity
  8
M0
100
AcDbText
 10
195.829549
 20
175.494594
 40
4.8
  1
０
 41
0.611111
  7
STANDARD
100
AcDbText
  0
TEXT
  5
A1
100
AcDbEntity
  8
M0
100
AcDbText
 10
227.829549
 20
175.494594
 40
4.8
  1
２０
 41
0.611111
  7
STANDARD
100
AcDbText
  0
TEXT
  5
A2
100
AcDbEntity
  8
M0
100
AcDbText
 10
259.829565
 20
175.494594
 40
4.8
  1
４０
 41
0.611111
  7
STANDARD
100
AcDbText
  0
TEXT
  5
A3
100
AcDbEntity
  8
M0
100
AcDbText
 10
223.712713
 20
169.241898
 40
5.376
  1
揚水量（Ｌ／分）
 41
0.611111
  7
STANDARD
100
AcDbText
  0
TEXT
  5
A4
100
AcDbEntity
  8
M0
100
AcDbText
 10
211.829549
 20
175.494594
 40
4.8
  1
１０
 41
0.611111
  7
STANDARD
100
AcDbText
  0
TEXT
  5
A5
100
AcDbEntity
  8
M0
100
AcDbText
 10
243.829564
 20
175.494594
 40
4.8
  1
３０
 41
0.611111
  7
STANDARD
100
AcDbText
  0
TEXT
  5
A6
100
AcDbEntity
  8
M0
100
AcDbText
 10
189.429555
 20
245.256606
 40
4.8
  1
４０
 41
0.611111
  7
STANDARD
100
AcDbText
  0
TEXT
  5
A7
100
AcDbEntity
  8
M0
100
AcDbText
 10
189.429555
 20
261.256606
 40
4.8
  1
５０
 41
0.611111
  7
STANDARD
100
AcDbText
  0
LINE
  5
A8
100
AcDbEntity
  8
M0
100
AcDbLine
 10
246.949755
 20
253.04543
 11
246.949755
 21
271.536635
  0
LINE
  5
A9
100
AcDbEntity
  8
M0
100
AcDbLine
 10
262.949755
 20
247.536635
 11
270.949755
 21
247.536635
  0
LINE
  5
AA
100
AcDbEntity
  8
M0
100
AcDbLine
 10
198.949755
 20
263.536635
 11
270.949755
 21
263.536635
  0
LINE
  5
AB
100
AcDbEntity
  8
M0
 62
     7
100
AcDbLine
 10
178.825026
 20
276.083258
 11
178.825028
 21
281.843258
  0
LINE
  5
AC
100
AcDbEntity
  8
M0
 62
     7
100
AcDbLine
 10
178.825028
 20
281.843258
 11
196.585027
 21
281.843258
  0
LINE
  5
AD
100
AcDbEntity
  8
M0
 62
     7
100
AcDbLine
 10
196.585027
 20
281.843258
 11
196.585025
 21
276.083258
  0
LINE
  5
AE
100
AcDbEntity
  8
M0
 62
     7
100
AcDbLine
 10
196.585025
 20
276.083258
 11
178.825026
 21
276.083258
  0
TEXT
  5
AF
100
AcDbEntity
  8
M0
 62
     7
100
AcDbText
 10
179.488359
 20
276.563258
 40
4.8
  1
　深井戸　　　専用ジェット（Ｊ７５－２４Ｖ）使用時
 41
0.590278
  7
STANDARD
100
AcDbText
  0
LINE
  5
B0
100
AcDbEntity
  8
M0
 62
     7
100
AcDbLine
 10
179.357088
 20
155.240973
 11
179.35709
 21
161.000973
  0
LINE
  5
B1
100
AcDbEntity
  8
M0
 62
     7
100
AcDbLine
 10
179.35709
 20
161.000973
 11
197.117089
 21
161.000973
  0
LINE
  5
B2
100
AcDbEntity
  8
M0
 62
     7
100
AcDbLine
 10
197.117089
 20
161.000973
 11
197.117088
 21
155.240973
  0
LINE
  5
B3
100
AcDbEntity
  8
M0
 62
     7
100
AcDbLine
 10
197.117088
 20
155.240973
 11
179.357088
 21
155.240973
  0
TEXT
  5
B4
100
AcDbEntity
  8
M0
 62
     7
100
AcDbText
 10
180.020422
 20
155.720973
 40
4.8
  1
　深井戸　　　専用ジェット（Ｊ７５－３５Ｖ）使用時
 41
0.590278
  7
STANDARD
100
AcDbText
  0
TEXT
  5
B5
100
AcDbEntity
  8
M0
 62
     6
100
AcDbText
 10
251.864889
 20
264.60076
 40
4.8
  1
圧力管径：３０ｍｍ
 41
0.590278
  7
STANDARD
100
AcDbText
  0
TEXT
  5
B6
100
AcDbEntity
  8
M0
 62
     6
100
AcDbText
 10
251.864889
 20
270.594184
 40
4.8
  1
吸込管径：３０ｍｍ
 41
0.590278
  7
STANDARD
100
AcDbText
  0
TEXT
  5
B7
100
AcDbEntity
  8
M0
 62
     6
100
AcDbText
 10
251.864889
 20
149.989959
 40
4.8
  1
吸込管径：３０ｍｍ
 41
0.590278
  7
STANDARD
100
AcDbText
  0
TEXT
  5
B8
100
AcDbEntity
  8
M0
 62
     6
100
AcDbText
 10
251.864889
 20
143.996535
 40
4.8
  1
圧力管径：３０ｍｍ
 41
0.590278
  7
STANDARD
100
AcDbText
  0
TEXT
  5
B9
100
AcDbEntity
  8
M0
 62
     6
100
AcDbText
 10
134.698709
 20
149.489959
 40
4.8
  1
吸込管径：３０ｍｍ
 41
0.590278
  7
STANDARD
100
AcDbText
  0
TEXT
  5
BA
100
AcDbEntity
  8
M0
 62
     6
100
AcDbText
 10
134.698709
 20
143.996535
 40
4.8
  1
圧力管径：２５ｍｍ
 41
0.590278
  7
STANDARD
100
AcDbText
  0
LINE
  5
BB
100
AcDbEntity
  8
M0
 62
   114
100
AcDbLine
 10
198.949755
 20
142.932409
 11
216.918335
 21
142.932409
  0
LINE
  5
BC
100
AcDbEntity
  8
M0
 62
   114
100
AcDbLine
 10
198.949755
 20
62.932409
 11
270.949755
 21
62.932409
  0
LINE
  5
BD
100
AcDbEntity
  8
M0
 62
   114
100
AcDbLine
 10
230.949755
 20
62.932409
 11
230.949755
 21
110.932409
  0
LINE
  5
BE
100
AcDbEntity
  8
M0
 62
   114
100
AcDbLine
 10
262.949755
 20
62.932409
 11
262.949755
 21
142.932409
  0
LINE
  5
BF
100
AcDbEntity
  8
M0
 62
   114
100
AcDbLine
 10
198.949755
 20
78.932409
 11
270.949755
 21
78.932409
  0
LINE
  5
C0
100
AcDbEntity
  8
M0
 62
   114
100
AcDbLine
 10
198.949755
 20
94.932409
 11
270.949755
 21
94.932409
  0
LINE
  5
C1
100
AcDbEntity
  8
M0
 62
   114
100
AcDbLine
 10
230.949755
 20
119.835591
 11
230.949755
 21
138.750871
  0
LINE
  5
C2
100
AcDbEntity
  8
M0
 62
   114
100
AcDbLine
 10
214.949755
 20
62.932409
 11
214.949755
 21
150.932409
  0
LINE
  5
C3
100
AcDbEntity
  8
M0
 62
   114
100
AcDbLine
 10
246.949755
 20
62.932409
 11
246.949755
 21
110.932409
  0
LINE
  5
C4
100
AcDbEntity
  8
M0
 62
   114
100
AcDbLine
 10
198.949755
 20
126.932409
 11
270.949755
 21
126.932409
  0
LINE
  5
C5
100
AcDbEntity
  8
M0
 62
   114
100
AcDbLine
 10
198.949755
 20
110.932409
 11
270.949755
 21
110.932409
  0
LINE
  5
C6
100
AcDbEntity
  8
M0
 62
   114
100
AcDbLine
 10
198.949755
 20
150.932409
 11
198.949755
 21
62.932409
  0
ARC
  5
C7
100
AcDbEntity
  8
M0
 62
   114
100
AcDbCircle
 10
182.229156
 20
94.815667
 40
5.376
100
AcDbArc
 50
52.58592
 51
127.41408
  0
ARC
  5
C8
100
AcDbEntity
  8
M0
 62
   114
100
AcDbCircle
 10
182.229156
 20
98.189637
 40
5.376
100
AcDbArc
 50
232.58592
 51
307.41408
  0
TEXT
  5
C9
100
AcDbEntity
  8
M0
 62
   114
100
AcDbText
 10
179.989159
 20
110.883928
 40
3.584
  1
全
 41
1.25
  7
STANDARD
100
AcDbText
  0
TEXT
  5
CA
100
AcDbEntity
  8
M0
 62
   114
100
AcDbText
 10
179.989159
 20
106.941528
 40
3.584
  1
揚
 41
1.25
  7
STANDARD
100
AcDbText
  0
TEXT
  5
CB
100
AcDbEntity
  8
M0
 62
   114
100
AcDbText
 10
179.989159
 20
102.999128
 40
3.584
  1
程
 41
1.25
  7
STANDARD
100
AcDbText
  0
TEXT
  5
CC
100
AcDbEntity
  8
M0
 62
   114
100
AcDbText
 10
179.989159
 20
99.056728
 40
3.584
  1
　
 41
1.25
  7
STANDARD
100
AcDbText
  0
TEXT
  5
CD
100
AcDbEntity
  8
M0
 62
   114
100
AcDbText
 10
179.989159
 20
95.114328
 40
3.584
  1
ｍ
 41
1.25
  7
STANDARD
100
AcDbText
  0
TEXT
  5
CE
100
AcDbEntity
  8
M0
 62
   114
100
AcDbText
 10
189.429555
 20
108.65238
 40
4.8
  1
３０
 41
0.611111
  7
STANDARD
100
AcDbText
  0
TEXT
  5
CF
100
AcDbEntity
  8
M0
 62
   114
100
AcDbText
 10
189.429555
 20
92.65238
 40
4.8
  1
２０
 41
0.611111
  7
STANDARD
100
AcDbText
  0
TEXT
  5
D0
100
AcDbEntity
  8
M0
 62
   114
100
AcDbText
 10
189.429555
 20
76.65238
 40
4.8
  1
１０
 41
0.611111
  7
STANDARD
100
AcDbText
  0
TEXT
  5
D1
100
AcDbEntity
  8
M0
 62
   114
100
AcDbText
 10
192.629552
 20
60.65238
 40
4.8
  1
０
 41
0.611111
  7
STANDARD
100
AcDbText
  0
TEXT
  5
D2
100
AcDbEntity
  8
M0
 62
   114
100
AcDbText
 10
195.829556
 20
54.890371
 40
4.8
  1
０
 41
0.611111
  7
STANDARD
100
AcDbText
  0
TEXT
  5
D3
100
AcDbEntity
  8
M0
 62
   114
100
AcDbText
 10
227.829541
 20
54.890371
 40
4.8
  1
２０
 41
0.611111
  7
STANDARD
100
AcDbText
  0
TEXT
  5
D4
100
AcDbEntity
  8
M0
 62
   114
100
AcDbText
 10
259.829556
 20
54.890371
 40
4.8
  1
４０
 41
0.611111
  7
STANDARD
100
AcDbText
  0
TEXT
  5
D5
100
AcDbEntity
  8
M0
 62
   114
100
AcDbText
 10
222.885172
 20
49.313947
 40
5.376
  1
揚水量（Ｌ／分）
 41
0.611111
  7
STANDARD
100
AcDbText
  0
TEXT
  5
D6
100
AcDbEntity
  8
M0
 62
   114
100
AcDbText
 10
211.829556
 20
54.890371
 40
4.8
  1
１０
 41
0.611111
  7
STANDARD
100
AcDbText
  0
TEXT
  5
D7
100
AcDbEntity
  8
M0
 62
   114
100
AcDbText
 10
243.829556
 20
54.890371
 40
4.8
  1
３０
 41
0.611111
  7
STANDARD
100
AcDbText
  0
TEXT
  5
D8
100
AcDbEntity
  8
M0
 62
   114
100
AcDbText
 10
189.429555
 20
124.65238
 40
4.8
  1
４０
 41
0.611111
  7
STANDARD
100
AcDbText
  0
TEXT
  5
D9
100
AcDbEntity
  8
M0
 62
   114
100
AcDbText
 10
189.429555
 20
140.65238
 40
4.8
  1
５０
 41
0.611111
  7
STANDARD
100
AcDbText
  0
LINE
  5
DA
100
AcDbEntity
  8
M0
 62
   114
100
AcDbLine
 10
246.949755
 20
119.905715
 11
246.949755
 21
150.932409
  0
LINE
  5
DB
100
AcDbEntity
  8
M0
 62
   114
100
AcDbLine
 10
246.949755
 20
142.932409
 11
270.949755
 21
142.932409
  0
LINE
  5
DC
100
AcDbEntity
  8
M0
 62
   114
100
AcDbLine
 10
230.949755
 20
146.83821
 11
230.949755
 21
150.932409
  0
LINE
  5
DD
100
AcDbEntity
  8
M0
 62
     2
100
AcDbLine
 10
49.783576
 20
62.932409
 11
160.783576
 21
62.932409
  0
LINE
  5
DE
100
AcDbEntity
  8
M0
 62
     2
100
AcDbLine
 10
49.783576
 20
150.932409
 11
49.783576
 21
62.932409
  0
LINE
  5
DF
100
AcDbEntity
  8
M0
 62
     2
100
AcDbLine
 10
81.783576
 20
62.932409
 11
81.783576
 21
110.932409
  0
LINE
  5
E0
100
AcDbEntity
  8
M0
 62
     2
100
AcDbLine
 10
113.783576
 20
62.932409
 11
113.783576
 21
121.914838
  0
LINE
  5
E1
100
AcDbEntity
  8
M0
 62
     2
100
AcDbLine
 10
145.783576
 20
62.932409
 11
145.783576
 21
142.932409
  0
LINE
  5
E2
100
AcDbEntity
  8
M0
 62
     2
100
AcDbLine
 10
49.783576
 20
78.932409
 11
160.783576
 21
78.932409
  0
LINE
  5
E3
100
AcDbEntity
  8
M0
 62
     2
100
AcDbLine
 10
49.783576
 20
94.932409
 11
160.783576
 21
94.932409
  0
LINE
  5
E4
100
AcDbEntity
  8
M0
 62
     2
100
AcDbLine
 10
81.783576
 20
110.932409
 11
81.783576
 21
150.932409
  0
LINE
  5
E5
100
AcDbEntity
  8
M0
 62
     2
100
AcDbLine
 10
65.783576
 20
62.932409
 11
65.783576
 21
150.932409
  0
LINE
  5
E6
100
AcDbEntity
  8
M0
 62
     2
100
AcDbLine
 10
97.783576
 20
62.932409
 11
97.783576
 21
150.932409
  0
LINE
  5
E7
100
AcDbEntity
  8
M0
 62
     2
100
AcDbLine
 10
129.783576
 20
62.932409
 11
129.783576
 21
150.932409
  0
LINE
  5
E8
100
AcDbEntity
  8
M0
 62
     2
100
AcDbLine
 10
49.783576
 20
126.932409
 11
97.783576
 21
126.932409
  0
LINE
  5
E9
100
AcDbEntity
  8
M0
 62
     2
100
AcDbLine
 10
49.783576
 20
110.932409
 11
160.783576
 21
110.932409
  0
LINE
  5
EA
100
AcDbEntity
  8
M0
 62
     2
100
AcDbLine
 10
49.783576
 20
142.932409
 11
160.783576
 21
142.932409
  0
ARC
  5
EB
100
AcDbEntity
  8
M0
 62
     2
100
AcDbCircle
 10
33.120153
 20
96.575954
 40
5.376
100
AcDbArc
 50
52.58592
 51
127.41408
  0
ARC
  5
EC
100
AcDbEntity
  8
M0
 62
     2
100
AcDbCircle
 10
33.120153
 20
99.949925
 40
5.376
100
AcDbArc
 50
232.58592
 51
307.41408
  0
TEXT
  5
ED
100
AcDbEntity
  8
M0
 62
     2
100
AcDbText
 10
30.880139
 20
112.644227
 40
3.584
  1
全
 41
1.25
  7
STANDARD
100
AcDbText
  0
TEXT
  5
EE
100
AcDbEntity
  8
M0
 62
     2
100
AcDbText
 10
30.880139
 20
108.701828
 40
3.584
  1
揚
 41
1.25
  7
STANDARD
100
AcDbText
  0
TEXT
  5
EF
100
AcDbEntity
  8
M0
 62
     2
100
AcDbText
 10
30.880139
 20
104.759428
 40
3.584
  1
程
 41
1.25
  7
STANDARD
100
AcDbText
  0
TEXT
  5
F0
100
AcDbEntity
  8
M0
 62
     2
100
AcDbText
 10
30.880139
 20
100.817028
 40
3.584
  1
　
 41
1.25
  7
STANDARD
100
AcDbText
  0
TEXT
  5
F1
100
AcDbEntity
  8
M0
 62
     2
100
AcDbText
 10
30.880139
 20
96.874628
 40
3.584
  1
ｍ
 41
1.25
  7
STANDARD
100
AcDbText
  0
TEXT
  5
F2
100
AcDbEntity
  8
M0
 62
     2
100
AcDbText
 10
40.263376
 20
108.65238
 40
4.8
  1
３０
 41
0.611111
  7
STANDARD
100
AcDbText
  0
TEXT
  5
F3
100
AcDbEntity
  8
M0
 62
     2
100
AcDbText
 10
40.263376
 20
92.652378
 40
4.8
  1
２０
 41
0.611111
  7
STANDARD
100
AcDbText
  0
TEXT
  5
F4
100
AcDbEntity
  8
M0
 62
     2
100
AcDbText
 10
40.263376
 20
76.652378
 40
4.8
  1
１０
 41
0.611111
  7
STANDARD
100
AcDbText
  0
TEXT
  5
F5
100
AcDbEntity
  8
M0
 62
     2
100
AcDbText
 10
43.463373
 20
60.652378
 40
4.8
  1
０
 41
0.611111
  7
STANDARD
100
AcDbText
  0
TEXT
  5
F6
100
AcDbEntity
  8
M0
 62
     2
100
AcDbText
 10
46.663369
 20
54.890369
 40
4.8
  1
０
 41
0.611111
  7
STANDARD
100
AcDbText
  0
TEXT
  5
F7
100
AcDbEntity
  8
M0
 62
     2
100
AcDbText
 10
78.663369
 20
54.890369
 40
4.8
  1
２０
 41
0.611111
  7
STANDARD
100
AcDbText
  0
TEXT
  5
F8
100
AcDbEntity
  8
M0
 62
     2
100
AcDbText
 10
110.663377
 20
54.890369
 40
4.8
  1
４０
 41
0.611111
  7
STANDARD
100
AcDbText
  0
TEXT
  5
F9
100
AcDbEntity
  8
M0
 62
     2
100
AcDbText
 10
89.413233
 20
48.857361
 40
5.376
  1
揚水量（Ｌ／分）
 41
0.611111
  7
STANDARD
100
AcDbText
  0
TEXT
  5
FA
100
AcDbEntity
  8
M0
 62
     2
100
AcDbText
 10
142.663373
 20
54.890369
 40
4.8
  1
６０
 41
0.611111
  7
STANDARD
100
AcDbText
  0
TEXT
  5
FB
100
AcDbEntity
  8
M0
 62
     2
100
AcDbText
 10
62.663369
 20
54.890369
 40
4.8
  1
１０
 41
0.611111
  7
STANDARD
100
AcDbText
  0
TEXT
  5
FC
100
AcDbEntity
  8
M0
 62
     2
100
AcDbText
 10
94.663377
 20
54.890369
 40
4.8
  1
３０
 41
0.611111
  7
STANDARD
100
AcDbText
  0
TEXT
  5
FD
100
AcDbEntity
  8
M0
 62
     2
100
AcDbText
 10
126.663369
 20
54.890369
 40
4.8
  1
５０
 41
0.611111
  7
STANDARD
100
AcDbText
  0
TEXT
  5
FE
100
AcDbEntity
  8
M0
 62
     2
100
AcDbText
 10
40.263376
 20
124.65238
 40
4.8
  1
４０
 41
0.611111
  7
STANDARD
100
AcDbText
  0
TEXT
  5
FF
100
AcDbEntity
  8
M0
 62
     2
100
AcDbText
 10
40.263376
 20
140.65238
 40
4.8
  1
５０
 41
0.611111
  7
STANDARD
100
AcDbText
  0
LINE
  5
100
100
AcDbEntity
  8
M0
 62
     2
100
AcDbLine
 10
113.783576
 20
131.976337
 11
113.783576
 21
150.932409
  0
LINE
  5
101
100
AcDbEntity
  8
M0
 62
     2
100
AcDbLine
 10
129.783576
 20
126.932409
 11
160.783576
 21
126.932409
  0
LINE
  5
102
100
AcDbEntity
  8
M0
100
AcDbLine
 10
294.063379
 20
237.412089
 11
294.063381
 21
243.172089
  0
LINE
  5
103
100
AcDbEntity
  8
M0
100
AcDbLine
 10
294.063381
 20
243.172089
 11
311.82338
 21
243.172089
  0
LINE
  5
104
100
AcDbEntity
  8
M0
100
AcDbLine
 10
311.82338
 20
243.172089
 11
311.823379
 21
237.412089
  0
LINE
  5
105
100
AcDbEntity
  8
M0
100
AcDbLine
 10
311.823379
 20
237.412089
 11
294.063379
 21
237.412089
  0
TEXT
  5
106
100
AcDbEntity
  8
M0
100
AcDbText
 10
294.726713
 20
237.892089
 40
4.8
  1
　深井戸　　　シングルジェット（Ｊ４０－２４ＳＶ）使用時
 41
0.590278
  7
STANDARD
100
AcDbText
  0
TEXT
  5
107
100
AcDbEntity
  8
M0
100
AcDbText
 10
366.817159
 20
224.84179
 40
4.8
  1
吸込管（Ｂ）３０ｍｍ
 41
0.590278
  7
STANDARD
100
AcDbText
  0
LINE
  5
108
100
AcDbEntity
  8
M0
100
AcDbLine
 10
216.164044
 20
140.416483
 11
216.383617
 21
140.027062
  0
LINE
  5
109
100
AcDbEntity
  8
M0
100
AcDbLine
 10
216.597593
 20
139.397547
 11
218.125261
 21
128.703871
  0
LINE
  5
10A
100
AcDbEntity
  8
M0
100
AcDbLine
 10
218.141106
 20
128.359425
 11
217.349756
 21
112.53241
  0
ARC
  5
10B
100
AcDbEntity
  8
M0
100
AcDbCircle
 10
214.815684
 20
139.142989
 40
1.8
100
AcDbArc
 50
8.130102
 51
29.416313
  0
ARC
  5
10C
100
AcDbEntity
  8
M0
100
AcDbCircle
 10
216.343352
 20
128.449312
 40
1.8
100
AcDbArc
 50
357.137595
 51
368.130102
  0
ARC
  5
10D
100
AcDbEntity
  8
M0
100
AcDbCircle
 10
214.59611
 20
139.53241
 40
1.8
100
AcDbArc
 50
29.416313
 51
90.0
  0
LINE
  5
10E
100
AcDbEntity
  8
M0
100
AcDbLine
 10
223.695874
 20
131.113874
 11
224.215867
 21
130.516187
  0
LINE
  5
10F
100
AcDbEntity
  8
M0
100
AcDbLine
 10
225.349756
 20
125.33241
 11
224.633384
 21
129.630641
  0
LINE
  5
110
100
AcDbEntity
  8
M0
100
AcDbLine
 10
225.349756
 20
125.33241
 11
226.135856
 21
119.043608
  0
LINE
  5
111
100
AcDbEntity
  8
M0
100
AcDbLine
 10
226.149756
 20
118.820346
 11
226.149756
 21
115.80728
  0
LINE
  5
112
100
AcDbEntity
  8
M0
100
AcDbLine
 10
226.155973
 20
115.657798
 11
226.925009
 21
106.429367
  0
LINE
  5
113
100
AcDbEntity
  8
M0
100
AcDbLine
 10
226.877483
 20
105.843321
 11
226.149756
 21
102.93241
  0
ARC
  5
114
100
AcDbEntity
  8
M0
100
AcDbCircle
 10
222.857875
 20
129.334722
 40
1.8
100
AcDbArc
 50
9.462322
 51
41.023535
  0
ARC
  5
115
100
AcDbEntity
  8
M0
100
AcDbCircle
 10
224.349756
 20
118.820346
 40
1.8
100
AcDbArc
 50
0.0
 51
7.125016
  0
ARC
  5
116
100
AcDbEntity
  8
M0
100
AcDbCircle
 10
227.949756
 20
115.80728
 40
1.8
100
AcDbArc
 50
180.0
 51
184.763642
  0
ARC
  5
117
100
AcDbEntity
  8
M0
100
AcDbCircle
 10
227.949756
 20
115.80728
 40
1.8
100
AcDbArc
 50
180.0
 51
184.763642
  0
ARC
  5
118
100
AcDbEntity
  8
M0
100
AcDbCircle
 10
225.131227
 20
106.279885
 40
1.8
100
AcDbArc
 50
345.963757
 51
364.763642
  0
ARC
  5
119
100
AcDbEntity
  8
M0
100
AcDbCircle
 10
222.337882
 20
129.93241
 40
1.8
100
AcDbArc
 50
41.023535
 51
90.0
  0
LINE
  5
11A
100
AcDbEntity
  8
M0
 62
     6
100
AcDbLine
 10
314.211547
 20
143.592147
 11
386.211547
 21
143.592147
  0
LINE
  5
11B
100
AcDbEntity
  8
M0
 62
     6
100
AcDbLine
 10
314.211547
 20
231.592147
 11
314.211547
 21
143.592147
  0
LINE
  5
11C
100
AcDbEntity
  8
M0
 62
     6
100
AcDbLine
 10
346.211547
 20
143.592147
 11
346.211547
 21
191.592147
  0
LINE
  5
11D
100
AcDbEntity
  8
M0
 62
     6
100
AcDbLine
 10
378.211547
 20
143.592147
 11
378.211547
 21
191.592147
  0
LINE
  5
11E
100
AcDbEntity
  8
M0
 62
     6
100
AcDbLine
 10
314.211547
 20
159.592147
 11
386.211547
 21
159.592147
  0
LINE
  5
11F
100
AcDbEntity
  8
M0
 62
     6
100
AcDbLine
 10
314.211547
 20
175.592147
 11
386.211547
 21
175.592147
  0
LINE
  5
120
100
AcDbEntity
  8
M0
 62
     6
100
AcDbLine
 10
346.211547
 20
191.592147
 11
346.211547
 21
207.592147
  0
LINE
  5
121
100
AcDbEntity
  8
M0
 62
     6
100
AcDbLine
 10
330.211547
 20
143.592147
 11
330.211547
 21
231.592147
  0
LINE
  5
122
100
AcDbEntity
  8
M0
 62
     6
100
AcDbLine
 10
362.211547
 20
143.592147
 11
362.211547
 21
191.592147
  0
LINE
  5
123
100
AcDbEntity
  8
M0
 62
     6
100
AcDbLine
 10
314.211547
 20
207.592147
 11
386.211547
 21
207.592147
  0
LINE
  5
124
100
AcDbEntity
  8
M0
 62
     6
100
AcDbLine
 10
314.211547
 20
191.592147
 11
386.211547
 21
191.592147
  0
LINE
  5
125
100
AcDbEntity
  8
M0
 62
     6
100
AcDbLine
 10
314.211547
 20
223.592147
 11
386.211547
 21
223.592147
  0
ARC
  5
126
100
AcDbEntity
  8
M0
 62
     6
100
AcDbCircle
 10
298.655724
 20
171.870646
 40
5.376
100
AcDbArc
 50
52.58592
 51
127.41408
  0
ARC
  5
127
100
AcDbEntity
  8
M0
 62
     6
100
AcDbCircle
 10
298.655724
 20
175.244616
 40
5.376
100
AcDbArc
 50
232.58592
 51
307.41408
  0
TEXT
  5
128
100
AcDbEntity
  8
M0
 62
     6
100
AcDbText
 10
296.415726
 20
187.938913
 40
3.584
  1
全
 41
1.25
  7
STANDARD
100
AcDbText
  0
TEXT
  5
129
100
AcDbEntity
  8
M0
 62
     6
100
AcDbText
 10
296.415726
 20
183.996513
 40
3.584
  1
揚
 41
1.25
  7
STANDARD
100
AcDbText
  0
TEXT
  5
12A
100
AcDbEntity
  8
M0
 62
     6
100
AcDbText
 10
296.415726
 20
180.054114
 40
3.584
  1
程
 41
1.25
  7
STANDARD
100
AcDbText
  0
TEXT
  5
12B
100
AcDbEntity
  8
M0
 62
     6
100
AcDbText
 10
296.415726
 20
176.111714
 40
3.584
  1
　
 41
1.25
  7
STANDARD
100
AcDbText
  0
TEXT
  5
12C
100
AcDbEntity
  8
M0
 62
     6
100
AcDbText
 10
296.415726
 20
172.169314
 40
3.584
  1
ｍ
 41
1.25
  7
STANDARD
100
AcDbText
  0
TEXT
  5
12D
100
AcDbEntity
  8
M0
 62
     6
100
AcDbText
 10
304.691343
 20
189.312114
 40
4.8
  1
３０
 41
0.611111
  7
STANDARD
100
AcDbText
  0
TEXT
  5
12E
100
AcDbEntity
  8
M0
 62
     6
100
AcDbText
 10
304.691343
 20
173.312112
 40
4.8
  1
２０
 41
0.611111
  7
STANDARD
100
AcDbText
  0
TEXT
  5
12F
100
AcDbEntity
  8
M0
 62
     6
100
AcDbText
 10
304.691343
 20
157.312119
 40
4.8
  1
１０
 41
0.611111
  7
STANDARD
100
AcDbText
  0
TEXT
  5
130
100
AcDbEntity
  8
M0
 62
     6
100
AcDbText
 10
307.89134
 20
141.312114
 40
4.8
  1
０
 41
0.611111
  7
STANDARD
100
AcDbText
  0
TEXT
  5
131
100
AcDbEntity
  8
M0
 62
     6
100
AcDbText
 10
311.091352
 20
135.550105
 40
4.8
  1
０
 41
0.611111
  7
STANDARD
100
AcDbText
  0
TEXT
  5
132
100
AcDbEntity
  8
M0
 62
     6
100
AcDbText
 10
343.091321
 20
135.550105
 40
4.8
  1
２０
 41
0.611111
  7
STANDARD
100
AcDbText
  0
TEXT
  5
133
100
AcDbEntity
  8
M0
 62
     6
100
AcDbText
 10
375.091354
 20
135.550105
 40
4.8
  1
４０
 41
0.611111
  7
STANDARD
100
AcDbText
  0
TEXT
  5
134
100
AcDbEntity
  8
M0
 62
     6
100
AcDbText
 10
337.47689
 20
128.227038
 40
5.376
  1
揚水量（Ｌ／分）
 41
0.611111
  7
STANDARD
100
AcDbText
  0
TEXT
  5
135
100
AcDbEntity
  8
M0
 62
     6
100
AcDbText
 10
327.091352
 20
135.550105
 40
4.8
  1
１０
 41
0.611111
  7
STANDARD
100
AcDbText
  0
TEXT
  5
136
100
AcDbEntity
  8
M0
 62
     6
100
AcDbText
 10
359.091352
 20
135.550105
 40
4.8
  1
３０
 41
0.611111
  7
STANDARD
100
AcDbText
  0
TEXT
  5
137
100
AcDbEntity
  8
M0
 62
     6
100
AcDbText
 10
304.691343
 20
205.312117
 40
4.8
  1
４０
 41
0.611111
  7
STANDARD
100
AcDbText
  0
TEXT
  5
138
100
AcDbEntity
  8
M0
 62
     6
100
AcDbText
 10
304.691343
 20
221.312117
 40
4.8
  1
５０
 41
0.611111
  7
STANDARD
100
AcDbText
  0
LINE
  5
139
100
AcDbEntity
  8
M0
 62
     6
100
AcDbLine
 10
346.211547
 20
217.243294
 11
346.211547
 21
231.592147
  0
LINE
  5
13A
100
AcDbEntity
  8
M0
 62
     6
100
AcDbLine
 10
362.211547
 20
200.994402
 11
362.211547
 21
231.592147
  0
LINE
  5
13B
100
AcDbEntity
  8
M0
 62
     6
100
AcDbLine
 10
378.211547
 20
200.994402
 11
378.211547
 21
223.592147
  0
LINE
  5
13C
100
AcDbEntity
  8
M0
100
AcDbLine
 10
352.611547
 20
183.592147
 11
352.611547
 21
171.222576
  0
LINE
  5
13D
100
AcDbEntity
  8
M0
100
AcDbLine
 10
351.867035
 20
191.03727
 11
352.611547
 21
183.592147
  0
LINE
  5
13E
100
AcDbEntity
  8
M0
100
AcDbLine
 10
343.951546
 20
202.072148
 11
351.47696
 21
192.038262
  0
ARC
  5
13F
100
AcDbEntity
  8
M0
100
AcDbCircle
 10
349.87696
 20
190.838262
 40
2.0
100
AcDbArc
 50
5.710593
 51
36.869898
  0
ARC
  5
140
100
AcDbEntity
  8
M0
100
AcDbCircle
 10
342.511546
 20
200.992148
 40
1.8
100
AcDbArc
 50
36.869898
 51
90.0
  0
LINE
  5
141
100
AcDbEntity
  8
M0
100
AcDbLine
 10
331.811547
 20
199.450011
 11
331.811547
 21
182.468985
  0
ARC
  5
142
100
AcDbEntity
  8
M0
100
AcDbCircle
 10
329.811547
 20
199.450011
 40
2.0
100
AcDbArc
 50
0.0
 51
8.130102
  0
LINE
  5
143
100
AcDbEntity
  8
M0
100
AcDbLine
 10
330.203753
 20
210.846706
 11
331.791446
 21
199.732854
  0
ARC
  5
144
100
AcDbEntity
  8
M0
100
AcDbCircle
 10
328.421844
 20
210.592148
 40
1.8
100
AcDbArc
 50
8.130102
 51
90.0
  0
LINE
  5
145
100
AcDbEntity
  8
M46
  6
DASHED
100
AcDbLine
 10
49.783576
 20
223.536636
 11
103.306682
 21
223.536636
  0
LINE
  5
146
100
AcDbEntity
  8
M46
100
AcDbLine
 10
103.788231
 20
223.496092
 11
112.469709
 21
222.023784
  0
LINE
  5
147
100
AcDbEntity
  8
M46
100
AcDbLine
 10
113.43431
 20
221.67492
 11
137.458811
 21
207.72521
  0
LINE
  5
148
100
AcDbEntity
  8
M46
100
AcDbLine
 10
138.049128
 20
207.271085
 11
141.740045
 21
203.580168
  0
LINE
  5
149
100
AcDbEntity
  8
M46
100
AcDbLine
 10
142.583578
 20
201.5437
 11
142.583578
 21
198.764766
  0
LINE
  5
14A
100
AcDbEntity
  8
M46
100
AcDbLine
 10
142.860346
 20
197.532863
 11
144.183578
 21
194.736635
  0
ARC
  5
14B
100
AcDbEntity
  8
M46
100
AcDbCircle
 10
139.703578
 20
201.5437
 40
2.88
100
AcDbArc
 50
0.0
 51
45.0
  0
ARC
  5
14C
100
AcDbEntity
  8
M46
100
AcDbCircle
 10
145.463578
 20
198.764766
 40
2.88
100
AcDbArc
 50
180.0
 51
205.324465
  0
ARC
  5
14D
100
AcDbEntity
  8
M46
100
AcDbCircle
 10
136.01266
 20
205.234618
 40
2.88
100
AcDbArc
 50
45.0
 51
59.858614
  0
ARC
  5
14E
100
AcDbEntity
  8
M46
100
AcDbCircle
 10
111.98816
 20
219.184328
 40
2.88
100
AcDbArc
 50
59.858614
 51
80.374683
  0
ARC
  5
14F
100
AcDbEntity
  8
M46
100
AcDbCircle
 10
103.306682
 20
220.656636
 40
2.88
100
AcDbArc
 50
80.374683
 51
90.0
  0
LINE
  5
150
100
AcDbEntity
  8
M46
100
AcDbLine
 10
113.437419
 20
95.973122
 11
105.307332
 21
111.021365
  0
LINE
  5
151
100
AcDbEntity
  8
M46
100
AcDbLine
 10
113.783576
 20
94.604167
 11
113.783576
 21
82.770766
  0
LINE
  5
152
100
AcDbEntity
  8
M46
100
AcDbLine
 10
113.822762
 20
82.297296
 11
114.583577
 21
77.732409
  0
ARC
  5
153
100
AcDbEntity
  8
M46
100
AcDbCircle
 10
110.903576
 20
94.604167
 40
2.88
100
AcDbArc
 50
0.0
 51
28.380945
  0
ARC
  5
154
100
AcDbEntity
  8
M46
100
AcDbCircle
 10
116.663576
 20
82.770766
 40
2.88
100
AcDbArc
 50
180.0
 51
189.462333
  0
ARC
  5
155
100
AcDbEntity
  8
M46
100
AcDbCircle
 10
102.773488
 20
109.65241
 40
2.88
100
AcDbArc
 50
28.380945
 51
90.0
  0
LINE
  5
156
100
AcDbEntity
  8
M46
100
AcDbLine
 10
235.163295
 20
241.78636
 11
235.42905
 21
241.491937
  0
LINE
  5
157
100
AcDbEntity
  8
M46
100
AcDbLine
 10
235.938299
 20
240.696701
 11
240.316894
 21
230.479981
  0
LINE
  5
158
100
AcDbEntity
  8
M46
100
AcDbLine
 10
240.549756
 20
229.936634
 11
240.549756
 21
213.936636
  0
LINE
  5
159
100
AcDbEntity
  8
M46
100
AcDbLine
 10
235.938299
 20
240.696701
 11
240.549755
 21
229.936635
  0
ARC
  5
15A
100
AcDbEntity
  8
M46
100
AcDbCircle
 10
233.291162
 20
239.562214
 40
2.88
100
AcDbArc
 50
23.198587
 51
42.070387
  0
LINE
  5
15B
100
AcDbEntity
  8
M46
  6
DASHED
100
AcDbLine
 10
198.949755
 20
242.736636
 11
233.025407
 21
242.736636
  0
ARC
  5
15C
100
AcDbEntity
  8
M46
100
AcDbCircle
 10
233.025407
 20
239.856636
 40
2.88
100
AcDbArc
 50
42.070387
 51
90.0
  0
LINE
  5
15D
100
AcDbEntity
  8
M46
  6
DASHED
100
AcDbLine
 10
49.783576
 20
112.53241
 11
102.773488
 21
112.53241
  0
LINE
  5
15E
100
AcDbEntity
  8
M46
  6
DASHED
100
AcDbLine
 10
198.949755
 20
141.33241
 11
214.59611
 21
141.33241
  0
LINE
  5
15F
100
AcDbEntity
  8
M46
  6
DASHED
100
AcDbLine
 10
198.949755
 20
131.73241
 11
222.337882
 21
131.73241
  0
LINE
  5
160
100
AcDbEntity
  8
M46
  6
DASHED
100
AcDbLine
 10
314.211547
 20
212.392148
 11
328.421844
 21
212.392148
  0
LINE
  5
161
100
AcDbEntity
  8
M46
  6
DASHED
100
AcDbLine
 10
314.211547
 20
202.792148
 11
342.511546
 21
202.792148
  0
ENDSEC
  0
SECTION
  2
OBJECTS
  0
DICTIONARY
  5
C
100
AcDbDictionary
  3
ACAD_GROUP
350
D
  3
ACAD_MLINESTYLE
350
E
  0
DICTIONARY
  5
D
102
{ACAD_REACTORS
330
C
102
}
100
AcDbDictionary
  0
DICTIONARY
  5
E
102
{ACAD_REACTORS
330
C
102
}
100
AcDbDictionary
  3
STANDARD
350
13
  0
MLINESTYLE
  5
13
102
{ACAD_REACTORS
330
E
102
}
100
AcDbMlineStyle
  2
STANDARD
 70
     0
  3

 62
     0
 51
90.0
 52
90.0
 71
     2
 49
0.5
 62
   256
  6
BYLAYER
 49
-0.5
 62
   256
  6
BYLAYER
  0
ENDSEC
  0
EOF
