  0
SECTION
  2
HEADER
  9
$ACADVER
  1
AC1012
  9
$INSBASE
 10
0.000000
 20
0.000000
 30
0.0
  9
$VIEWCTR
 10
7.531722
 20
4.5
  9
$VIEWSIZE
 40
9.0
  9
$SNAPMODE
 70
     0
  9
$SNAPUNIT
 10
1.0
 20
1.0
  9
$SNAPBASE
 10
0.0
 20
0.0
  9
$SNAPANG
 50
0.0
  9
$SNAPSTYLE
 70
     0
  9
$SNAPISOPAIR
 70
     0
  9
$GRIDMODE
 70
     0
  9
$GRIDUNIT
 10
0.0
 20
0.0
  9
$ORTHOMODE
 70
     0
  9
$REGENMODE
 70
     1
  9
$FILLMODE
 70
     1
  9
$QTEXTMODE
 70
     0
  9
$DRAGMODE
 70
     2
  9
$LTSCALE
  40
     1.000000
  9
$OSMODE
 70
     0
  9
$ATTMODE
 70
     1
  9
$TEXTSIZE
 40
0.2
  9
$TRACEWID
 40
0.05
  9
$TEXTSTYLE
  7
STANDARD
  9
$CELTYPE
  6
BYLAYER
  9
$CECOLOR
 62
   256
  9
$DIMSCALE
 40
1.0
  9
$DIMASZ
 40
0.18
  9
$DIMEXO
 40
0.0625
  9
$DIMDLI
 40
0.38
  9
$DIMRND
 40
0.0
  9
$DIMDLE
 40
0.0
  9
$DIMEXE
 40
0.18
  9
$DIMTP
 40
0.0
  9
$DIMTM
 40
0.0
  9
$DIMTXT
 40
0.18
  9
$DIMCEN
 40
0.09
  9
$DIMTSZ
 40
0.0
  9
$DIMTOL
 70
     0
  9
$DIMLIM
 70
     0
  9
$DIMTIH
 70
     1
  9
$DIMTOH
 70
     1
  9
$DIMSE1
 70
     0
  9
$DIMSE2
 70
     0
  9
$DIMTAD
 70
     0
  9
$DIMZIN
 70
     0
  9
$DIMBLK
  1

  9
$LUNITS
 70
     2
  9
$LUPREC
 70
     4
  9
$AXISMODE
 70
     0
  9
$AXISUNIT
 10
0.0
 20
0.0
  9
$SKETCHINC
 40
0.1
  9
$FILLETRAD
 40
0.0
  9
$AUNITS
 70
     0
  9
$AUPREC
 70
     0
  9
$MENU
  1
ACAD
  9
$ELEVATION
 40
0.0
  9
$THICKNESS
 40
0.0
  9
$VIEWDIR
 10
0.0
 20
0.0
 30
1.0
  9
$LIMCHECK
 70
     0
  9
$BLIPMODE
 70
     1
  9
$CHAMFERA
 40
0.0
  9
$CHAMFERB
 40
0.0
  9
$FASTZOOM
 70
     1
  9
$SKPOLY
 70
     0
  9
$TDCREATE
 40
0000000.0000000000
  9
$TDUPDATE
 40
0000000.0000000000
  9
$TDINDWG
 40
0.0000000000
  9
$TDUSRTIMER
 40
0.0000000000
  9
$USRTIMER
 70
     1
  9
$ANGBASE
 50
0.0
  9
$ANGDIR
 70
     0
  9
$PDMODE
 70
     0
  9
$PDSIZE
 40
0.0
  9
$PLINEWID
 40
0.0
  9
$COORDS
 70
     0
  9
$USERI1
 70
     0
  9
$USERI2
 70
     0
  9
$USERI3
 70
     0
  9
$USERI4
 70
     0
  9
$USERI5
 70
     0
  9
$USERR1
 40
0.0
  9
$USERR2
 40
0.0
  9
$USERR3
 40
0.0
  9
$USERR4
 40
0.0
  9
$USERR5
 40
0.0
  9
$CLAYER
  8
M0
  9
$EXTMIN
 10
0.0
 20
0.0
  9
$EXTMAX
 10
420.0
 20
297.0
  9
$LIMMIN
 10
0.0
 20
0.0
  9
$LIMMAX
 10
420.0
 20
297.0
  9
$HANDSEED
  5
140
  0
ENDSEC
  0
SECTION
  2
CLASSES
  0
ENDSEC
  0
SECTION
  2
TABLES
  0
TABLE
  2
VPORT
  5
8
100
AcDbSymbolTable
 70
     2
  0
VPORT
  5
14
100
AcDbSymbolTableRecord
100
AcDbViewportTableRecord
  2
*ACTIVE
 70
     0
 10
0.0
 20
0.0
 11
1.0
 21
1.0
 12
484.0
 22
297.0
 13
0.0
 23
0.0
 14
1.0
 24
1.0
 15
0.0
 25
0.0
 16
0.0
 26
0.0
 36
1.0
 17
0.0
 27
0.0
 37
0.0
 40
594.0
 41
2.0
 42
50.0
 43
0.0
 44
0.0
 50
0.0
 51
0.0
 71
     0
 72
   100
 73
     1
 74
     1
 75
     0
 76
     0
 77
     0
 78
     0
  0
ENDTAB
  0
TABLE
  2
LTYPE
  5
5
100
AcDbSymbolTable
 70
     5
  0
LTYPE
  5
15
100
AcDbSymbolTableRecord
100
AcDbLinetypeTableRecord
  2
BYBLOCK
 70
     0
  3

 72
    65
 73
     0
 40
0.0
  0
LTYPE
  5
16
100
AcDbSymbolTableRecord
100
AcDbLinetypeTableRecord
  2
BYLAYER
 70
     0
  3

 72
    65
 73
     0
 40
0.0
  0
LTYPE
  5
17
100
AcDbSymbolTableRecord
100
AcDbLinetypeTableRecord
  2
CONTINUOUS
 70
    64
  3
Solid line
 72
    65
 73
     0
 40
0.0
  0
LTYPE
  5
18
100
AcDbSymbolTableRecord
100
AcDbLinetypeTableRecord
  2
DASHED
 70
    64
  3
__ __ __ __ __ __ __ __ __ __ __ __ __ __ __ __
 72
    65
 73
     2
 40
0.75
 49
0.5
 74
     0
 49
-0.25
 74
     0
  0
LTYPE
  5
19
100
AcDbSymbolTableRecord
100
AcDbLinetypeTableRecord
  2
DASHDOT
 70
    64
  3
__ . __ . __ . __ . __ . __ . __ . __ . __ . __
 72
    65
 73
     4
 40
1.0
 49
0.5
 74
     0
 49
-0.25
 74
     0
 49
0.0
 74
     0
 49
-0.25
 74
     0
  0
LTYPE
  5
1A
100
AcDbSymbolTableRecord
100
AcDbLinetypeTableRecord
  2
DIVIDE
 70
    64
  3
____ . . ____ . . ____ . . ____ . . ____ . . __
 72
    65
 73
     6
 40
1.25
 49
0.5
 74
     0
 49
-0.25
 74
     0
 49
0.0
 74
     0
 49
-0.25
 74
     0
 49
0.0
 74
     0
 49
-0.25
 74
     0
  0
LTYPE
  5
1B
100
AcDbSymbolTableRecord
100
AcDbLinetypeTableRecord
  2
DOT
 70
    64
  3
. . . . . . . . . . . . . . . . . . . . . . . .
 72
    65
 73
     2
 40
0.25
 49
0.0
 74
     0
 49
-0.25
 74
     0
  0
ENDTAB
  0
TABLE
  2
LAYER
  5
2
100
AcDbSymbolTable
 70
   102
  0
LAYER
  5
F
100
AcDbSymbolTableRecord
100
AcDbLayerTableRecord
  2
0
 70
     0
 62
     7
  6
CONTINUOUS
  0
LAYER
  5
1C
100
AcDbSymbolTableRecord
100
AcDbLayerTableRecord
  2
DEFPOINTS
 70
     0
 62
     7
  6
CONTINUOUS
  0
LAYER
  5
1D
100
AcDbSymbolTableRecord
100
AcDbLayerTableRecord
  2
M0
 70
     0
 62
     3
  6
CONTINUOUS
  0
LAYER
  5
1E
100
AcDbSymbolTableRecord
100
AcDbLayerTableRecord
  2
DD0
 70
     0
 62
     4
  6
CONTINUOUS
  0
ENDTAB
  0
TABLE
  2
STYLE
  5
3
100
AcDbSymbolTable
 70
     2
  0
STYLE
  5
10
100
AcDbSymbolTableRecord
100
AcDbTextStyleTableRecord
  2
STANDARD
 70
     0
 40
0.0
 41
1.0
 50
0.0
 71
     0
 42
0.2
  3
txt
  4
BIGFONT
  0
ENDTAB
  0
TABLE
  2
VIEW
  5
6
100
AcDbSymbolTable
 70
     0
  0
ENDTAB
  0
TABLE
  2
UCS
  5
7
100
AcDbSymbolTable
 70
     0
  0
ENDTAB
  0
TABLE
  2
APPID
  5
9
100
AcDbSymbolTable
 70
     1
  0
APPID
  5
11
100
AcDbSymbolTableRecord
100
AcDbRegAppTableRecord
  2
ACAD
 70
     0
  0
ENDTAB
  0
TABLE
  2
DIMSTYLE
  5
A
100
AcDbSymbolTable
 70
     2
  0
DIMSTYLE
105
25
100
AcDbSymbolTableRecord
100
AcDbDimStyleTableRecord
  2
STANDARD
 70
     0
  3

  4

  5

  6
_OPEN
  7
_OPEN
 40
1.0
 41
3.0
 42
0.0
 43
8.0
 44
1.5
 45
0.0
 46
0.0
 47
0.0
 48
0.0
140
3.5
141
0.09
142
0.0
143
0.03937
144
1.0
145
0.0
146
1.0
147
1.0
 71
     0
 72
     0
 73
     1
 74
     1
 75
     0
 76
     0
 77
     3
 78
     8
170
     0
171
     2
172
     0
173
     1
174
     0
175
     0
176
     0
177
     0
178
     0
270
     2
271
     2
272
     4
273
     2
274
     2
340
10
275
     0
280
     0
281
     0
282
     0
283
     1
284
     0
285
     0
286
     0
287
     3
288
     0
  0
DIMSTYLE
105
26
100
AcDbSymbolTableRecord
100
AcDbDimStyleTableRecord
  2
LEADSTYL
 70
     0
  3

  4

  5

  6
_OPEN
  7
_OPEN
 40
1.0
 41
3.0
 42
0.0625
 43
0.38
 44
0.18
 45
0.0
 46
0.0
 47
0.0
 48
0.0
140
3.2
141
0.09
142
0.0
143
25.4
144
1.0
145
0.0
146
1.0
147
1.0
 71
     0
 72
     0
 73
     1
 74
     1
 75
     0
 76
     0
 77
     0
 78
     0
170
     0
171
     2
172
     0
173
     1
174
     0
175
     0
176
     0
177
     0
178
     0
270
     2
271
     4
272
     4
273
     2
274
     2
340
10
275
     0
280
     0
281
     0
282
     0
283
     1
284
     0
285
     0
286
     0
287
     3
288
     0
  0
ENDTAB
  0
TABLE
  2
BLOCK_RECORD
  5
1
100
AcDbSymbolTable
 70
     6
  0
BLOCK_RECORD
  5
1F
100
AcDbSymbolTableRecord
100
AcDbBlockTableRecord
  2
*MODEL_SPACE
  0
BLOCK_RECORD
  5
22
100
AcDbSymbolTableRecord
100
AcDbBlockTableRecord
  2
*PAPER_SPACE
  0
BLOCK_RECORD
  5
27
100
AcDbSymbolTableRecord
100
AcDbBlockTableRecord
  2
_NONE
  0
BLOCK_RECORD
  5
2B
100
AcDbSymbolTableRecord
100
AcDbBlockTableRecord
  2
_OPEN
  0
BLOCK_RECORD
  5
31
100
AcDbSymbolTableRecord
100
AcDbBlockTableRecord
  2
_CLOSED
  0
BLOCK_RECORD
  5
38
100
AcDbSymbolTableRecord
100
AcDbBlockTableRecord
  2
_ORIGIN
  0
BLOCK_RECORD
  5
3D
100
AcDbSymbolTableRecord
100
AcDbBlockTableRecord
  2
_DOT
  0
BLOCK_RECORD
  5
45
100
AcDbSymbolTableRecord
100
AcDbBlockTableRecord
  2
_OBLIQUE
  0
ENDTAB
  0
ENDSEC
  0
SECTION
  2
BLOCKS
  0
BLOCK
  5
20
100
AcDbEntity
  8
0
100
AcDbBlockBegin
  2
*MODEL_SPACE
 70
     0
 10
0.0
 20
0.0
 30
0.0
  3
*MODEL_SPACE
  1

  0
ENDBLK
  5
21
100
AcDbEntity
  8
0
100
AcDbBlockEnd
  0
BLOCK
  5
23
100
AcDbEntity
 67
     1
  8
0
100
AcDbBlockBegin
  2
*PAPER_SPACE
 70
     0
 10
0.0
 20
0.0
 30
0.0
  3
*PAPER_SPACE
  1

  0
ENDBLK
  5
24
100
AcDbEntity
 67
     1
  8
0
100
AcDbBlockEnd
  0
BLOCK
  5
28
100
AcDbEntity
  8
0
100
AcDbBlockBegin
  2
_NONE
 70
     0
 10
0.0
 20
0.0
  0
CIRCLE
  5
29
100
AcDbEntity
  8
0
 62
     0
100
AcDbCircle
 10
0.0
 20
0.0
 40
0.25
  0
ENDBLK
  5
2A
100
AcDbEntity
  8
0
100
AcDbBlockEnd
  0
BLOCK
  5
2C
100
AcDbEntity
  8
0
100
AcDbBlockBegin
  2
_OPEN
 70
     0
 10
0.0
 20
0.0
  0
LINE
  5
2D
100
AcDbEntity
  8
0
 62
     0
100
AcDbLine
 10
-0.965926
 20
0.258819
 11
0.0
 21
0.0
  0
LINE
  5
2E
100
AcDbEntity
  8
0
 62
     0
100
AcDbLine
 10
0.0
 20
0.0
 11
-0.965926
 21
-0.258819
  0
LINE
  5
2F
100
AcDbEntity
  8
0
 62
     0
100
AcDbLine
 10
0.0
 20
0.0
 11
-1.0
 21
0.0
  0
ENDBLK
  5
30
100
AcDbEntity
  8
0
100
AcDbBlockEnd
  0
BLOCK
  5
32
100
AcDbEntity
  8
0
100
AcDbBlockBegin
  2
_CLOSED
 70
     0
 10
0.0
 20
0.0
  0
LINE
  5
33
100
AcDbEntity
  8
0
 62
     0
100
AcDbLine
 10
-0.965926
 20
0.258819
 11
0.0
 21
0.0
  0
LINE
  5
34
100
AcDbEntity
  8
0
 62
     0
100
AcDbLine
 10
0.0
 20
0.0
 11
-0.965926
 21
-0.258819
  0
LINE
  5
35
100
AcDbEntity
  8
0
 62
     0
100
AcDbLine
 10
-0.965926
 20
0.258819
 11
-0.965926
 21
-0.258819
  0
LINE
  5
36
100
AcDbEntity
  8
0
 62
     0
100
AcDbLine
 10
0.0
 20
0.0
 11
-1.0
 21
0.0
  0
ENDBLK
  5
37
100
AcDbEntity
  8
0
100
AcDbBlockEnd
  0
BLOCK
  5
39
100
AcDbEntity
  8
0
100
AcDbBlockBegin
  2
_ORIGIN
 70
     0
 10
0.0
 20
0.0
  0
CIRCLE
  5
3A
100
AcDbEntity
  8
0
 62
     0
100
AcDbCircle
 10
0.0
 20
0.0
 40
0.5
  0
LINE
  5
3B
100
AcDbEntity
  8
0
 62
     0
100
AcDbLine
 10
0.0
 20
0.0
 11
-1.0
 21
0.0
  0
ENDBLK
  5
3C
100
AcDbEntity
  8
0
100
AcDbBlockEnd
  0
BLOCK
  5
3E
100
AcDbEntity
  8
0
100
AcDbBlockBegin
  2
_DOT
 70
     0
 10
0.0
 20
0.0
  0
POLYLINE
  5
3F
100
AcDbEntity
  8
0
 62
     0
100
AcDb2dPolyline
 66
     1
 70
     1
 40
0.5
 41
0.5
  0
VERTEX
  5
40
100
AcDbEntity
  8
0
 62
     0
100
AcDbVertex
100
AcDb2dVertex
 10
-0.25
 20
0.0
 42
1.0
  0
VERTEX
  5
41
100
AcDbEntity
  8
0
 62
     0
100
AcDbVertex
100
AcDb2dVertex
 10
0.25
 20
0.0
 42
1.0
  0
SEQEND
  5
42
100
AcDbEntity
  8
0
 62
     0
  0
LINE
  5
43
100
AcDbEntity
  8
0
 62
     0
100
AcDbLine
 10
-0.5
 20
0.0
 11
-1.0
 21
0.0
  0
ENDBLK
  5
44
100
AcDbEntity
  8
0
100
AcDbBlockEnd
  0
BLOCK
  5
46
100
AcDbEntity
  8
0
100
AcDbBlockBegin
  2
_OBLIQUE
 70
     0
 10
0.0
 20
0.0
  0
LINE
  5
47
100
AcDbEntity
  8
0
 62
     0
100
AcDbLine
 10
-0.353553
 20
-0.353553
 11
0.353553
 21
0.353553
  0
ENDBLK
  5
48
100
AcDbEntity
  8
0
100
AcDbBlockEnd
  0
ENDSEC
  0
SECTION
  2
ENTITIES
  0
LEADER
  5
49
100
AcDbEntity
  8
DD0
100
AcDbLeader
  3
LEADSTYL
 76
     3
 10
50.591808
 20
130.508026
 10
55.531857
 20
147.308014
 10
110.031853
 20
147.308014
340
4A
 77
     4
  0
TEXT
  5
4A
100
AcDbEntity
  8
DD0
100
AcDbText
 10
56.823523
 20
148.308014
 40
3.5
  1
「標準」ＯＦＦ圧　２４０ｋＰａ
 41
0.833333
  7
STANDARD
100
AcDbText
  0
LEADER
  5
4B
100
AcDbEntity
  8
DD0
100
AcDbLeader
  3
LEADSTYL
 76
     3
 10
172.291672
 20
232.696121
 10
186.967087
 20
252.296127
 10
241.467087
 20
252.296127
340
4C
 77
     4
  0
TEXT
  5
4C
100
AcDbEntity
  8
DD0
100
AcDbText
 10
188.258753
 20
253.296127
 40
3.5
  1
「標準」ＯＦＦ圧　２４０ｋＰａ
 41
0.833333
  7
STANDARD
100
AcDbText
  0
LEADER
  5
4D
100
AcDbEntity
  8
DD0
100
AcDbLeader
  3
LEADSTYL
 76
     3
 10
162.731857
 20
246.696121
 10
179.53186
 20
259.296112
 10
230.53186
 20
259.296112
340
4E
 77
     4
  0
TEXT
  5
4E
100
AcDbEntity
  8
DD0
100
AcDbText
 10
180.823527
 20
260.296112
 40
3.5
  1
「高」ＯＦＦ圧　３４０ｋＰａ
 41
0.833333
  7
STANDARD
100
AcDbText
  0
LEADER
  5
4F
100
AcDbEntity
  8
DD0
100
AcDbLeader
  3
LEADSTYL
 76
     3
 10
62.292885
 20
225.696121
 10
72.881119
 20
245.296127
 10
127.381119
 20
245.296127
340
50
 77
     4
  0
TEXT
  5
50
100
AcDbEntity
  8
DD0
100
AcDbText
 10
74.172785
 20
246.296127
 40
3.5
  1
「標準」ＯＦＦ圧　２４０ｋＰａ
 41
0.833333
  7
STANDARD
100
AcDbText
  0
LEADER
  5
51
100
AcDbEntity
  8
DD0
100
AcDbLeader
  3
LEADSTYL
 76
     3
 10
155.336044
 20
145.90802
 10
168.298584
 20
147.308014
 10
222.798584
 20
147.308014
340
52
 77
     4
  0
TEXT
  5
52
100
AcDbEntity
  8
DD0
100
AcDbText
 10
169.590251
 20
148.308014
 40
3.5
  1
「標準」ＯＦＦ圧　２４０ｋＰａ
 41
0.833333
  7
STANDARD
100
AcDbText
  0
LEADER
  5
53
100
AcDbEntity
  8
DD0
100
AcDbLeader
  3
LEADSTYL
 76
     3
 10
269.134155
 20
130.508026
 10
275.53186
 20
147.308029
 10
330.03186
 20
147.308029
340
54
 77
     4
  0
TEXT
  5
54
100
AcDbEntity
  8
DD0
100
AcDbText
 10
276.823527
 20
148.308029
 40
3.5
  1
「標準」ＯＦＦ圧　２４０ｋＰａ
 41
0.833333
  7
STANDARD
100
AcDbText
  0
LEADER
  5
55
100
AcDbEntity
  8
DD0
100
AcDbLeader
  3
LEADSTYL
 76
     3
 10
47.995319
 20
239.696121
 10
55.27877
 20
252.296127
 10
106.27877
 20
252.296127
340
56
 77
     4
  0
TEXT
  5
56
100
AcDbEntity
  8
DD0
100
AcDbText
 10
56.570437
 20
253.296127
 40
3.5
  1
「高」ＯＦＦ圧　３４０ｋＰａ
 41
0.833333
  7
STANDARD
100
AcDbText
  0
LEADER
  5
57
100
AcDbEntity
  8
DD0
100
AcDbLeader
  3
LEADSTYL
 76
     3
 10
73.422432
 20
220.09613
 10
84.34404
 20
236.954132
 10
135.34404
 20
236.954132
340
58
 77
     4
  0
TEXT
  5
58
100
AcDbEntity
  8
DD0
100
AcDbText
 10
85.635707
 20
237.954132
 40
3.5
  1
「低」ＯＦＦ圧　２００ｋＰａ
 41
0.833333
  7
STANDARD
100
AcDbText
  0
LEADER
  5
59
100
AcDbEntity
  8
DD0
100
AcDbLeader
  3
LEADSTYL
 76
     3
 10
191.867691
 20
227.09613
 10
199.451569
 20
243.536728
 10
250.451569
 20
243.536728
340
5A
 77
     4
  0
TEXT
  5
5A
100
AcDbEntity
  8
DD0
100
AcDbText
 10
200.743235
 20
244.536728
 40
3.5
  1
「低」ＯＦＦ圧　２００ｋＰａ
 41
0.833333
  7
STANDARD
100
AcDbText
  0
LEADER
  5
5B
100
AcDbEntity
  8
DD0
100
AcDbLeader
  3
LEADSTYL
 76
     3
 10
53.679855
 20
124.90802
 10
67.24115
 20
136.041443
 10
118.24115
 20
136.041443
340
5C
 77
     4
  0
TEXT
  5
5C
100
AcDbEntity
  8
DD0
100
AcDbText
 10
68.532817
 20
137.041443
 40
3.5
  1
「低」ＯＦＦ圧　２００ｋＰａ
 41
0.833333
  7
STANDARD
100
AcDbText
  0
LEADER
  5
5D
100
AcDbEntity
  8
DD0
100
AcDbLeader
  3
LEADSTYL
 76
     3
 10
158.245132
 20
140.308014
 10
173.57193
 20
137.772598
 10
224.57193
 20
137.772598
340
5E
 77
     4
  0
TEXT
  5
5E
100
AcDbEntity
  8
DD0
100
AcDbText
 10
174.863597
 20
138.772598
 40
3.5
  1
「低」ＯＦＦ圧　２００ｋＰａ
 41
0.833333
  7
STANDARD
100
AcDbText
  0
LEADER
  5
5F
100
AcDbEntity
  8
DD0
100
AcDbLeader
  3
LEADSTYL
 76
     3
 10
272.517639
 20
124.90802
 10
280.490356
 20
138.654907
 10
331.490356
 20
138.654907
340
60
 77
     4
  0
TEXT
  5
60
100
AcDbEntity
  8
DD0
100
AcDbText
 10
281.782023
 20
139.654907
 40
3.5
  1
「低」ＯＦＦ圧　２００ｋＰａ
 41
0.833333
  7
STANDARD
100
AcDbText
  0
LINE
  5
61
100
AcDbEntity
  8
M0
 62
   234
100
AcDbLine
 10
151.531855
 20
119.308021
 11
226.187427
 21
119.308021
  0
LINE
  5
62
100
AcDbEntity
  8
M0
 62
   234
100
AcDbLine
 10
151.531855
 20
105.308021
 11
226.187427
 21
105.308021
  0
LINE
  5
63
100
AcDbEntity
  8
M0
 62
   234
100
AcDbLine
 10
226.187427
 20
63.308021
 11
151.531855
 21
63.308021
  0
LINE
  5
64
100
AcDbEntity
  8
M0
 62
   234
100
AcDbLine
 10
151.531855
 20
77.308021
 11
226.187427
 21
77.308021
  0
LINE
  5
65
100
AcDbEntity
  8
M0
 62
   234
100
AcDbLine
 10
151.531855
 20
91.308021
 11
193.531855
 21
91.308021
  0
LINE
  5
66
100
AcDbEntity
  8
M0
 62
   234
100
AcDbLine
 10
165.531855
 20
134.708021
 11
165.531855
 21
63.308021
  0
LINE
  5
67
100
AcDbEntity
  8
M0
 62
   234
100
AcDbLine
 10
151.531855
 20
150.108021
 11
151.531855
 21
63.308021
  0
LINE
  5
68
100
AcDbEntity
  8
M0
 62
   234
100
AcDbLine
 10
151.531855
 20
91.308021
 11
226.187427
 21
91.308021
  0
LINE
  5
69
100
AcDbEntity
  8
M0
 62
   234
100
AcDbLine
 10
151.531855
 20
133.308021
 11
226.187427
 21
133.308021
  0
LINE
  5
6A
100
AcDbEntity
  8
M0
 62
   234
100
AcDbLine
 10
151.531855
 20
147.308021
 11
163.878414
 21
147.308021
  0
LINE
  5
6B
100
AcDbEntity
  8
M0
 62
   234
100
AcDbLine
 10
207.531855
 20
134.708021
 11
207.531855
 21
63.308021
  0
LINE
  5
6C
100
AcDbEntity
  8
M0
 62
   234
100
AcDbLine
 10
193.531855
 20
134.708021
 11
193.531855
 21
63.308021
  0
LINE
  5
6D
100
AcDbEntity
  8
M0
 62
   234
100
AcDbLine
 10
179.531855
 20
134.708021
 11
179.531855
 21
63.308021
  0
LINE
  5
6E
100
AcDbEntity
  8
M0
 62
   234
100
AcDbLine
 10
221.531855
 20
134.708021
 11
221.531855
 21
63.308021
  0
TEXT
  5
6F
100
AcDbEntity
  8
M0
100
AcDbText
 10
40.372448
 20
177.623046
 40
3.6
  1
０
 41
0.601852
  7
STANDARD
100
AcDbText
  0
TEXT
  5
70
100
AcDbEntity
  8
M0
100
AcDbText
 10
53.390032
 20
177.623046
 40
3.6
  1
１０
 41
0.601852
  7
STANDARD
100
AcDbText
  0
TEXT
  5
71
100
AcDbEntity
  8
M0
100
AcDbText
 10
67.390038
 20
177.623046
 40
3.6
  1
２０
 41
0.601852
  7
STANDARD
100
AcDbText
  0
TEXT
  5
72
100
AcDbEntity
  8
M0
100
AcDbText
 10
81.390032
 20
177.623046
 40
3.6
  1
３０
 41
0.601852
  7
STANDARD
100
AcDbText
  0
TEXT
  5
73
100
AcDbEntity
  8
M0
100
AcDbText
 10
95.390032
 20
177.623046
 40
3.6
  1
４０
 41
0.601852
  7
STANDARD
100
AcDbText
  0
TEXT
  5
74
100
AcDbEntity
  8
M0
100
AcDbText
 10
109.390032
 20
177.623046
 40
3.6
  1
５０
 41
0.601852
  7
STANDARD
100
AcDbText
  0
TEXT
  5
75
100
AcDbEntity
  8
M0
100
AcDbText
 10
219.390032
 20
58.634936
 40
3.6
  1
５０
 41
0.601852
  7
STANDARD
100
AcDbText
  0
TEXT
  5
76
100
AcDbEntity
  8
M0
100
AcDbText
 10
143.319319
 20
203.087589
 40
3.6
  1
（　）
 50
90.000003
 41
0.63786
  7
STANDARD
100
AcDbText
  0
TEXT
  5
77
100
AcDbEntity
  8
M0
100
AcDbText
 10
140.050899
 20
220.696126
 40
3.6
  1
全
 41
0.833333
  7
STANDARD
100
AcDbText
  0
TEXT
  5
78
100
AcDbEntity
  8
M0
100
AcDbText
 10
140.050899
 20
216.94057
 40
3.6
  1
揚
 41
0.833333
  7
STANDARD
100
AcDbText
  0
TEXT
  5
79
100
AcDbEntity
  8
M0
100
AcDbText
 10
140.050899
 20
213.185015
 40
3.6
  1
程
 41
0.833333
  7
STANDARD
100
AcDbText
  0
TEXT
  5
7A
100
AcDbEntity
  8
M0
100
AcDbText
 10
140.050899
 20
209.429459
 40
3.6
  1
　
 41
0.833333
  7
STANDARD
100
AcDbText
  0
TEXT
  5
7B
100
AcDbEntity
  8
M0
100
AcDbText
 10
140.050899
 20
205.673904
 40
3.6
  1
ｍ
 41
0.833333
  7
STANDARD
100
AcDbText
  0
TEXT
  5
7C
100
AcDbEntity
  8
M0
100
AcDbText
 10
148.256579
 20
180.223046
 40
3.6
  1
０
 41
0.601852
  7
STANDARD
100
AcDbText
  0
TEXT
  5
7D
100
AcDbEntity
  8
M0
100
AcDbText
 10
145.907836
 20
194.587103
 40
3.6
  1
１０
 41
0.601852
  7
STANDARD
100
AcDbText
  0
TEXT
  5
7E
100
AcDbEntity
  8
M0
100
AcDbText
 10
145.907836
 20
208.587109
 40
3.6
  1
２０
 41
0.601852
  7
STANDARD
100
AcDbText
  0
TEXT
  5
7F
100
AcDbEntity
  8
M0
100
AcDbText
 10
145.907836
 20
222.587109
 40
3.6
  1
３０
 41
0.601852
  7
STANDARD
100
AcDbText
  0
TEXT
  5
80
100
AcDbEntity
  8
M0
100
AcDbText
 10
145.806286
 20
236.499011
 40
3.6
  1
４０
 41
0.601852
  7
STANDARD
100
AcDbText
  0
TEXT
  5
81
100
AcDbEntity
  8
M0
100
AcDbText
 10
145.806286
 20
250.499011
 40
3.6
  1
５０
 41
0.601852
  7
STANDARD
100
AcDbText
  0
TEXT
  5
82
100
AcDbEntity
  8
M0
100
AcDbText
 10
179.683707
 20
173.122589
 40
3.6
  1
揚水量（Ｌ／分）
 41
0.63786
  7
STANDARD
100
AcDbText
  0
TEXT
  5
83
100
AcDbEntity
  8
M0
100
AcDbText
 10
150.372448
 20
177.623046
 40
3.6
  1
０
 41
0.601852
  7
STANDARD
100
AcDbText
  0
TEXT
  5
84
100
AcDbEntity
  8
M0
100
AcDbText
 10
163.390032
 20
177.623046
 40
3.6
  1
１０
 41
0.601852
  7
STANDARD
100
AcDbText
  0
TEXT
  5
85
100
AcDbEntity
  8
M0
100
AcDbText
 10
177.390038
 20
177.623046
 40
3.6
  1
２０
 41
0.601852
  7
STANDARD
100
AcDbText
  0
TEXT
  5
86
100
AcDbEntity
  8
M0
100
AcDbText
 10
191.390032
 20
177.623046
 40
3.6
  1
３０
 41
0.601852
  7
STANDARD
100
AcDbText
  0
TEXT
  5
87
100
AcDbEntity
  8
M0
100
AcDbText
 10
205.390032
 20
177.623046
 40
3.6
  1
４０
 41
0.601852
  7
STANDARD
100
AcDbText
  0
TEXT
  5
88
100
AcDbEntity
  8
M0
100
AcDbText
 10
219.390032
 20
177.623046
 40
3.6
  1
５０
 41
0.601852
  7
STANDARD
100
AcDbText
  0
TEXT
  5
89
100
AcDbEntity
  8
M0
100
AcDbText
 10
69.683707
 20
54.134484
 40
3.6
  1
揚水量（Ｌ／分）
 41
0.63786
  7
STANDARD
100
AcDbText
  0
TEXT
  5
8A
100
AcDbEntity
  8
M0
100
AcDbText
 10
40.372448
 20
58.634942
 40
3.6
  1
０
 41
0.601852
  7
STANDARD
100
AcDbText
  0
TEXT
  5
8B
100
AcDbEntity
  8
M0
100
AcDbText
 10
53.390035
 20
58.634942
 40
3.6
  1
１０
 41
0.601852
  7
STANDARD
100
AcDbText
  0
TEXT
  5
8C
100
AcDbEntity
  8
M0
100
AcDbText
 10
67.390038
 20
58.634942
 40
3.6
  1
２０
 41
0.601852
  7
STANDARD
100
AcDbText
  0
TEXT
  5
8D
100
AcDbEntity
  8
M0
100
AcDbText
 10
81.390035
 20
58.634942
 40
3.6
  1
３０
 41
0.601852
  7
STANDARD
100
AcDbText
  0
TEXT
  5
8E
100
AcDbEntity
  8
M0
100
AcDbText
 10
95.390032
 20
58.634942
 40
3.6
  1
４０
 41
0.601852
  7
STANDARD
100
AcDbText
  0
TEXT
  5
8F
100
AcDbEntity
  8
M0
100
AcDbText
 10
109.390032
 20
58.634942
 40
3.6
  1
５０
 41
0.601852
  7
STANDARD
100
AcDbText
  0
TEXT
  5
90
100
AcDbEntity
  8
M0
100
AcDbText
 10
38.256579
 20
61.234942
 40
3.6
  1
０
 41
0.601852
  7
STANDARD
100
AcDbText
  0
TEXT
  5
91
100
AcDbEntity
  8
M0
100
AcDbText
 10
35.907836
 20
75.598999
 40
3.6
  1
１０
 41
0.601852
  7
STANDARD
100
AcDbText
  0
TEXT
  5
92
100
AcDbEntity
  8
M0
100
AcDbText
 10
35.907836
 20
89.599005
 40
3.6
  1
２０
 41
0.601852
  7
STANDARD
100
AcDbText
  0
TEXT
  5
93
100
AcDbEntity
  8
M0
100
AcDbText
 10
35.907836
 20
103.599005
 40
3.6
  1
３０
 41
0.601852
  7
STANDARD
100
AcDbText
  0
TEXT
  5
94
100
AcDbEntity
  8
M0
100
AcDbText
 10
35.806286
 20
117.510907
 40
3.6
  1
４０
 41
0.601852
  7
STANDARD
100
AcDbText
  0
TEXT
  5
95
100
AcDbEntity
  8
M0
100
AcDbText
 10
35.806286
 20
131.510907
 40
3.6
  1
５０
 41
0.601852
  7
STANDARD
100
AcDbText
  0
TEXT
  5
96
100
AcDbEntity
  8
M0
100
AcDbText
 10
35.806286
 20
145.510907
 40
3.6
  1
６０
 41
0.601852
  7
STANDARD
100
AcDbText
  0
TEXT
  5
97
100
AcDbEntity
  8
M0
100
AcDbText
 10
33.319319
 20
84.099485
 40
3.6
  1
（　）
 50
90.000003
 41
0.63786
  7
STANDARD
100
AcDbText
  0
TEXT
  5
98
100
AcDbEntity
  8
M0
100
AcDbText
 10
30.050899
 20
101.708021
 40
3.6
  1
全
 41
0.833333
  7
STANDARD
100
AcDbText
  0
TEXT
  5
99
100
AcDbEntity
  8
M0
100
AcDbText
 10
30.050899
 20
97.952466
 40
3.6
  1
揚
 41
0.833333
  7
STANDARD
100
AcDbText
  0
TEXT
  5
9A
100
AcDbEntity
  8
M0
100
AcDbText
 10
30.050899
 20
94.196911
 40
3.6
  1
程
 41
0.833333
  7
STANDARD
100
AcDbText
  0
TEXT
  5
9B
100
AcDbEntity
  8
M0
100
AcDbText
 10
30.050899
 20
90.441355
 40
3.6
  1
　
 41
0.833333
  7
STANDARD
100
AcDbText
  0
TEXT
  5
9C
100
AcDbEntity
  8
M0
100
AcDbText
 10
30.050899
 20
86.6858
 40
3.6
  1
ｍ
 41
0.833333
  7
STANDARD
100
AcDbText
  0
TEXT
  5
9D
100
AcDbEntity
  8
M0
100
AcDbText
 10
150.372448
 20
58.634942
 40
3.6
  1
０
 41
0.601852
  7
STANDARD
100
AcDbText
  0
TEXT
  5
9E
100
AcDbEntity
  8
M0
100
AcDbText
 10
163.390035
 20
58.634942
 40
3.6
  1
１０
 41
0.601852
  7
STANDARD
100
AcDbText
  0
TEXT
  5
9F
100
AcDbEntity
  8
M0
100
AcDbText
 10
177.390038
 20
58.634942
 40
3.6
  1
２０
 41
0.601852
  7
STANDARD
100
AcDbText
  0
TEXT
  5
A0
100
AcDbEntity
  8
M0
100
AcDbText
 10
191.390035
 20
58.634942
 40
3.6
  1
３０
 41
0.601852
  7
STANDARD
100
AcDbText
  0
TEXT
  5
A1
100
AcDbEntity
  8
M0
100
AcDbText
 10
205.390032
 20
58.634942
 40
3.6
  1
４０
 41
0.601852
  7
STANDARD
100
AcDbText
  0
TEXT
  5
A2
100
AcDbEntity
  8
M0
100
AcDbText
 10
179.683707
 20
54.134484
 40
3.6
  1
揚水量（Ｌ／分）
 41
0.63786
  7
STANDARD
100
AcDbText
  0
TEXT
  5
A3
100
AcDbEntity
  8
M0
100
AcDbText
 10
148.256579
 20
61.234942
 40
3.6
  1
０
 41
0.601852
  7
STANDARD
100
AcDbText
  0
TEXT
  5
A4
100
AcDbEntity
  8
M0
100
AcDbText
 10
145.907836
 20
75.598999
 40
3.6
  1
１０
 41
0.601852
  7
STANDARD
100
AcDbText
  0
TEXT
  5
A5
100
AcDbEntity
  8
M0
100
AcDbText
 10
145.907836
 20
89.599005
 40
3.6
  1
２０
 41
0.601852
  7
STANDARD
100
AcDbText
  0
TEXT
  5
A6
100
AcDbEntity
  8
M0
100
AcDbText
 10
145.907836
 20
103.599005
 40
3.6
  1
３０
 41
0.601852
  7
STANDARD
100
AcDbText
  0
TEXT
  5
A7
100
AcDbEntity
  8
M0
100
AcDbText
 10
145.806286
 20
117.510907
 40
3.6
  1
４０
 41
0.601852
  7
STANDARD
100
AcDbText
  0
TEXT
  5
A8
100
AcDbEntity
  8
M0
100
AcDbText
 10
145.806286
 20
131.510907
 40
3.6
  1
５０
 41
0.601852
  7
STANDARD
100
AcDbText
  0
TEXT
  5
A9
100
AcDbEntity
  8
M0
100
AcDbText
 10
145.806286
 20
145.510907
 40
3.6
  1
６０
 41
0.601852
  7
STANDARD
100
AcDbText
  0
TEXT
  5
AA
100
AcDbEntity
  8
M0
100
AcDbText
 10
143.319319
 20
84.099485
 40
3.6
  1
（　）
 50
90.000003
 41
0.63786
  7
STANDARD
100
AcDbText
  0
TEXT
  5
AB
100
AcDbEntity
  8
M0
100
AcDbText
 10
140.050899
 20
101.708021
 40
3.6
  1
全
 41
0.833333
  7
STANDARD
100
AcDbText
  0
TEXT
  5
AC
100
AcDbEntity
  8
M0
100
AcDbText
 10
140.050899
 20
97.952466
 40
3.6
  1
揚
 41
0.833333
  7
STANDARD
100
AcDbText
  0
TEXT
  5
AD
100
AcDbEntity
  8
M0
100
AcDbText
 10
140.050899
 20
94.196911
 40
3.6
  1
程
 41
0.833333
  7
STANDARD
100
AcDbText
  0
TEXT
  5
AE
100
AcDbEntity
  8
M0
100
AcDbText
 10
140.050899
 20
90.441355
 40
3.6
  1
　
 41
0.833333
  7
STANDARD
100
AcDbText
  0
TEXT
  5
AF
100
AcDbEntity
  8
M0
100
AcDbText
 10
140.050899
 20
86.6858
 40
3.6
  1
ｍ
 41
0.833333
  7
STANDARD
100
AcDbText
  0
LINE
  5
B0
100
AcDbEntity
  8
M0
100
AcDbLine
 10
162.731855
 20
246.696126
 11
193.531855
 21
232.678499
  0
LINE
  5
B1
100
AcDbEntity
  8
M0
100
AcDbLine
 10
193.911021
 20
232.401219
 11
206.991372
 21
222.227613
  0
ARC
  5
B2
100
AcDbEntity
  8
M0
100
AcDbCircle
 10
192.836292
 20
231.463513
 40
1.4
100
AcDbArc
 50
52.125016
 51
69.002976
  0
ARC
  5
B3
100
AcDbEntity
  8
M0
100
AcDbCircle
 10
200.251504
 20
225.696126
 40
1.4
100
AcDbArc
 50
52.125016
 51
90.0
  0
LINE
  5
B4
100
AcDbEntity
  8
M0
  6
DASHED
 62
     2
100
AcDbLine
 10
41.531855
 20
130.508021
 11
59.651763
 21
130.508021
  0
ARC
  5
B5
100
AcDbEntity
  8
M0
 62
     2
100
AcDbCircle
 10
59.651763
 20
129.108021
 40
1.4
100
AcDbArc
 50
32.804941
 51
90.0
  0
LINE
  5
B6
100
AcDbEntity
  8
M0
  6
DASHED
 62
     2
100
AcDbLine
 10
151.531855
 20
232.696126
 11
193.051504
 21
232.696126
  0
ARC
  5
B7
100
AcDbEntity
  8
M0
 62
     2
100
AcDbCircle
 10
193.051504
 20
231.296126
 40
1.4
100
AcDbArc
 50
52.125016
 51
90.0
  0
LINE
  5
B8
100
AcDbEntity
  8
M0
  6
DASHED
 62
     1
100
AcDbLine
 10
151.531855
 20
246.696126
 11
162.731855
 21
246.696126
  0
LINE
  5
B9
100
AcDbEntity
  8
M0
  6
DASHED
 62
     2
100
AcDbLine
 10
41.531855
 20
225.696126
 11
83.053918
 21
225.696126
  0
LINE
  5
BA
100
AcDbEntity
  8
M0
100
AcDbLine
 10
59.979765
 20
282.860279
 11
29.979765
 21
282.860279
  0
LINE
  5
BB
100
AcDbEntity
  8
M0
100
AcDbLine
 10
59.979765
 20
272.86028
 11
59.979765
 21
282.860279
  0
LINE
  5
BC
100
AcDbEntity
  8
M0
100
AcDbLine
 10
29.979765
 20
272.86028
 11
59.979765
 21
272.86028
  0
LINE
  5
BD
100
AcDbEntity
  8
M0
100
AcDbLine
 10
29.979765
 20
282.860279
 11
29.979765
 21
272.86028
  0
LINE
  5
BE
100
AcDbEntity
  8
M0
 62
   234
100
AcDbLine
 10
261.531855
 20
119.308021
 11
334.331855
 21
119.308021
  0
LINE
  5
BF
100
AcDbEntity
  8
M0
 62
   234
100
AcDbLine
 10
289.531855
 20
134.708021
 11
289.531855
 21
63.308021
  0
LINE
  5
C0
100
AcDbEntity
  8
M0
 62
   234
100
AcDbLine
 10
261.531855
 20
105.308021
 11
334.331855
 21
105.308021
  0
LINE
  5
C1
100
AcDbEntity
  8
M0
 62
   234
100
AcDbLine
 10
317.531855
 20
63.308021
 11
317.531855
 21
134.708021
  0
LINE
  5
C2
100
AcDbEntity
  8
M0
 62
   234
100
AcDbLine
 10
334.331855
 20
63.308021
 11
261.531855
 21
63.308021
  0
LINE
  5
C3
100
AcDbEntity
  8
M0
 62
   234
100
AcDbLine
 10
261.531855
 20
77.308021
 11
334.331855
 21
77.308021
  0
LINE
  5
C4
100
AcDbEntity
  8
M0
 62
   234
100
AcDbLine
 10
261.531855
 20
91.308021
 11
334.331855
 21
91.308021
  0
LINE
  5
C5
100
AcDbEntity
  8
M0
 62
   234
100
AcDbLine
 10
331.531855
 20
63.308021
 11
331.531855
 21
134.708021
  0
LINE
  5
C6
100
AcDbEntity
  8
M0
 62
   234
100
AcDbLine
 10
275.531855
 20
144.563885
 11
275.531855
 21
63.308021
  0
LINE
  5
C7
100
AcDbEntity
  8
M0
 62
   234
100
AcDbLine
 10
261.531855
 20
150.108021
 11
261.531855
 21
63.308021
  0
LINE
  5
C8
100
AcDbEntity
  8
M0
 62
   234
100
AcDbLine
 10
261.531855
 20
91.308021
 11
314.107681
 21
91.308021
  0
LINE
  5
C9
100
AcDbEntity
  8
M0
 62
   234
100
AcDbLine
 10
261.531855
 20
133.308021
 11
334.503959
 21
133.308021
  0
LINE
  5
CA
100
AcDbEntity
  8
M0
 62
   234
100
AcDbLine
 10
261.531855
 20
147.308021
 11
273.455688
 21
147.308021
  0
LINE
  5
CB
100
AcDbEntity
  8
M0
 62
   234
100
AcDbLine
 10
303.531855
 20
134.708021
 11
303.531855
 21
63.308021
  0
LINE
  5
CC
100
AcDbEntity
  8
M0
 62
   234
100
AcDbLine
 10
41.531855
 20
119.308021
 11
114.331855
 21
119.308021
  0
LINE
  5
CD
100
AcDbEntity
  8
M0
 62
   234
100
AcDbLine
 10
69.531855
 20
134.708021
 11
69.531855
 21
63.308021
  0
LINE
  5
CE
100
AcDbEntity
  8
M0
 62
   234
100
AcDbLine
 10
41.531855
 20
105.308021
 11
114.331855
 21
105.308021
  0
LINE
  5
CF
100
AcDbEntity
  8
M0
 62
   234
100
AcDbLine
 10
97.531855
 20
63.308021
 11
97.531855
 21
134.708021
  0
LINE
  5
D0
100
AcDbEntity
  8
M0
 62
   234
100
AcDbLine
 10
114.331855
 20
63.308021
 11
41.531855
 21
63.308021
  0
LINE
  5
D1
100
AcDbEntity
  8
M0
 62
   234
100
AcDbLine
 10
41.531855
 20
77.308021
 11
114.331855
 21
77.308021
  0
LINE
  5
D2
100
AcDbEntity
  8
M0
 62
   234
100
AcDbLine
 10
41.531855
 20
91.308021
 11
114.331855
 21
91.308021
  0
LINE
  5
D3
100
AcDbEntity
  8
M0
 62
   234
100
AcDbLine
 10
111.531855
 20
63.308021
 11
111.531855
 21
134.708021
  0
LINE
  5
D4
100
AcDbEntity
  8
M0
 62
   234
100
AcDbLine
 10
55.531855
 20
142.683314
 11
55.531855
 21
63.308021
  0
LINE
  5
D5
100
AcDbEntity
  8
M0
 62
   234
100
AcDbLine
 10
41.531855
 20
150.108021
 11
41.531855
 21
63.308021
  0
LINE
  5
D6
100
AcDbEntity
  8
M0
 62
   234
100
AcDbLine
 10
41.531855
 20
91.308021
 11
94.107681
 21
91.308021
  0
LINE
  5
D7
100
AcDbEntity
  8
M0
 62
   234
100
AcDbLine
 10
41.531855
 20
133.308021
 11
111.531855
 21
133.308021
  0
LINE
  5
D8
100
AcDbEntity
  8
M0
 62
   234
100
AcDbLine
 10
41.531855
 20
147.308021
 11
52.361138
 21
147.308021
  0
LINE
  5
D9
100
AcDbEntity
  8
M0
 62
   234
100
AcDbLine
 10
83.531855
 20
134.708021
 11
83.531855
 21
63.308021
  0
LINE
  5
DA
100
AcDbEntity
  8
M0
 62
   234
100
AcDbLine
 10
151.531855
 20
255.096126
 11
151.531855
 21
182.296126
  0
LINE
  5
DB
100
AcDbEntity
  8
M0
 62
   234
100
AcDbLine
 10
224.331855
 20
182.296126
 11
151.531855
 21
182.296126
  0
LINE
  5
DC
100
AcDbEntity
  8
M0
 62
   234
100
AcDbLine
 10
165.531855
 20
255.096126
 11
165.531855
 21
182.296126
  0
LINE
  5
DD
100
AcDbEntity
  8
M0
 62
   234
100
AcDbLine
 10
179.531855
 20
255.096126
 11
179.531855
 21
182.296126
  0
LINE
  5
DE
100
AcDbEntity
  8
M0
 62
   234
100
AcDbLine
 10
151.531855
 20
196.296126
 11
224.331855
 21
196.296126
  0
LINE
  5
DF
100
AcDbEntity
  8
M0
 62
   234
100
AcDbLine
 10
151.531855
 20
210.296126
 11
224.331855
 21
210.296126
  0
LINE
  5
E0
100
AcDbEntity
  8
M0
 62
   234
100
AcDbLine
 10
207.531855
 20
182.296126
 11
207.531855
 21
240.023771
  0
LINE
  5
E1
100
AcDbEntity
  8
M0
 62
   234
100
AcDbLine
 10
151.531855
 20
238.296126
 11
221.531855
 21
238.296126
  0
LINE
  5
E2
100
AcDbEntity
  8
M0
 62
   234
100
AcDbLine
 10
221.531855
 20
182.296126
 11
221.531855
 21
240.023771
  0
LINE
  5
E3
100
AcDbEntity
  8
M0
 62
   234
100
AcDbLine
 10
151.531855
 20
252.296126
 11
181.977685
 21
252.296126
  0
LINE
  5
E4
100
AcDbEntity
  8
M0
 62
   234
100
AcDbLine
 10
224.331855
 20
224.296126
 11
151.531855
 21
224.296126
  0
LINE
  5
E5
100
AcDbEntity
  8
M0
 62
   234
100
AcDbLine
 10
193.531855
 20
240.194251
 11
193.531855
 21
182.296126
  0
TEXT
  5
E6
100
AcDbEntity
  8
M0
100
AcDbText
 10
263.291673
 20
152.881911
 40
3.528
  1
吸上高さ２４ｍ
 41
0.777778
  7
STANDARD
100
AcDbText
  0
TEXT
  5
E7
100
AcDbEntity
  8
M0
100
AcDbText
 10
259.864464
 20
157.817079
 40
3.528
  1
【深井戸用特殊ジェットＪ４０－２４ＳＸ組合わせ時】
 41
0.777778
  7
STANDARD
100
AcDbText
  0
ARC
  5
E8
100
AcDbEntity
  8
M0
100
AcDbCircle
 10
270.655204
 20
127.883021
 40
2.625
100
AcDbArc
 50
8.130102
 51
90.0
  0
LINE
  5
E9
100
AcDbEntity
  8
M0
100
AcDbLine
 10
273.253822
 20
128.254252
 11
275.514266
 21
112.43114
  0
LINE
  5
EA
100
AcDbEntity
  8
M0
100
AcDbLine
 10
275.531855
 20
112.183653
 11
275.531855
 21
96.908021
  0
ARC
  5
EB
100
AcDbEntity
  8
M0
100
AcDbCircle
 10
272.517641
 20
123.508021
 40
1.4
100
AcDbArc
 50
8.130102
 51
90.0
  0
TEXT
  5
EC
100
AcDbEntity
  8
M0
100
AcDbText
 10
33.319319
 20
203.087589
 40
3.6
  1
（　）
 50
90.000003
 41
0.63786
  7
STANDARD
100
AcDbText
  0
TEXT
  5
ED
100
AcDbEntity
  8
M0
100
AcDbText
 10
30.050899
 20
220.696126
 40
3.6
  1
全
 41
0.833333
  7
STANDARD
100
AcDbText
  0
TEXT
  5
EE
100
AcDbEntity
  8
M0
100
AcDbText
 10
30.050899
 20
216.94057
 40
3.6
  1
揚
 41
0.833333
  7
STANDARD
100
AcDbText
  0
TEXT
  5
EF
100
AcDbEntity
  8
M0
100
AcDbText
 10
30.050899
 20
213.185015
 40
3.6
  1
程
 41
0.833333
  7
STANDARD
100
AcDbText
  0
TEXT
  5
F0
100
AcDbEntity
  8
M0
100
AcDbText
 10
30.050899
 20
209.429459
 40
3.6
  1
　
 41
0.833333
  7
STANDARD
100
AcDbText
  0
TEXT
  5
F1
100
AcDbEntity
  8
M0
100
AcDbText
 10
30.050899
 20
205.673904
 40
3.6
  1
ｍ
 41
0.833333
  7
STANDARD
100
AcDbText
  0
TEXT
  5
F2
100
AcDbEntity
  8
M0
100
AcDbText
 10
39.864464
 20
157.817079
 40
3.528
  1
【浅井戸ジェットＪ７５－２４Ｘ組合わせ時】
 41
0.777778
  7
STANDARD
100
AcDbText
  0
TEXT
  5
F3
100
AcDbEntity
  8
M0
100
AcDbText
 10
43.291673
 20
152.881911
 40
3.528
  1
吸上高さ２４ｍ
 41
0.777778
  7
STANDARD
100
AcDbText
  0
TEXT
  5
F4
100
AcDbEntity
  8
M0
100
AcDbText
 10
149.864476
 20
157.811079
 40
3.528
  1
【浅井戸ジェットＪ７５－３５Ｘ組合わせ時】
 41
0.777778
  7
STANDARD
100
AcDbText
  0
TEXT
  5
F5
100
AcDbEntity
  8
M0
100
AcDbText
 10
153.291673
 20
152.875911
 40
3.528
  1
吸上高さ３５ｍ
 41
0.777778
  7
STANDARD
100
AcDbText
  0
TEXT
  5
F6
100
AcDbEntity
  8
M0
100
AcDbText
 10
32.406433
 20
274.360292
 40
7.0
  1
揚水性能
 41
0.780952
  7
STANDARD
100
AcDbText
  0
TEXT
  5
F7
100
AcDbEntity
  8
M0
100
AcDbText
 10
153.291673
 20
262.270009
 40
3.528
  1
吸上高さ１２ｍ
 41
0.777778
  7
STANDARD
100
AcDbText
  0
TEXT
  5
F8
100
AcDbEntity
  8
M0
100
AcDbText
 10
149.864464
 20
267.205189
 40
3.528
  1
【標準ジェットＪ４０－７Ｙ組合わせ時】
 41
0.777778
  7
STANDARD
100
AcDbText
  0
LINE
  5
F9
100
AcDbEntity
  8
M0
  6
DASHED
 62
     2
100
AcDbLine
 10
151.531855
 20
145.908021
 11
155.33604
 21
145.908021
  0
LINE
  5
FA
100
AcDbEntity
  8
M0
100
AcDbLine
 10
65.108583
 20
123.22637
 11
60.828491
 21
129.866514
  0
ARC
  5
FB
100
AcDbEntity
  8
M0
100
AcDbCircle
 10
63.2614
 20
123.508021
 40
1.4
100
AcDbArc
 50
32.804941
 51
90.0
  0
LINE
  5
FC
100
AcDbEntity
  8
M0
100
AcDbLine
 10
53.009077
 20
239.569403
 11
85.377195
 21
224.773455
  0
LINE
  5
FD
100
AcDbEntity
  8
M0
100
AcDbLine
 10
105.017954
 20
214.953076
 11
85.377195
 21
224.773455
  0
ARC
  5
FE
100
AcDbEntity
  8
M0
100
AcDbCircle
 10
52.427043
 20
238.296126
 40
1.4
100
AcDbArc
 50
65.434156
 51
90.0
  0
ARC
  5
FF
100
AcDbEntity
  8
M0
100
AcDbCircle
 10
83.053918
 20
224.296126
 40
1.4
100
AcDbArc
 50
65.434156
 51
90.0
  0
ARC
  5
100
100
AcDbEntity
  8
M0
100
AcDbCircle
 10
94.40136
 20
218.696126
 40
1.4
100
AcDbArc
 50
63.434949
 51
90.0
  0
LINE
  5
101
100
AcDbEntity
  8
M0
 62
   234
100
AcDbLine
 10
41.531855
 20
255.096126
 11
41.531855
 21
182.296126
  0
LINE
  5
102
100
AcDbEntity
  8
M0
 62
   234
100
AcDbLine
 10
114.331855
 20
182.296126
 11
41.531855
 21
182.296126
  0
LINE
  5
103
100
AcDbEntity
  8
M0
 62
   234
100
AcDbLine
 10
55.531855
 20
249.198055
 11
55.531855
 21
182.296126
  0
LINE
  5
104
100
AcDbEntity
  8
M0
 62
   234
100
AcDbLine
 10
41.531855
 20
196.296126
 11
114.331855
 21
196.296126
  0
LINE
  5
105
100
AcDbEntity
  8
M0
 62
   234
100
AcDbLine
 10
41.531855
 20
210.296126
 11
94.107681
 21
210.296126
  0
LINE
  5
106
100
AcDbEntity
  8
M0
 62
   234
100
AcDbLine
 10
41.531855
 20
224.296126
 11
114.746134
 21
224.296126
  0
LINE
  5
107
100
AcDbEntity
  8
M0
 62
   234
100
AcDbLine
 10
41.531855
 20
210.296126
 11
114.331855
 21
210.296126
  0
LINE
  5
108
100
AcDbEntity
  8
M0
 62
   234
100
AcDbLine
 10
97.531855
 20
182.296126
 11
97.531855
 21
235.695999
  0
LINE
  5
109
100
AcDbEntity
  8
M0
 62
   234
100
AcDbLine
 10
41.531855
 20
238.296126
 11
65.352535
 21
238.296126
  0
LINE
  5
10A
100
AcDbEntity
  8
M0
 62
   234
100
AcDbLine
 10
111.531855
 20
182.296126
 11
111.531855
 21
235.695999
  0
LINE
  5
10B
100
AcDbEntity
  8
M0
 62
   234
100
AcDbLine
 10
41.531855
 20
252.296126
 11
51.850479
 21
252.296126
  0
LINE
  5
10C
100
AcDbEntity
  8
M0
 62
   234
100
AcDbLine
 10
83.531855
 20
235.695999
 11
83.531855
 21
182.296126
  0
LINE
  5
10D
100
AcDbEntity
  8
M0
 62
   234
100
AcDbLine
 10
69.531855
 20
235.695999
 11
69.531855
 21
182.296126
  0
TEXT
  5
10E
100
AcDbEntity
  8
M0
100
AcDbText
 10
69.683707
 20
173.122589
 40
3.6
  1
揚水量（Ｌ／分）
 41
0.63786
  7
STANDARD
100
AcDbText
  0
TEXT
  5
10F
100
AcDbEntity
  8
M0
100
AcDbText
 10
38.256579
 20
180.223046
 40
3.6
  1
０
 41
0.601852
  7
STANDARD
100
AcDbText
  0
TEXT
  5
110
100
AcDbEntity
  8
M0
100
AcDbText
 10
35.907836
 20
194.587103
 40
3.6
  1
１０
 41
0.601852
  7
STANDARD
100
AcDbText
  0
TEXT
  5
111
100
AcDbEntity
  8
M0
100
AcDbText
 10
35.907836
 20
208.587109
 40
3.6
  1
２０
 41
0.601852
  7
STANDARD
100
AcDbText
  0
TEXT
  5
112
100
AcDbEntity
  8
M0
100
AcDbText
 10
35.907836
 20
222.587109
 40
3.6
  1
３０
 41
0.601852
  7
STANDARD
100
AcDbText
  0
TEXT
  5
113
100
AcDbEntity
  8
M0
100
AcDbText
 10
35.806286
 20
236.499011
 40
3.6
  1
４０
 41
0.601852
  7
STANDARD
100
AcDbText
  0
TEXT
  5
114
100
AcDbEntity
  8
M0
100
AcDbText
 10
35.806286
 20
250.499011
 40
3.6
  1
５０
 41
0.601852
  7
STANDARD
100
AcDbText
  0
TEXT
  5
115
100
AcDbEntity
  8
M0
100
AcDbText
 10
39.864478
 20
267.205189
 40
3.528
  1
【標準ジェットＪ４０－７Ｙ組合わせ時】
 41
0.777778
  7
STANDARD
100
AcDbText
  0
TEXT
  5
116
100
AcDbEntity
  8
M0
100
AcDbText
 10
43.291675
 20
262.270009
 40
3.528
  1
吸上高さ７ｍ
 41
0.777778
  7
STANDARD
100
AcDbText
  0
TEXT
  5
117
100
AcDbEntity
  8
M0
100
AcDbText
 10
40.036324
 20
26.242863
 40
3.456
  1
※破線部域では運転圧力「標準」「低」時に６０ｋＰａ、「高」時に１４０ｋＰａの圧力変動があります。
 50
-1.001791E-005
 41
0.652006
  7
STANDARD
100
AcDbText
  0
TEXT
  5
118
100
AcDbEntity
  8
M0
100
AcDbText
 10
260.372448
 20
58.634942
 40
3.6
  1
０
 41
0.601852
  7
STANDARD
100
AcDbText
  0
TEXT
  5
119
100
AcDbEntity
  8
M0
100
AcDbText
 10
273.390035
 20
58.634942
 40
3.6
  1
１０
 41
0.601852
  7
STANDARD
100
AcDbText
  0
TEXT
  5
11A
100
AcDbEntity
  8
M0
100
AcDbText
 10
287.390038
 20
58.634942
 40
3.6
  1
２０
 41
0.601852
  7
STANDARD
100
AcDbText
  0
TEXT
  5
11B
100
AcDbEntity
  8
M0
100
AcDbText
 10
301.390035
 20
58.634942
 40
3.6
  1
３０
 41
0.601852
  7
STANDARD
100
AcDbText
  0
TEXT
  5
11C
100
AcDbEntity
  8
M0
100
AcDbText
 10
315.390032
 20
58.634942
 40
3.6
  1
４０
 41
0.601852
  7
STANDARD
100
AcDbText
  0
TEXT
  5
11D
100
AcDbEntity
  8
M0
100
AcDbText
 10
329.390032
 20
58.634942
 40
3.6
  1
５０
 41
0.601852
  7
STANDARD
100
AcDbText
  0
TEXT
  5
11E
100
AcDbEntity
  8
M0
100
AcDbText
 10
289.683707
 20
54.134484
 40
3.6
  1
揚水量（Ｌ／分）
 41
0.63786
  7
STANDARD
100
AcDbText
  0
TEXT
  5
11F
100
AcDbEntity
  8
M0
100
AcDbText
 10
253.319319
 20
84.099485
 40
3.6
  1
（　）
 50
90.000003
 41
0.63786
  7
STANDARD
100
AcDbText
  0
TEXT
  5
120
100
AcDbEntity
  8
M0
100
AcDbText
 10
250.050899
 20
101.708021
 40
3.6
  1
全
 41
0.833333
  7
STANDARD
100
AcDbText
  0
TEXT
  5
121
100
AcDbEntity
  8
M0
100
AcDbText
 10
250.050899
 20
97.952466
 40
3.6
  1
揚
 41
0.833333
  7
STANDARD
100
AcDbText
  0
TEXT
  5
122
100
AcDbEntity
  8
M0
100
AcDbText
 10
250.050899
 20
94.196911
 40
3.6
  1
程
 41
0.833333
  7
STANDARD
100
AcDbText
  0
TEXT
  5
123
100
AcDbEntity
  8
M0
100
AcDbText
 10
250.050899
 20
90.441355
 40
3.6
  1
　
 41
0.833333
  7
STANDARD
100
AcDbText
  0
TEXT
  5
124
100
AcDbEntity
  8
M0
100
AcDbText
 10
250.050899
 20
86.6858
 40
3.6
  1
ｍ
 41
0.833333
  7
STANDARD
100
AcDbText
  0
TEXT
  5
125
100
AcDbEntity
  8
M0
100
AcDbText
 10
258.256579
 20
61.234942
 40
3.6
  1
０
 41
0.601852
  7
STANDARD
100
AcDbText
  0
TEXT
  5
126
100
AcDbEntity
  8
M0
100
AcDbText
 10
255.907836
 20
75.598999
 40
3.6
  1
１０
 41
0.601852
  7
STANDARD
100
AcDbText
  0
TEXT
  5
127
100
AcDbEntity
  8
M0
100
AcDbText
 10
255.907836
 20
89.599005
 40
3.6
  1
２０
 41
0.601852
  7
STANDARD
100
AcDbText
  0
TEXT
  5
128
100
AcDbEntity
  8
M0
100
AcDbText
 10
255.907836
 20
103.599005
 40
3.6
  1
３０
 41
0.601852
  7
STANDARD
100
AcDbText
  0
TEXT
  5
129
100
AcDbEntity
  8
M0
100
AcDbText
 10
255.806286
 20
117.510907
 40
3.6
  1
４０
 41
0.601852
  7
STANDARD
100
AcDbText
  0
TEXT
  5
12A
100
AcDbEntity
  8
M0
100
AcDbText
 10
255.806286
 20
131.510907
 40
3.6
  1
５０
 41
0.601852
  7
STANDARD
100
AcDbText
  0
TEXT
  5
12B
100
AcDbEntity
  8
M0
100
AcDbText
 10
255.806286
 20
145.510907
 40
3.6
  1
６０
 41
0.601852
  7
STANDARD
100
AcDbText
  0
LINE
  5
12C
100
AcDbEntity
  8
M0
  6
DASHED
 62
     2
100
AcDbLine
 10
261.531855
 20
130.508021
 11
270.655204
 21
130.508021
  0
LINE
  5
12D
100
AcDbEntity
  8
M0
  6
DASHED
 62
     1
100
AcDbLine
 10
41.531855
 20
239.696126
 11
52.01651
 21
239.696126
  0
LINE
  5
12E
100
AcDbEntity
  8
M0
  6
DASHED
 62
     1
100
AcDbLine
 10
207.531855
 20
196.096126
 11
207.531855
 21
227.71138
  0
LINE
  5
12F
100
AcDbEntity
  8
M0
 62
     7
100
AcDbLine
 10
207.531855
 20
221.122519
 11
207.531855
 21
199.096126
  0
LINE
  5
130
100
AcDbEntity
  8
M0
 62
     7
100
AcDbLine
 10
65.331855
 20
96.908021
 11
65.331855
 21
122.467877
  0
ARC
  5
131
100
AcDbEntity
  8
M0
 62
     7
100
AcDbCircle
 10
206.131855
 20
221.122519
 40
1.4
100
AcDbArc
 50
0.0
 51
52.125016
  0
ARC
  5
132
100
AcDbEntity
  8
M0
 62
     7
100
AcDbCircle
 10
63.931855
 20
122.467877
 40
1.4
100
AcDbArc
 50
0.0
 51
32.804941
  0
LINE
  5
133
100
AcDbEntity
  8
M0
 62
     7
100
AcDbLine
 10
156.578408
 20
145.153407
 11
162.574222
 21
133.611464
  0
LINE
  5
134
100
AcDbEntity
  8
M0
 62
     7
100
AcDbLine
 10
162.731855
 20
112.43114
 11
162.731855
 21
132.966078
  0
LINE
  5
135
100
AcDbEntity
  8
M0
 62
     7
100
AcDbLine
 10
105.791855
 20
213.700878
 11
105.791855
 21
192.096126
  0
LINE
  5
136
100
AcDbEntity
  8
M0
  6
DASHED
 62
     7
100
AcDbLine
 10
41.531855
 20
220.096126
 11
94.40136
 21
220.096126
  0
LINE
  5
137
100
AcDbEntity
  8
M0
  6
DASHED
 62
     7
100
AcDbLine
 10
151.531855
 20
227.096126
 11
200.251504
 21
227.096126
  0
LINE
  5
138
100
AcDbEntity
  8
M0
  6
DASHED
 62
     7
100
AcDbLine
 10
63.2614
 20
124.908021
 11
41.531855
 21
124.908021
  0
LINE
  5
139
100
AcDbEntity
  8
M0
  6
DASHED
 62
     7
100
AcDbLine
 10
151.531855
 20
140.308021
 11
158.245131
 21
140.308021
  0
ARC
  5
13A
100
AcDbEntity
  8
M0
 62
     7
100
AcDbCircle
 10
161.331855
 20
132.966078
 40
1.4
100
AcDbArc
 50
0.0
 51
27.450998
  0
ARC
  5
13B
100
AcDbEntity
  8
M0
 62
     7
100
AcDbCircle
 10
155.33604
 20
144.508021
 40
1.4
100
AcDbArc
 50
27.450998
 51
90.0
  0
ARC
  5
13C
100
AcDbEntity
  8
M0
 62
     7
100
AcDbCircle
 10
158.245131
 20
138.908021
 40
1.4
100
AcDbArc
 50
27.450998
 51
90.0
  0
LINE
  5
13D
100
AcDbEntity
  8
M0
  6
DASHED
 62
     7
100
AcDbLine
 10
261.531855
 20
124.908021
 11
272.517641
 21
124.908021
  0
ARC
  5
13E
100
AcDbEntity
  8
M0
 62
     7
100
AcDbCircle
 10
104.391855
 20
213.700878
 40
1.4
100
AcDbArc
 50
0.0
 51
63.434949
  0
ENDSEC
  0
SECTION
  2
OBJECTS
  0
DICTIONARY
  5
C
100
AcDbDictionary
  3
ACAD_GROUP
350
D
  3
ACAD_MLINESTYLE
350
E
  0
DICTIONARY
  5
D
102
{ACAD_REACTORS
330
C
102
}
100
AcDbDictionary
  0
DICTIONARY
  5
E
102
{ACAD_REACTORS
330
C
102
}
100
AcDbDictionary
  3
STANDARD
350
13
  0
MLINESTYLE
  5
13
102
{ACAD_REACTORS
330
E
102
}
100
AcDbMlineStyle
  2
STANDARD
 70
     0
  3

 62
     0
 51
90.0
 52
90.0
 71
     2
 49
0.5
 62
   256
  6
BYLAYER
 49
-0.5
 62
   256
  6
BYLAYER
  0
ENDSEC
  0
EOF
