  0
SECTION
  2
HEADER
  9
$ACADVER
  1
AC1012
  9
$INSBASE
 10
0.0
 20
0.0
  9
$VIEWCTR
 10
7.531722
 20
4.5
  9
$VIEWSIZE
 40
9.0
  9
$SNAPMODE
 70
     0
  9
$SNAPUNIT
 10
1.0
 20
1.0
  9
$SNAPBASE
 10
0.0
 20
0.0
  9
$SNAPANG
 50
0.0
  9
$SNAPSTYLE
 70
     0
  9
$SNAPISOPAIR
 70
     0
  9
$GRIDMODE
 70
     0
  9
$GRIDUNIT
 10
0.0
 20
0.0
  9
$ORTHOMODE
 70
     0
  9
$REGENMODE
 70
     1
  9
$FILLMODE
 70
     1
  9
$QTEXTMODE
 70
     0
  9
$DRAGMODE
 70
     2
  9
$LTSCALE
 40
1.0
  9
$OSMODE
 70
     0
  9
$ATTMODE
 70
     1
  9
$TEXTSIZE
 40
0.2
  9
$TRACEWID
 40
0.05
  9
$TEXTSTYLE
  7
STANDARD
  9
$CELTYPE
  6
BYLAYER
  9
$CECOLOR
 62
   256
  9
$DIMSCALE
 40
1.0
  9
$DIMASZ
 40
0.18
  9
$DIMEXO
 40
0.0625
  9
$DIMDLI
 40
0.38
  9
$DIMRND
 40
0.0
  9
$DIMDLE
 40
0.0
  9
$DIMEXE
 40
0.18
  9
$DIMTP
 40
0.0
  9
$DIMTM
 40
0.0
  9
$DIMTXT
 40
0.18
  9
$DIMCEN
 40
0.09
  9
$DIMTSZ
 40
0.0
  9
$DIMTOL
 70
     0
  9
$DIMLIM
 70
     0
  9
$DIMTIH
 70
     1
  9
$DIMTOH
 70
     1
  9
$DIMSE1
 70
     0
  9
$DIMSE2
 70
     0
  9
$DIMTAD
 70
     0
  9
$DIMZIN
 70
     0
  9
$DIMBLK
  1

  9
$LUNITS
 70
     2
  9
$LUPREC
 70
     4
  9
$AXISMODE
 70
     0
  9
$AXISUNIT
 10
0.0
 20
0.0
  9
$SKETCHINC
 40
0.1
  9
$FILLETRAD
 40
0.0
  9
$AUNITS
 70
     0
  9
$AUPREC
 70
     0
  9
$MENU
  1
ACAD
  9
$ELEVATION
 40
0.0
  9
$THICKNESS
 40
0.0
  9
$VIEWDIR
 10
0.0
 20
0.0
 30
1.0
  9
$LIMCHECK
 70
     0
  9
$BLIPMODE
 70
     1
  9
$CHAMFERA
 40
0.0
  9
$CHAMFERB
 40
0.0
  9
$FASTZOOM
 70
     1
  9
$SKPOLY
 70
     0
  9
$TDCREATE
 40
0000000.0000000000
  9
$TDUPDATE
 40
0000000.0000000000
  9
$TDINDWG
 40
0.0000000000
  9
$TDUSRTIMER
 40
0.0000000000
  9
$USRTIMER
 70
     1
  9
$ANGBASE
 50
0.0
  9
$ANGDIR
 70
     0
  9
$PDMODE
 70
     0
  9
$PDSIZE
 40
0.0
  9
$PLINEWID
 40
0.0
  9
$COORDS
 70
     0
  9
$USERI1
 70
     0
  9
$USERI2
 70
     0
  9
$USERI3
 70
     0
  9
$USERI4
 70
     0
  9
$USERI5
 70
     0
  9
$USERR1
 40
0.0
  9
$USERR2
 40
0.0
  9
$USERR3
 40
0.0
  9
$USERR4
 40
0.0
  9
$USERR5
 40
0.0
  9
$CLAYER
  8
M80
  9
$EXTMIN
 10
0.0
 20
0.0
  9
$EXTMAX
 10
420.0
 20
297.0
  9
$LIMMIN
 10
0.0
 20
0.0
  9
$LIMMAX
 10
420.0
 20
297.0
  9
$HANDSEED
  5
15C
  0
ENDSEC
  0
SECTION
  2
CLASSES
  0
ENDSEC
  0
SECTION
  2
TABLES
  0
TABLE
  2
VPORT
  5
8
100
AcDbSymbolTable
 70
     2
  0
VPORT
  5
14
100
AcDbSymbolTableRecord
100
AcDbViewportTableRecord
  2
*ACTIVE
 70
     0
 10
0.0
 20
0.0
 11
1.0
 21
1.0
 12
484.0
 22
297.0
 13
0.0
 23
0.0
 14
1.0
 24
1.0
 15
0.0
 25
0.0
 16
0.0
 26
0.0
 36
1.0
 17
0.0
 27
0.0
 37
0.0
 40
594.0
 41
2.0
 42
50.0
 43
0.0
 44
0.0
 50
0.0
 51
0.0
 71
     0
 72
   100
 73
     1
 74
     1
 75
     0
 76
     0
 77
     0
 78
     0
  0
ENDTAB
  0
TABLE
  2
LTYPE
  5
5
100
AcDbSymbolTable
 70
     5
  0
LTYPE
  5
15
100
AcDbSymbolTableRecord
100
AcDbLinetypeTableRecord
  2
BYBLOCK
 70
     0
  3

 72
    65
 73
     0
 40
0.0
  0
LTYPE
  5
16
100
AcDbSymbolTableRecord
100
AcDbLinetypeTableRecord
  2
BYLAYER
 70
     0
  3

 72
    65
 73
     0
 40
0.0
  0
LTYPE
  5
17
100
AcDbSymbolTableRecord
100
AcDbLinetypeTableRecord
  2
CONTINUOUS
 70
    64
  3
Solid line
 72
    65
 73
     0
 40
0.0
  0
LTYPE
  5
18
100
AcDbSymbolTableRecord
100
AcDbLinetypeTableRecord
  2
DASHED
 70
    64
  3
__ __ __ __ __ __ __ __ __ __ __ __ __ __ __ __
 72
    65
 73
     2
 40
0.75
 49
0.5
 74
     0
 49
-0.25
 74
     0
  0
LTYPE
  5
19
100
AcDbSymbolTableRecord
100
AcDbLinetypeTableRecord
  2
DASHDOT
 70
    64
  3
__ . __ . __ . __ . __ . __ . __ . __ . __ . __
 72
    65
 73
     4
 40
1.0
 49
0.5
 74
     0
 49
-0.25
 74
     0
 49
0.0
 74
     0
 49
-0.25
 74
     0
  0
LTYPE
  5
1A
100
AcDbSymbolTableRecord
100
AcDbLinetypeTableRecord
  2
DIVIDE
 70
    64
  3
____ . . ____ . . ____ . . ____ . . ____ . . __
 72
    65
 73
     6
 40
1.25
 49
0.5
 74
     0
 49
-0.25
 74
     0
 49
0.0
 74
     0
 49
-0.25
 74
     0
 49
0.0
 74
     0
 49
-0.25
 74
     0
  0
LTYPE
  5
1B
100
AcDbSymbolTableRecord
100
AcDbLinetypeTableRecord
  2
DOT
 70
    64
  3
. . . . . . . . . . . . . . . . . . . . . . . .
 72
    65
 73
     2
 40
0.25
 49
0.0
 74
     0
 49
-0.25
 74
     0
  0
ENDTAB
  0
TABLE
  2
LAYER
  5
2
100
AcDbSymbolTable
 70
   102
  0
LAYER
  5
F
100
AcDbSymbolTableRecord
100
AcDbLayerTableRecord
  2
0
 70
     0
 62
     7
  6
CONTINUOUS
  0
LAYER
  5
1C
100
AcDbSymbolTableRecord
100
AcDbLayerTableRecord
  2
DEFPOINTS
 70
     0
 62
     7
  6
CONTINUOUS
  0
LAYER
  5
1D
100
AcDbSymbolTableRecord
100
AcDbLayerTableRecord
  2
M0
 70
     0
 62
     3
  6
CONTINUOUS
  0
ENDTAB
  0
TABLE
  2
STYLE
  5
3
100
AcDbSymbolTable
 70
     2
  0
STYLE
  5
10
100
AcDbSymbolTableRecord
100
AcDbTextStyleTableRecord
  2
STANDARD
 70
     0
 40
0.0
 41
1.0
 50
0.0
 71
     0
 42
0.2
  3
txt
  4
BIGFONT
  0
ENDTAB
  0
TABLE
  2
VIEW
  5
6
100
AcDbSymbolTable
 70
     0
  0
ENDTAB
  0
TABLE
  2
UCS
  5
7
100
AcDbSymbolTable
 70
     0
  0
ENDTAB
  0
TABLE
  2
APPID
  5
9
100
AcDbSymbolTable
 70
     1
  0
APPID
  5
11
100
AcDbSymbolTableRecord
100
AcDbRegAppTableRecord
  2
ACAD
 70
     0
  0
ENDTAB
  0
TABLE
  2
DIMSTYLE
  5
A
100
AcDbSymbolTable
 70
     2
  0
DIMSTYLE
105
24
100
AcDbSymbolTableRecord
100
AcDbDimStyleTableRecord
  2
STANDARD
 70
     0
  3

  4

  5

  6
_OPEN
  7
_OPEN
 40
1.0
 41
3.0
 42
0.0
 43
8.0
 44
1.5
 45
0.0
 46
0.0
 47
0.0
 48
0.0
140
3.5
141
0.09
142
0.0
143
0.03937
144
1.0
145
0.0
146
1.0
147
1.0
 71
     0
 72
     0
 73
     0
 74
     0
 75
     0
 76
     0
 77
     3
 78
     8
170
     0
171
     2
172
     0
173
     1
174
     0
175
     0
176
     0
177
     0
178
     0
270
     2
271
     2
272
     4
273
     2
274
     2
340
10
275
     0
280
     0
281
     0
282
     0
283
     1
284
     0
285
     0
286
     0
287
     3
288
     0
  0
DIMSTYLE
105
25
100
AcDbSymbolTableRecord
100
AcDbDimStyleTableRecord
  2
LEADSTYL
 70
     0
  3

  4

  5

  6
_OPEN
  7
_OPEN
 40
1.0
 41
3.0
 42
0.0625
 43
0.38
 44
0.18
 45
0.0
 46
0.0
 47
0.0
 48
0.0
140
3.2
141
0.09
142
0.0
143
25.4
144
1.0
145
0.0
146
1.0
147
1.0
 71
     0
 72
     0
 73
     1
 74
     1
 75
     0
 76
     0
 77
     0
 78
     0
170
     0
171
     2
172
     0
173
     1
174
     0
175
     0
176
     0
177
     0
178
     0
270
     2
271
     4
272
     4
273
     2
274
     2
340
10
275
     0
280
     0
281
     0
282
     0
283
     1
284
     0
285
     0
286
     0
287
     3
288
     0
  0
ENDTAB
  0
TABLE
  2
BLOCK_RECORD
  5
1
100
AcDbSymbolTable
 70
     6
  0
BLOCK_RECORD
  5
1E
100
AcDbSymbolTableRecord
100
AcDbBlockTableRecord
  2
*MODEL_SPACE
  0
BLOCK_RECORD
  5
21
100
AcDbSymbolTableRecord
100
AcDbBlockTableRecord
  2
*PAPER_SPACE
  0
BLOCK_RECORD
  5
26
100
AcDbSymbolTableRecord
100
AcDbBlockTableRecord
  2
_NONE
  0
BLOCK_RECORD
  5
2A
100
AcDbSymbolTableRecord
100
AcDbBlockTableRecord
  2
_OPEN
  0
BLOCK_RECORD
  5
30
100
AcDbSymbolTableRecord
100
AcDbBlockTableRecord
  2
_CLOSED
  0
BLOCK_RECORD
  5
37
100
AcDbSymbolTableRecord
100
AcDbBlockTableRecord
  2
_ORIGIN
  0
BLOCK_RECORD
  5
3C
100
AcDbSymbolTableRecord
100
AcDbBlockTableRecord
  2
_DOT
  0
BLOCK_RECORD
  5
44
100
AcDbSymbolTableRecord
100
AcDbBlockTableRecord
  2
_OBLIQUE
  0
ENDTAB
  0
ENDSEC
  0
SECTION
  2
BLOCKS
  0
BLOCK
  5
1F
100
AcDbEntity
  8
0
100
AcDbBlockBegin
  2
*MODEL_SPACE
 70
     0
 10
0.0
 20
0.0
 30
0.0
  3
*MODEL_SPACE
  1

  0
ENDBLK
  5
20
100
AcDbEntity
  8
0
100
AcDbBlockEnd
  0
BLOCK
  5
22
100
AcDbEntity
 67
     1
  8
0
100
AcDbBlockBegin
  2
*PAPER_SPACE
 70
     0
 10
0.0
 20
0.0
 30
0.0
  3
*PAPER_SPACE
  1

  0
ENDBLK
  5
23
100
AcDbEntity
 67
     1
  8
0
100
AcDbBlockEnd
  0
BLOCK
  5
27
100
AcDbEntity
  8
0
100
AcDbBlockBegin
  2
_NONE
 70
     0
 10
0.0
 20
0.0
  0
CIRCLE
  5
28
100
AcDbEntity
  8
0
 62
     0
100
AcDbCircle
 10
0.0
 20
0.0
 40
0.25
  0
ENDBLK
  5
29
100
AcDbEntity
  8
0
100
AcDbBlockEnd
  0
BLOCK
  5
2B
100
AcDbEntity
  8
0
100
AcDbBlockBegin
  2
_OPEN
 70
     0
 10
0.0
 20
0.0
  0
LINE
  5
2C
100
AcDbEntity
  8
0
 62
     0
100
AcDbLine
 10
-0.965926
 20
0.258819
 11
0.0
 21
0.0
  0
LINE
  5
2D
100
AcDbEntity
  8
0
 62
     0
100
AcDbLine
 10
0.0
 20
0.0
 11
-0.965926
 21
-0.258819
  0
LINE
  5
2E
100
AcDbEntity
  8
0
 62
     0
100
AcDbLine
 10
0.0
 20
0.0
 11
-1.0
 21
0.0
  0
ENDBLK
  5
2F
100
AcDbEntity
  8
0
100
AcDbBlockEnd
  0
BLOCK
  5
31
100
AcDbEntity
  8
0
100
AcDbBlockBegin
  2
_CLOSED
 70
     0
 10
0.0
 20
0.0
  0
LINE
  5
32
100
AcDbEntity
  8
0
 62
     0
100
AcDbLine
 10
-0.965926
 20
0.258819
 11
0.0
 21
0.0
  0
LINE
  5
33
100
AcDbEntity
  8
0
 62
     0
100
AcDbLine
 10
0.0
 20
0.0
 11
-0.965926
 21
-0.258819
  0
LINE
  5
34
100
AcDbEntity
  8
0
 62
     0
100
AcDbLine
 10
-0.965926
 20
0.258819
 11
-0.965926
 21
-0.258819
  0
LINE
  5
35
100
AcDbEntity
  8
0
 62
     0
100
AcDbLine
 10
0.0
 20
0.0
 11
-1.0
 21
0.0
  0
ENDBLK
  5
36
100
AcDbEntity
  8
0
100
AcDbBlockEnd
  0
BLOCK
  5
38
100
AcDbEntity
  8
0
100
AcDbBlockBegin
  2
_ORIGIN
 70
     0
 10
0.0
 20
0.0
  0
CIRCLE
  5
39
100
AcDbEntity
  8
0
 62
     0
100
AcDbCircle
 10
0.0
 20
0.0
 40
0.5
  0
LINE
  5
3A
100
AcDbEntity
  8
0
 62
     0
100
AcDbLine
 10
0.0
 20
0.0
 11
-1.0
 21
0.0
  0
ENDBLK
  5
3B
100
AcDbEntity
  8
0
100
AcDbBlockEnd
  0
BLOCK
  5
3D
100
AcDbEntity
  8
0
100
AcDbBlockBegin
  2
_DOT
 70
     0
 10
0.0
 20
0.0
  0
POLYLINE
  5
3E
100
AcDbEntity
  8
0
 62
     0
100
AcDb2dPolyline
 66
     1
 70
     1
 40
0.5
 41
0.5
  0
VERTEX
  5
3F
100
AcDbEntity
  8
0
 62
     0
100
AcDbVertex
100
AcDb2dVertex
 10
-0.25
 20
0.0
 42
1.0
  0
VERTEX
  5
40
100
AcDbEntity
  8
0
 62
     0
100
AcDbVertex
100
AcDb2dVertex
 10
0.25
 20
0.0
 42
1.0
  0
SEQEND
  5
41
100
AcDbEntity
  8
0
 62
     0
  0
LINE
  5
42
100
AcDbEntity
  8
0
 62
     0
100
AcDbLine
 10
-0.5
 20
0.0
 11
-1.0
 21
0.0
  0
ENDBLK
  5
43
100
AcDbEntity
  8
0
100
AcDbBlockEnd
  0
BLOCK
  5
45
100
AcDbEntity
  8
0
100
AcDbBlockBegin
  2
_OBLIQUE
 70
     0
 10
0.0
 20
0.0
  0
LINE
  5
46
100
AcDbEntity
  8
0
 62
     0
100
AcDbLine
 10
-0.353553
 20
-0.353553
 11
0.353553
 21
0.353553
  0
ENDBLK
  5
47
100
AcDbEntity
  8
0
100
AcDbBlockEnd
  0
ENDSEC
  0
SECTION
  2
ENTITIES
  0
LINE
  5
48
100
AcDbEntity
  8
M0
 62
     4
100
AcDbLine
 10
53.500194
 20
268.505842
 11
53.500194
 21
189.305842
  0
LINE
  5
49
100
AcDbEntity
  8
M0
 62
     4
100
AcDbLine
 10
53.500194
 20
189.305842
 11
153.400194
 21
189.305842
  0
LINE
  5
4A
100
AcDbEntity
  8
M0
 62
     4
100
AcDbLine
 10
82.300194
 20
189.305842
 11
82.300194
 21
232.505842
  0
LINE
  5
4B
100
AcDbEntity
  8
M0
 62
     4
100
AcDbLine
 10
111.100194
 20
189.305842
 11
111.100194
 21
232.505842
  0
LINE
  5
4C
100
AcDbEntity
  8
M0
 62
     4
100
AcDbLine
 10
139.900194
 20
189.305842
 11
139.900194
 21
261.305842
  0
LINE
  5
4D
100
AcDbEntity
  8
M0
 62
     4
100
AcDbLine
 10
53.500194
 20
203.705842
 11
153.400194
 21
203.705842
  0
LINE
  5
4E
100
AcDbEntity
  8
M0
 62
     4
100
AcDbLine
 10
53.500194
 20
218.105842
 11
153.400194
 21
218.105842
  0
LINE
  5
4F
100
AcDbEntity
  8
M0
 62
     4
100
AcDbLine
 10
82.300194
 20
232.505842
 11
82.300194
 21
268.505842
  0
LINE
  5
50
100
AcDbEntity
  8
M0
 62
     4
100
AcDbLine
 10
67.900194
 20
189.305842
 11
67.900194
 21
268.505842
  0
LINE
  5
51
100
AcDbEntity
  8
M0
 62
     4
100
AcDbLine
 10
96.700194
 20
189.305842
 11
96.700194
 21
268.505842
  0
LINE
  5
52
100
AcDbEntity
  8
M0
 62
     4
100
AcDbLine
 10
125.500194
 20
189.305842
 11
125.500194
 21
268.505842
  0
LINE
  5
53
100
AcDbEntity
  8
M0
 62
     4
100
AcDbLine
 10
53.500194
 20
246.905842
 11
153.400194
 21
246.905842
  0
LINE
  5
54
100
AcDbEntity
  8
M0
 62
     4
100
AcDbLine
 10
53.500194
 20
232.505842
 11
153.400194
 21
232.505842
  0
LINE
  5
55
100
AcDbEntity
  8
M0
 62
     4
100
AcDbLine
 10
53.500194
 20
261.305842
 11
153.400194
 21
261.305842
  0
LINE
  5
56
100
AcDbEntity
  8
M0
 62
     4
100
AcDbLine
 10
111.100194
 20
241.099804
 11
111.100194
 21
268.505842
  0
LINE
  5
57
100
AcDbEntity
  8
M0
  6
DASHED
 62
     4
100
AcDbLine
 10
53.500194
 20
225.305842
 11
122.328094
 21
225.305842
  0
LINE
  5
58
100
AcDbEntity
  8
M0
 62
     4
100
AcDbLine
 10
122.897304
 20
225.213472
 11
130.552871
 21
222.661617
  0
ARC
  5
59
100
AcDbEntity
  8
M0
 62
     4
100
AcDbCircle
 10
122.328094
 20
223.505842
 40
1.8
100
AcDbArc
 50
71.565051
 51
90.0
  0
LINE
  5
5A
100
AcDbEntity
  8
M0
 62
     4
100
AcDbLine
 10
131.59363
 20
221.758971
 11
132.510163
 21
219.925904
  0
LINE
  5
5B
100
AcDbEntity
  8
M0
 62
     4
100
AcDbLine
 10
132.700194
 20
199.475728
 11
132.700194
 21
219.12092
  0
ARC
  5
5C
100
AcDbEntity
  8
M0
 62
     4
100
AcDbCircle
 10
129.983661
 20
220.953987
 40
1.8
100
AcDbArc
 50
26.565051
 51
71.565051
  0
ARC
  5
5D
100
AcDbEntity
  8
M0
 62
     4
100
AcDbCircle
 10
130.900194
 20
219.12092
 40
1.8
100
AcDbArc
 50
0.0
 51
26.565051
  0
TEXT
  5
5E
100
AcDbEntity
  8
M0
 62
     4
100
AcDbText
 10
37.68364
 20
230.892267
 40
3.2256
  1
全
 41
1.25
  7
STANDARD
100
AcDbText
  0
TEXT
  5
5F
100
AcDbEntity
  8
M0
 62
     4
100
AcDbText
 10
37.68364
 20
227.344108
 40
3.2256
  1
揚
 41
1.25
  7
STANDARD
100
AcDbText
  0
TEXT
  5
60
100
AcDbEntity
  8
M0
 62
     4
100
AcDbText
 10
37.68364
 20
223.795948
 40
3.2256
  1
程
 41
1.25
  7
STANDARD
100
AcDbText
  0
TEXT
  5
61
100
AcDbEntity
  8
M0
 62
     4
100
AcDbText
 10
37.68364
 20
220.247788
 40
3.2256
  1
　
 41
1.25
  7
STANDARD
100
AcDbText
  0
TEXT
  5
62
100
AcDbEntity
  8
M0
 62
     4
100
AcDbText
 10
37.68364
 20
216.699628
 40
3.2256
  1
ｍ
 41
1.25
  7
STANDARD
100
AcDbText
  0
ARC
  5
63
100
AcDbEntity
  8
M0
 62
     4
100
AcDbCircle
 10
39.699641
 20
216.430829
 40
4.8384
100
AcDbArc
 50
52.58592
 51
127.41408
  0
ARC
  5
64
100
AcDbEntity
  8
M0
 62
     4
100
AcDbCircle
 10
39.699641
 20
219.467403
 40
4.8384
100
AcDbArc
 50
232.58592
 51
307.41408
  0
TEXT
  5
65
100
AcDbEntity
  8
M0
 62
     4
100
AcDbText
 10
44.932014
 20
230.453813
 40
4.32
  1
３０
 41
0.611111
  7
STANDARD
100
AcDbText
  0
TEXT
  5
66
100
AcDbEntity
  8
M0
 62
     4
100
AcDbText
 10
44.932014
 20
216.053813
 40
4.32
  1
２０
 41
0.611111
  7
STANDARD
100
AcDbText
  0
TEXT
  5
67
100
AcDbEntity
  8
M0
 62
     4
100
AcDbText
 10
44.932014
 20
201.653815
 40
4.32
  1
１０
 41
0.611111
  7
STANDARD
100
AcDbText
  0
TEXT
  5
68
100
AcDbEntity
  8
M0
 62
     4
100
AcDbText
 10
47.812011
 20
187.25381
 40
4.32
  1
０
 41
0.611111
  7
STANDARD
100
AcDbText
  0
TEXT
  5
69
100
AcDbEntity
  8
M0
 62
     4
100
AcDbText
 10
50.69201
 20
183.868003
 40
4.32
  1
０
 41
0.611111
  7
STANDARD
100
AcDbText
  0
TEXT
  5
6A
100
AcDbEntity
  8
M0
 62
     4
100
AcDbText
 10
79.492011
 20
183.868003
 40
4.32
  1
２０
 41
0.611111
  7
STANDARD
100
AcDbText
  0
TEXT
  5
6B
100
AcDbEntity
  8
M0
 62
     4
100
AcDbText
 10
108.292015
 20
183.868003
 40
4.32
  1
４０
 41
0.611111
  7
STANDARD
100
AcDbText
  0
TEXT
  5
6C
100
AcDbEntity
  8
M0
 62
     4
100
AcDbText
 10
89.166886
 20
178.101623
 40
4.8384
  1
揚水量（Ｌ／分）
 41
0.611111
  7
STANDARD
100
AcDbText
  0
TEXT
  5
6D
100
AcDbEntity
  8
M0
 62
     4
100
AcDbText
 10
137.092006
 20
183.868003
 40
4.32
  1
６０
 41
0.611111
  7
STANDARD
100
AcDbText
  0
TEXT
  5
6E
100
AcDbEntity
  8
M0
 62
     4
100
AcDbText
 10
65.09201
 20
183.868003
 40
4.32
  1
１０
 41
0.611111
  7
STANDARD
100
AcDbText
  0
TEXT
  5
6F
100
AcDbEntity
  8
M0
 62
     4
100
AcDbText
 10
93.892013
 20
183.868003
 40
4.32
  1
３０
 41
0.611111
  7
STANDARD
100
AcDbText
  0
TEXT
  5
70
100
AcDbEntity
  8
M0
 62
     4
100
AcDbText
 10
122.692005
 20
183.868003
 40
4.32
  1
５０
 41
0.611111
  7
STANDARD
100
AcDbText
  0
TEXT
  5
71
100
AcDbEntity
  8
M0
 62
     4
100
AcDbText
 10
44.932014
 20
244.853812
 40
4.32
  1
４０
 41
0.611111
  7
STANDARD
100
AcDbText
  0
TEXT
  5
72
100
AcDbEntity
  8
M0
 62
     4
100
AcDbText
 10
44.932014
 20
259.253812
 40
4.32
  1
５０
 41
0.611111
  7
STANDARD
100
AcDbText
  0
ARC
  5
73
100
AcDbEntity
  8
M0
100
AcDbCircle
 10
-314.576671
 20
261.699649
 40
20.0
100
AcDbArc
 50
262.874984
 51
437.905243
  0
LINE
  5
74
100
AcDbEntity
  8
M0
 62
     4
100
AcDbLine
 10
64.729424
 20
272.234748
 11
64.729425
 21
277.418748
  0
LINE
  5
75
100
AcDbEntity
  8
M0
 62
     4
100
AcDbLine
 10
64.729425
 20
277.418748
 11
86.833423
 21
277.418748
  0
LINE
  5
76
100
AcDbEntity
  8
M0
 62
     4
100
AcDbLine
 10
86.833423
 20
277.418748
 11
86.833422
 21
272.234748
  0
LINE
  5
77
100
AcDbEntity
  8
M0
 62
     4
100
AcDbLine
 10
86.833422
 20
272.234748
 11
64.729424
 21
272.234748
  0
TEXT
  5
78
100
AcDbEntity
  8
M0
 62
     4
100
AcDbText
 10
65.326424
 20
272.666748
 40
4.32
  1
　浅井戸配管　　　標準ジェット（Ｊ４０－６Ｖ）使用時
 41
0.590278
  7
STANDARD
100
AcDbText
  0
TEXT
  5
79
100
AcDbEntity
  8
M0
 62
     4
100
AcDbText
 10
127.964676
 20
261.899671
 40
4.32
  1
吸込管径：３０ｍｍ
 41
0.590278
  7
STANDARD
100
AcDbText
  0
LINE
  5
7A
100
AcDbEntity
  8
M0
 62
     4
100
AcDbLine
 10
36.490221
 20
270.728843
 11
57.536187
 21
270.728843
  0
LINE
  5
7B
100
AcDbEntity
  8
M0
 62
     4
100
AcDbLine
 10
57.536187
 20
279.30758
 11
36.490221
 21
279.30758
  0
LINE
  5
7C
100
AcDbEntity
  8
M0
 62
     4
100
AcDbLine
 10
36.490221
 20
279.30758
 11
36.490221
 21
270.728843
  0
LINE
  5
7D
100
AcDbEntity
  8
M0
 62
     4
100
AcDbLine
 10
57.536187
 20
279.30758
 11
57.536187
 21
270.728843
  0
TEXT
  5
7E
100
AcDbEntity
  8
M0
 62
     4
100
AcDbText
 10
38.6878
 20
272.541986
 40
4.86
  1
揚水性能
 41
0.740741
  7
STANDARD
100
AcDbText
  0
TEXT
  5
7F
100
AcDbEntity
  8
M0
 62
     4
100
AcDbText
 10
98.253746
 20
234.929901
 40
4.32
  1
吸上高さ６ｍ時
 41
0.590278
  7
STANDARD
100
AcDbText
  0
LINE
  5
80
100
AcDbEntity
  8
M0
 62
     4
100
AcDbLine
 10
64.729424
 20
158.190943
 11
64.729425
 21
163.374944
  0
LINE
  5
81
100
AcDbEntity
  8
M0
 62
     4
100
AcDbLine
 10
64.729425
 20
163.374944
 11
86.833423
 21
163.374944
  0
LINE
  5
82
100
AcDbEntity
  8
M0
 62
     4
100
AcDbLine
 10
86.833423
 20
163.374944
 11
86.833422
 21
158.190943
  0
LINE
  5
83
100
AcDbEntity
  8
M0
 62
     4
100
AcDbLine
 10
86.833422
 20
158.190943
 11
64.729424
 21
158.190943
  0
TEXT
  5
84
100
AcDbEntity
  8
M0
 62
     4
100
AcDbText
 10
65.326424
 20
158.622943
 40
4.32
  1
　深井戸配管　　　標準ジェット（Ｊ４０－６Ｖ）使用時
 41
0.590278
  7
STANDARD
100
AcDbText
  0
TEXT
  5
85
100
AcDbEntity
  8
M0
 62
     4
100
AcDbText
 10
98.253746
 20
118.1861
 40
4.32
  1
吸上高さ１２ｍ時
 41
0.590278
  7
STANDARD
100
AcDbText
  0
TEXT
  5
86
100
AcDbEntity
  8
M0
 62
     4
100
AcDbText
 10
232.303734
 20
205.291149
 40
4.32
  1
吸上高さ１８ｍ時
 41
0.590278
  7
STANDARD
100
AcDbText
  0
TEXT
  5
87
100
AcDbEntity
  8
M0
 62
     4
100
AcDbText
 10
199.025904
 20
145.522586
 40
4.32
  1
吸上高さ３５ｍ時
 41
0.590278
  7
STANDARD
100
AcDbText
  0
TEXT
  5
88
100
AcDbEntity
  8
M0
 62
     4
100
AcDbText
 10
209.98966
 20
136.088916
 40
4.32
  1
吸上高さ３０ｍ時
 41
0.590278
  7
STANDARD
100
AcDbText
  0
TEXT
  5
89
100
AcDbEntity
  8
M0
 62
     4
100
AcDbText
 10
304.717468
 20
249.3299
 40
4.32
  1
吸上高さ２４ｍ時
 41
0.590278
  7
STANDARD
100
AcDbText
  0
TEXT
  5
8A
100
AcDbEntity
  8
M0
 62
     4
100
AcDbText
 10
326.317475
 20
234.929901
 40
4.32
  1
吸上高さ１８ｍ時
 41
0.590278
  7
STANDARD
100
AcDbText
  0
TEXT
  5
8B
100
AcDbEntity
  8
M0
 62
     4
100
AcDbText
 10
205.056172
 20
219.408519
 40
4.32
  1
吸上高さ２４ｍ時
 41
0.590278
  7
STANDARD
100
AcDbText
  0
TEXT
  5
8C
100
AcDbEntity
  8
M0
 62
     4
100
AcDbText
 10
55.564127
 20
172.692226
 40
4.32
  1
※破線部域では６０ｋＰａの圧力変動があります。
 41
0.652006
  7
STANDARD
100
AcDbText
  0
TEXT
  5
8D
100
AcDbEntity
  8
M0
 62
     4
100
AcDbText
 10
189.813689
 20
172.692226
 40
4.32
  1
※破線部域では６０ｋＰａの圧力変動があります。
 41
0.652006
  7
STANDARD
100
AcDbText
  0
TEXT
  5
8E
100
AcDbEntity
  8
M0
 62
     4
100
AcDbText
 10
290.827845
 20
172.692226
 40
4.32
  1
※破線部域では６０ｋＰａの圧力変動があります。
 41
0.652006
  7
STANDARD
100
AcDbText
  0
TEXT
  5
8F
100
AcDbEntity
  8
M0
 62
     4
100
AcDbText
 10
55.564127
 20
51.948429
 40
4.32
  1
※破線部域では６０ｋＰａの圧力変動があります。
 41
0.652006
  7
STANDARD
100
AcDbText
  0
TEXT
  5
90
100
AcDbEntity
  8
M0
 62
     4
100
AcDbText
 10
189.813689
 20
51.948429
 40
4.32
  1
※破線部域では６０ｋＰａの圧力変動があります。
 41
0.652006
  7
STANDARD
100
AcDbText
  0
LINE
  5
91
100
AcDbEntity
  8
M0
100
AcDbLine
 10
187.749755
 20
189.305842
 11
252.549755
 21
189.305842
  0
LINE
  5
92
100
AcDbEntity
  8
M0
100
AcDbLine
 10
187.749755
 20
268.505842
 11
187.749755
 21
189.305842
  0
LINE
  5
93
100
AcDbEntity
  8
M0
100
AcDbLine
 10
216.549755
 20
189.305842
 11
216.549755
 21
218.105842
  0
LINE
  5
94
100
AcDbEntity
  8
M0
100
AcDbLine
 10
245.349755
 20
189.305842
 11
245.349755
 21
203.705842
  0
LINE
  5
95
100
AcDbEntity
  8
M0
100
AcDbLine
 10
187.749755
 20
203.705842
 11
252.549755
 21
203.705842
  0
LINE
  5
96
100
AcDbEntity
  8
M0
100
AcDbLine
 10
187.749755
 20
218.105842
 11
252.549755
 21
218.105842
  0
LINE
  5
97
100
AcDbEntity
  8
M0
100
AcDbLine
 10
216.549755
 20
232.505842
 11
216.549755
 21
268.505842
  0
LINE
  5
98
100
AcDbEntity
  8
M0
100
AcDbLine
 10
202.149755
 20
189.305842
 11
202.149755
 21
268.505842
  0
LINE
  5
99
100
AcDbEntity
  8
M0
100
AcDbLine
 10
230.949755
 20
189.305842
 11
230.949755
 21
232.505842
  0
LINE
  5
9A
100
AcDbEntity
  8
M0
100
AcDbLine
 10
187.749755
 20
246.905842
 11
252.549755
 21
246.905842
  0
LINE
  5
9B
100
AcDbEntity
  8
M0
100
AcDbLine
 10
187.749755
 20
232.505842
 11
252.549755
 21
232.505842
  0
LINE
  5
9C
100
AcDbEntity
  8
M0
100
AcDbLine
 10
187.749755
 20
261.305842
 11
252.549755
 21
261.305842
  0
ARC
  5
9D
100
AcDbEntity
  8
M0
100
AcDbCircle
 10
173.663009
 20
216.485579
 40
4.8384
100
AcDbArc
 50
52.58592
 51
127.41408
  0
ARC
  5
9E
100
AcDbEntity
  8
M0
100
AcDbCircle
 10
173.663009
 20
219.522153
 40
4.8384
100
AcDbArc
 50
232.58592
 51
307.41408
  0
TEXT
  5
9F
100
AcDbEntity
  8
M0
100
AcDbText
 10
171.647006
 20
230.947015
 40
3.2256
  1
全
 41
1.25
  7
STANDARD
100
AcDbText
  0
TEXT
  5
A0
100
AcDbEntity
  8
M0
100
AcDbText
 10
171.647006
 20
227.398855
 40
3.2256
  1
揚
 41
1.25
  7
STANDARD
100
AcDbText
  0
TEXT
  5
A1
100
AcDbEntity
  8
M0
100
AcDbText
 10
171.647006
 20
223.850695
 40
3.2256
  1
程
 41
1.25
  7
STANDARD
100
AcDbText
  0
TEXT
  5
A2
100
AcDbEntity
  8
M0
100
AcDbText
 10
171.647006
 20
220.302536
 40
3.2256
  1
　
 41
1.25
  7
STANDARD
100
AcDbText
  0
TEXT
  5
A3
100
AcDbEntity
  8
M0
100
AcDbText
 10
171.647006
 20
216.754376
 40
3.2256
  1
ｍ
 41
1.25
  7
STANDARD
100
AcDbText
  0
TEXT
  5
A4
100
AcDbEntity
  8
M0
100
AcDbText
 10
179.181573
 20
230.453811
 40
4.32
  1
３０
 41
0.611111
  7
STANDARD
100
AcDbText
  0
TEXT
  5
A5
100
AcDbEntity
  8
M0
100
AcDbText
 10
179.181573
 20
216.053817
 40
4.32
  1
２０
 41
0.611111
  7
STANDARD
100
AcDbText
  0
TEXT
  5
A6
100
AcDbEntity
  8
M0
100
AcDbText
 10
179.181573
 20
201.653812
 40
4.32
  1
１０
 41
0.611111
  7
STANDARD
100
AcDbText
  0
TEXT
  5
A7
100
AcDbEntity
  8
M0
100
AcDbText
 10
182.061571
 20
187.253813
 40
4.32
  1
０
 41
0.611111
  7
STANDARD
100
AcDbText
  0
TEXT
  5
A8
100
AcDbEntity
  8
M0
100
AcDbText
 10
184.941568
 20
183.868005
 40
4.32
  1
０
 41
0.611111
  7
STANDARD
100
AcDbText
  0
TEXT
  5
A9
100
AcDbEntity
  8
M0
100
AcDbText
 10
213.741571
 20
183.868005
 40
4.32
  1
２０
 41
0.611111
  7
STANDARD
100
AcDbText
  0
TEXT
  5
AA
100
AcDbEntity
  8
M0
100
AcDbText
 10
242.541583
 20
183.868005
 40
4.32
  1
４０
 41
0.611111
  7
STANDARD
100
AcDbText
  0
TEXT
  5
AB
100
AcDbEntity
  8
M0
100
AcDbText
 10
210.036416
 20
178.240579
 40
4.8384
  1
揚水量（Ｌ／分）
 41
0.611111
  7
STANDARD
100
AcDbText
  0
TEXT
  5
AC
100
AcDbEntity
  8
M0
100
AcDbText
 10
199.341569
 20
183.868005
 40
4.32
  1
１０
 41
0.611111
  7
STANDARD
100
AcDbText
  0
TEXT
  5
AD
100
AcDbEntity
  8
M0
100
AcDbText
 10
228.141584
 20
183.868005
 40
4.32
  1
３０
 41
0.611111
  7
STANDARD
100
AcDbText
  0
TEXT
  5
AE
100
AcDbEntity
  8
M0
100
AcDbText
 10
179.181573
 20
244.853813
 40
4.32
  1
４０
 41
0.611111
  7
STANDARD
100
AcDbText
  0
TEXT
  5
AF
100
AcDbEntity
  8
M0
100
AcDbText
 10
179.181573
 20
259.253814
 40
4.32
  1
５０
 41
0.611111
  7
STANDARD
100
AcDbText
  0
LINE
  5
B0
100
AcDbEntity
  8
M0
100
AcDbLine
 10
230.949755
 20
232.505842
 11
230.949755
 21
268.505842
  0
LINE
  5
B1
100
AcDbEntity
  8
M0
100
AcDbLine
 10
216.549755
 20
224.736988
 11
216.549755
 21
232.505842
  0
LINE
  5
B2
100
AcDbEntity
  8
M0
100
AcDbLine
 10
245.349755
 20
210.224557
 11
245.349755
 21
261.305842
  0
LINE
  5
B3
100
AcDbEntity
  8
M0
  6
DASHED
100
AcDbLine
 10
187.749755
 20
251.225842
 11
208.604171
 21
251.225842
  0
LINE
  5
B4
100
AcDbEntity
  8
M0
100
AcDbLine
 10
209.876963
 20
250.698634
 11
212.229755
 21
248.345842
  0
LINE
  5
B5
100
AcDbEntity
  8
M0
100
AcDbLine
 10
212.229755
 20
248.345842
 11
218.227446
 21
244.347382
  0
LINE
  5
B6
100
AcDbEntity
  8
M0
100
AcDbLine
 10
219.429755
 20
242.100846
 11
219.429755
 21
226.801028
  0
LINE
  5
B7
100
AcDbEntity
  8
M0
  6
DASHED
100
AcDbLine
 10
187.749755
 20
242.585842
 11
226.50668
 21
242.585842
  0
LINE
  5
B8
100
AcDbEntity
  8
M0
100
AcDbLine
 10
227.889479
 20
241.938174
 11
234.852554
 21
233.582484
  0
LINE
  5
B9
100
AcDbEntity
  8
M0
100
AcDbLine
 10
235.269755
 20
215.526953
 11
235.269755
 21
232.430152
  0
ARC
  5
BA
100
AcDbEntity
  8
M0
100
AcDbCircle
 10
208.604171
 20
249.425842
 40
1.8
100
AcDbArc
 50
45.0
 51
90.0
  0
ARC
  5
BB
100
AcDbEntity
  8
M0
100
AcDbCircle
 10
216.729755
 20
242.100846
 40
2.7
100
AcDbArc
 50
0.0
 51
56.309932
  0
ARC
  5
BC
100
AcDbEntity
  8
M0
100
AcDbCircle
 10
226.50668
 20
240.785842
 40
1.8
100
AcDbArc
 50
39.805571
 51
90.0
  0
ARC
  5
BD
100
AcDbEntity
  8
M0
100
AcDbCircle
 10
233.469755
 20
232.430152
 40
1.8
100
AcDbArc
 50
0.0
 51
39.805571
  0
LINE
  5
BE
100
AcDbEntity
  8
M0
 62
     7
100
AcDbLine
 10
170.116355
 20
160.139749
 11
170.116357
 21
165.32375
  0
LINE
  5
BF
100
AcDbEntity
  8
M0
 62
     7
100
AcDbLine
 10
170.116357
 20
165.32375
 11
186.100357
 21
165.32375
  0
LINE
  5
C0
100
AcDbEntity
  8
M0
 62
     7
100
AcDbLine
 10
186.100357
 20
165.32375
 11
186.100356
 21
160.139749
  0
LINE
  5
C1
100
AcDbEntity
  8
M0
 62
     7
100
AcDbLine
 10
186.100356
 20
160.139749
 11
170.116355
 21
160.139749
  0
TEXT
  5
C2
100
AcDbEntity
  8
M0
 62
     7
100
AcDbText
 10
170.713355
 20
160.571749
 40
4.32
  1
　深井戸　　　専用ジェット（Ｊ７５－３５Ｖ）使用時
 41
0.590278
  7
STANDARD
100
AcDbText
  0
LINE
  5
C3
100
AcDbEntity
  8
M0
 62
     7
100
AcDbLine
 10
169.637499
 20
272.597803
 11
169.6375
 21
277.781803
  0
LINE
  5
C4
100
AcDbEntity
  8
M0
 62
     7
100
AcDbLine
 10
169.6375
 20
277.781803
 11
185.6215
 21
277.781803
  0
LINE
  5
C5
100
AcDbEntity
  8
M0
 62
     7
100
AcDbLine
 10
185.6215
 20
277.781803
 11
185.621499
 21
272.597803
  0
LINE
  5
C6
100
AcDbEntity
  8
M0
 62
     7
100
AcDbLine
 10
185.621499
 20
272.597803
 11
169.637499
 21
272.597803
  0
TEXT
  5
C7
100
AcDbEntity
  8
M0
 62
     7
100
AcDbText
 10
170.234499
 20
273.029803
 40
4.32
  1
　深井戸　　　専用ジェット（Ｊ７５－２４Ｖ）使用時
 41
0.590278
  7
STANDARD
100
AcDbText
  0
TEXT
  5
C8
100
AcDbEntity
  8
M0
 62
     6
100
AcDbText
 10
235.373374
 20
262.263555
 40
4.32
  1
圧力管径：３０ｍｍ
 41
0.590278
  7
STANDARD
100
AcDbText
  0
TEXT
  5
C9
100
AcDbEntity
  8
M0
 62
     6
100
AcDbText
 10
235.373374
 20
267.657636
 40
4.32
  1
吸込管径：３０ｍｍ
 41
0.590278
  7
STANDARD
100
AcDbText
  0
TEXT
  5
CA
100
AcDbEntity
  8
M0
 62
     6
100
AcDbText
 10
235.373374
 20
150.913833
 40
4.32
  1
吸込管径：３０ｍｍ
 41
0.590278
  7
STANDARD
100
AcDbText
  0
TEXT
  5
CB
100
AcDbEntity
  8
M0
 62
     6
100
AcDbText
 10
235.373374
 20
145.519752
 40
4.32
  1
圧力管径：３０ｍｍ
 41
0.590278
  7
STANDARD
100
AcDbText
  0
TEXT
  5
CC
100
AcDbEntity
  8
M0
 62
     6
100
AcDbText
 10
129.92381
 20
150.913833
 40
4.32
  1
吸込管径：３０ｍｍ
 41
0.590278
  7
STANDARD
100
AcDbText
  0
TEXT
  5
CD
100
AcDbEntity
  8
M0
 62
     6
100
AcDbText
 10
129.92381
 20
145.519752
 40
4.32
  1
圧力管径：２５ｍｍ
 41
0.590278
  7
STANDARD
100
AcDbText
  0
LINE
  5
CE
100
AcDbEntity
  8
M0
 62
   114
100
AcDbLine
 10
187.749755
 20
144.562039
 11
252.549755
 21
144.562039
  0
LINE
  5
CF
100
AcDbEntity
  8
M0
 62
   114
100
AcDbLine
 10
187.749755
 20
72.562039
 11
252.549755
 21
72.562039
  0
LINE
  5
D0
100
AcDbEntity
  8
M0
 62
   114
100
AcDbLine
 10
216.549755
 20
72.562039
 11
216.549755
 21
115.762039
  0
LINE
  5
D1
100
AcDbEntity
  8
M0
 62
   114
100
AcDbLine
 10
245.349755
 20
72.562039
 11
245.349755
 21
144.562039
  0
LINE
  5
D2
100
AcDbEntity
  8
M0
 62
   114
100
AcDbLine
 10
187.749755
 20
86.962039
 11
252.549755
 21
86.962039
  0
LINE
  5
D3
100
AcDbEntity
  8
M0
 62
   114
100
AcDbLine
 10
187.749755
 20
101.362039
 11
252.549755
 21
101.362039
  0
LINE
  5
D4
100
AcDbEntity
  8
M0
 62
   114
100
AcDbLine
 10
216.549755
 20
115.762039
 11
216.549755
 21
135.107708
  0
LINE
  5
D5
100
AcDbEntity
  8
M0
 62
   114
100
AcDbLine
 10
202.149755
 20
72.562039
 11
202.149755
 21
144.562039
  0
LINE
  5
D6
100
AcDbEntity
  8
M0
 62
   114
100
AcDbLine
 10
230.949755
 20
72.562039
 11
230.949755
 21
133.981949
  0
LINE
  5
D7
100
AcDbEntity
  8
M0
 62
   114
100
AcDbLine
 10
187.749755
 20
130.162039
 11
252.549755
 21
130.162039
  0
LINE
  5
D8
100
AcDbEntity
  8
M0
 62
   114
100
AcDbLine
 10
187.749755
 20
115.762039
 11
252.549755
 21
115.762039
  0
LINE
  5
D9
100
AcDbEntity
  8
M0
 62
   114
100
AcDbLine
 10
187.749755
 20
158.962039
 11
187.749755
 21
72.562039
  0
ARC
  5
DA
100
AcDbEntity
  8
M0
 62
   114
100
AcDbCircle
 10
172.701216
 20
101.256971
 40
4.8384
100
AcDbArc
 50
52.58592
 51
127.41408
  0
ARC
  5
DB
100
AcDbEntity
  8
M0
 62
   114
100
AcDbCircle
 10
172.701216
 20
104.293544
 40
4.8384
100
AcDbArc
 50
232.58592
 51
307.41408
  0
TEXT
  5
DC
100
AcDbEntity
  8
M0
 62
   114
100
AcDbText
 10
170.68522
 20
115.718406
 40
3.2256
  1
全
 41
1.25
  7
STANDARD
100
AcDbText
  0
TEXT
  5
DD
100
AcDbEntity
  8
M0
 62
   114
100
AcDbText
 10
170.68522
 20
112.170247
 40
3.2256
  1
揚
 41
1.25
  7
STANDARD
100
AcDbText
  0
TEXT
  5
DE
100
AcDbEntity
  8
M0
 62
   114
100
AcDbText
 10
170.68522
 20
108.622087
 40
3.2256
  1
程
 41
1.25
  7
STANDARD
100
AcDbText
  0
TEXT
  5
DF
100
AcDbEntity
  8
M0
 62
   114
100
AcDbText
 10
170.68522
 20
105.073927
 40
3.2256
  1
　
 41
1.25
  7
STANDARD
100
AcDbText
  0
TEXT
  5
E0
100
AcDbEntity
  8
M0
 62
   114
100
AcDbText
 10
170.68522
 20
101.525767
 40
3.2256
  1
ｍ
 41
1.25
  7
STANDARD
100
AcDbText
  0
TEXT
  5
E1
100
AcDbEntity
  8
M0
 62
   114
100
AcDbText
 10
179.181576
 20
113.710013
 40
4.32
  1
３０
 41
0.611111
  7
STANDARD
100
AcDbText
  0
TEXT
  5
E2
100
AcDbEntity
  8
M0
 62
   114
100
AcDbText
 10
179.181576
 20
99.310013
 40
4.32
  1
２０
 41
0.611111
  7
STANDARD
100
AcDbText
  0
TEXT
  5
E3
100
AcDbEntity
  8
M0
 62
   114
100
AcDbText
 10
179.181576
 20
84.910012
 40
4.32
  1
１０
 41
0.611111
  7
STANDARD
100
AcDbText
  0
TEXT
  5
E4
100
AcDbEntity
  8
M0
 62
   114
100
AcDbText
 10
182.061573
 20
70.510014
 40
4.32
  1
０
 41
0.611111
  7
STANDARD
100
AcDbText
  0
TEXT
  5
E5
100
AcDbEntity
  8
M0
 62
   114
100
AcDbText
 10
184.941578
 20
65.324208
 40
4.32
  1
０
 41
0.611111
  7
STANDARD
100
AcDbText
  0
TEXT
  5
E6
100
AcDbEntity
  8
M0
 62
   114
100
AcDbText
 10
213.741562
 20
65.324208
 40
4.32
  1
２０
 41
0.611111
  7
STANDARD
100
AcDbText
  0
TEXT
  5
E7
100
AcDbEntity
  8
M0
 62
   114
100
AcDbText
 10
242.541576
 20
65.324208
 40
4.32
  1
４０
 41
0.611111
  7
STANDARD
100
AcDbText
  0
TEXT
  5
E8
100
AcDbEntity
  8
M0
 62
   114
100
AcDbText
 10
209.291631
 20
58.505421
 40
4.8384
  1
揚水量（Ｌ／分）
 41
0.611111
  7
STANDARD
100
AcDbText
  0
TEXT
  5
E9
100
AcDbEntity
  8
M0
 62
   114
100
AcDbText
 10
199.341575
 20
65.324208
 40
4.32
  1
１０
 41
0.611111
  7
STANDARD
100
AcDbText
  0
TEXT
  5
EA
100
AcDbEntity
  8
M0
 62
   114
100
AcDbText
 10
228.141576
 20
65.324208
 40
4.32
  1
３０
 41
0.611111
  7
STANDARD
100
AcDbText
  0
TEXT
  5
EB
100
AcDbEntity
  8
M0
 62
   114
100
AcDbText
 10
179.181576
 20
128.110012
 40
4.32
  1
４０
 41
0.611111
  7
STANDARD
100
AcDbText
  0
TEXT
  5
EC
100
AcDbEntity
  8
M0
 62
   114
100
AcDbText
 10
179.181576
 20
142.510012
 40
4.32
  1
５０
 41
0.611111
  7
STANDARD
100
AcDbText
  0
LINE
  5
ED
100
AcDbEntity
  8
M0
 62
   114
100
AcDbLine
 10
230.949755
 20
140.904823
 11
230.949755
 21
158.962039
  0
LINE
  5
EE
100
AcDbEntity
  8
M0
 62
   114
100
AcDbLine
 10
216.549755
 20
141.228062
 11
216.549755
 21
144.562039
  0
LINE
  5
EF
100
AcDbEntity
  8
M0
 62
   114
100
AcDbLine
 10
187.749755
 20
158.962039
 11
252.549755
 21
158.962039
  0
TEXT
  5
F0
100
AcDbEntity
  8
M0
 62
   114
100
AcDbText
 10
179.620144
 20
154.134608
 40
4.32
  1
６０
 41
0.611111
  7
STANDARD
100
AcDbText
  0
LINE
  5
F1
100
AcDbEntity
  8
M0
 62
   114
100
AcDbLine
 10
202.149755
 20
151.25129
 11
202.149755
 21
158.962039
  0
LINE
  5
F2
100
AcDbEntity
  8
M0
 62
   114
100
AcDbLine
 10
216.549755
 20
151.548535
 11
216.549755
 21
158.962039
  0
LINE
  5
F3
100
AcDbEntity
  8
M0
 62
     2
100
AcDbLine
 10
53.500194
 20
72.562039
 11
153.400194
 21
72.562039
  0
LINE
  5
F4
100
AcDbEntity
  8
M0
 62
     2
100
AcDbLine
 10
53.500194
 20
151.762039
 11
53.500194
 21
72.562039
  0
LINE
  5
F5
100
AcDbEntity
  8
M0
 62
     2
100
AcDbLine
 10
82.300194
 20
72.562039
 11
82.300194
 21
115.762039
  0
LINE
  5
F6
100
AcDbEntity
  8
M0
 62
     2
100
AcDbLine
 10
111.100194
 20
72.562039
 11
111.100194
 21
115.762039
  0
LINE
  5
F7
100
AcDbEntity
  8
M0
 62
     2
100
AcDbLine
 10
139.900194
 20
72.562039
 11
139.900194
 21
144.562039
  0
LINE
  5
F8
100
AcDbEntity
  8
M0
 62
     2
100
AcDbLine
 10
53.500194
 20
86.962039
 11
153.400194
 21
86.962039
  0
LINE
  5
F9
100
AcDbEntity
  8
M0
 62
     2
100
AcDbLine
 10
53.500194
 20
101.362039
 11
153.400194
 21
101.362039
  0
LINE
  5
FA
100
AcDbEntity
  8
M0
 62
     2
100
AcDbLine
 10
82.300194
 20
115.762039
 11
82.300194
 21
151.762039
  0
LINE
  5
FB
100
AcDbEntity
  8
M0
 62
     2
100
AcDbLine
 10
67.900194
 20
72.562039
 11
67.900194
 21
151.762039
  0
LINE
  5
FC
100
AcDbEntity
  8
M0
 62
     2
100
AcDbLine
 10
96.700194
 20
72.562039
 11
96.700194
 21
151.762039
  0
LINE
  5
FD
100
AcDbEntity
  8
M0
 62
     2
100
AcDbLine
 10
125.500194
 20
72.562039
 11
125.500194
 21
151.762039
  0
LINE
  5
FE
100
AcDbEntity
  8
M0
 62
     2
100
AcDbLine
 10
53.500194
 20
130.162039
 11
153.400194
 21
130.162039
  0
LINE
  5
FF
100
AcDbEntity
  8
M0
 62
     2
100
AcDbLine
 10
53.500194
 20
115.762039
 11
153.400194
 21
115.762039
  0
LINE
  5
100
100
AcDbEntity
  8
M0
 62
     2
100
AcDbLine
 10
53.500194
 20
144.562039
 11
153.400194
 21
144.562039
  0
ARC
  5
101
100
AcDbEntity
  8
M0
 62
     2
100
AcDbCircle
 10
38.503113
 20
102.84123
 40
4.8384
100
AcDbArc
 50
52.58592
 51
127.41408
  0
ARC
  5
102
100
AcDbEntity
  8
M0
 62
     2
100
AcDbCircle
 10
38.503113
 20
105.877803
 40
4.8384
100
AcDbArc
 50
232.58592
 51
307.41408
  0
TEXT
  5
103
100
AcDbEntity
  8
M0
 62
     2
100
AcDbText
 10
36.487107
 20
117.302675
 40
3.2256
  1
全
 41
1.25
  7
STANDARD
100
AcDbText
  0
TEXT
  5
104
100
AcDbEntity
  8
M0
 62
     2
100
AcDbText
 10
36.487107
 20
113.754515
 40
3.2256
  1
揚
 41
1.25
  7
STANDARD
100
AcDbText
  0
TEXT
  5
105
100
AcDbEntity
  8
M0
 62
     2
100
AcDbText
 10
36.487107
 20
110.206356
 40
3.2256
  1
程
 41
1.25
  7
STANDARD
100
AcDbText
  0
TEXT
  5
106
100
AcDbEntity
  8
M0
 62
     2
100
AcDbText
 10
36.487107
 20
106.658196
 40
3.2256
  1
　
 41
1.25
  7
STANDARD
100
AcDbText
  0
TEXT
  5
107
100
AcDbEntity
  8
M0
 62
     2
100
AcDbText
 10
36.487107
 20
103.110036
 40
3.2256
  1
ｍ
 41
1.25
  7
STANDARD
100
AcDbText
  0
TEXT
  5
108
100
AcDbEntity
  8
M0
 62
     2
100
AcDbText
 10
44.932014
 20
113.710011
 40
4.32
  1
３０
 41
0.611111
  7
STANDARD
100
AcDbText
  0
TEXT
  5
109
100
AcDbEntity
  8
M0
 62
     2
100
AcDbText
 10
44.932014
 20
99.310011
 40
4.32
  1
２０
 41
0.611111
  7
STANDARD
100
AcDbText
  0
TEXT
  5
10A
100
AcDbEntity
  8
M0
 62
     2
100
AcDbText
 10
44.932014
 20
84.910011
 40
4.32
  1
１０
 41
0.611111
  7
STANDARD
100
AcDbText
  0
TEXT
  5
10B
100
AcDbEntity
  8
M0
 62
     2
100
AcDbText
 10
47.812011
 20
70.51001
 40
4.32
  1
０
 41
0.611111
  7
STANDARD
100
AcDbText
  0
TEXT
  5
10C
100
AcDbEntity
  8
M0
 62
     2
100
AcDbText
 10
50.692008
 20
65.324203
 40
4.32
  1
０
 41
0.611111
  7
STANDARD
100
AcDbText
  0
TEXT
  5
10D
100
AcDbEntity
  8
M0
 62
     2
100
AcDbText
 10
79.492011
 20
65.324203
 40
4.32
  1
２０
 41
0.611111
  7
STANDARD
100
AcDbText
  0
TEXT
  5
10E
100
AcDbEntity
  8
M0
 62
     2
100
AcDbText
 10
108.292014
 20
65.324203
 40
4.32
  1
４０
 41
0.611111
  7
STANDARD
100
AcDbText
  0
TEXT
  5
10F
100
AcDbEntity
  8
M0
 62
     2
100
AcDbText
 10
89.166888
 20
58.094494
 40
4.8384
  1
揚水量（Ｌ／分）
 41
0.611111
  7
STANDARD
100
AcDbText
  0
TEXT
  5
110
100
AcDbEntity
  8
M0
 62
     2
100
AcDbText
 10
137.092012
 20
65.324203
 40
4.32
  1
６０
 41
0.611111
  7
STANDARD
100
AcDbText
  0
TEXT
  5
111
100
AcDbEntity
  8
M0
 62
     2
100
AcDbText
 10
65.09201
 20
65.324203
 40
4.32
  1
１０
 41
0.611111
  7
STANDARD
100
AcDbText
  0
TEXT
  5
112
100
AcDbEntity
  8
M0
 62
     2
100
AcDbText
 10
93.892016
 20
65.324203
 40
4.32
  1
３０
 41
0.611111
  7
STANDARD
100
AcDbText
  0
TEXT
  5
113
100
AcDbEntity
  8
M0
 62
     2
100
AcDbText
 10
122.692008
 20
65.324203
 40
4.32
  1
５０
 41
0.611111
  7
STANDARD
100
AcDbText
  0
TEXT
  5
114
100
AcDbEntity
  8
M0
 62
     2
100
AcDbText
 10
44.932014
 20
128.110012
 40
4.32
  1
４０
 41
0.611111
  7
STANDARD
100
AcDbText
  0
TEXT
  5
115
100
AcDbEntity
  8
M0
 62
     2
100
AcDbText
 10
44.932014
 20
142.510014
 40
4.32
  1
５０
 41
0.611111
  7
STANDARD
100
AcDbText
  0
LINE
  5
116
100
AcDbEntity
  8
M0
 62
     2
100
AcDbLine
 10
111.100194
 20
124.942894
 11
111.100194
 21
151.762039
  0
LINE
  5
117
100
AcDbEntity
  8
M0
  6
DASHED
 62
     2
100
AcDbLine
 10
53.500194
 20
117.202039
 11
96.373792
 21
117.202039
  0
LINE
  5
118
100
AcDbEntity
  8
M0
 62
     2
100
AcDbLine
 10
97.005814
 20
117.087431
 11
108.220194
 21
112.882039
  0
ARC
  5
119
100
AcDbEntity
  8
M0
 62
     2
100
AcDbCircle
 10
96.373792
 20
115.402039
 40
1.8
100
AcDbArc
 50
69.443955
 51
90.0
  0
LINE
  5
11A
100
AcDbEntity
  8
M0
 62
     2
100
AcDbLine
 10
108.220194
 20
112.882039
 11
118.376758
 21
110.342898
  0
LINE
  5
11B
100
AcDbEntity
  8
M0
 62
     2
100
AcDbLine
 10
119.740194
 20
92.173734
 11
119.740194
 21
108.596641
  0
ARC
  5
11C
100
AcDbEntity
  8
M0
 62
     2
100
AcDbCircle
 10
117.940194
 20
108.596641
 40
1.8
100
AcDbArc
 50
0.0
 51
75.963757
  0
LINE
  5
11D
100
AcDbEntity
  8
M0
 62
     6
100
AcDbLine
 10
288.763912
 20
189.305842
 11
353.563912
 21
189.305842
  0
LINE
  5
11E
100
AcDbEntity
  8
M0
 62
     6
100
AcDbLine
 10
288.763912
 20
268.505842
 11
288.763912
 21
189.305842
  0
LINE
  5
11F
100
AcDbEntity
  8
M0
 62
     6
100
AcDbLine
 10
317.563912
 20
189.305842
 11
317.563912
 21
232.505842
  0
LINE
  5
120
100
AcDbEntity
  8
M0
 62
     6
100
AcDbLine
 10
346.363912
 20
189.305842
 11
346.363912
 21
232.505842
  0
LINE
  5
121
100
AcDbEntity
  8
M0
 62
     6
100
AcDbLine
 10
288.763912
 20
203.705842
 11
353.563912
 21
203.705842
  0
LINE
  5
122
100
AcDbEntity
  8
M0
 62
     6
100
AcDbLine
 10
288.763912
 20
218.105842
 11
353.563912
 21
218.105842
  0
LINE
  5
123
100
AcDbEntity
  8
M0
 62
     6
100
AcDbLine
 10
317.563912
 20
232.505842
 11
317.563912
 21
246.905842
  0
LINE
  5
124
100
AcDbEntity
  8
M0
 62
     6
100
AcDbLine
 10
303.163912
 20
189.305842
 11
303.163912
 21
268.505842
  0
LINE
  5
125
100
AcDbEntity
  8
M0
 62
     6
100
AcDbLine
 10
331.963912
 20
189.305842
 11
331.963912
 21
232.505842
  0
LINE
  5
126
100
AcDbEntity
  8
M0
 62
     6
100
AcDbLine
 10
288.763912
 20
246.905842
 11
353.563912
 21
246.905842
  0
LINE
  5
127
100
AcDbEntity
  8
M0
 62
     6
100
AcDbLine
 10
288.763912
 20
232.505842
 11
353.563912
 21
232.505842
  0
LINE
  5
128
100
AcDbEntity
  8
M0
 62
     6
100
AcDbLine
 10
288.763912
 20
261.305842
 11
353.563912
 21
261.305842
  0
LINE
  5
129
100
AcDbEntity
  8
M0
  6
DASHED
 62
     6
100
AcDbLine
 10
288.763912
 20
251.225842
 11
300.16278
 21
251.225842
  0
LINE
  5
12A
100
AcDbEntity
  8
M0
 62
     6
100
AcDbLine
 10
303.163912
 20
241.01792
 11
303.163912
 21
225.463425
  0
LINE
  5
12B
100
AcDbEntity
  8
M0
 62
     6
100
AcDbLine
 10
301.944689
 20
249.680401
 11
303.145821
 21
241.272479
  0
LINE
  5
12C
100
AcDbEntity
  8
M0
  6
DASHED
 62
     6
100
AcDbLine
 10
288.763912
 20
242.585842
 11
315.223912
 21
242.585842
  0
LINE
  5
12D
100
AcDbEntity
  8
M0
 62
     6
100
AcDbLine
 10
316.663912
 20
241.865842
 11
322.302784
 21
234.347346
  0
LINE
  5
12E
100
AcDbEntity
  8
M0
 62
     6
100
AcDbLine
 10
323.323912
 20
226.745842
 11
323.323912
 21
215.718039
  0
LINE
  5
12F
100
AcDbEntity
  8
M0
 62
     6
100
AcDbLine
 10
322.653851
 20
233.446453
 11
323.323912
 21
226.745842
  0
ARC
  5
130
100
AcDbEntity
  8
M0
 62
     6
100
AcDbCircle
 10
300.16278
 20
249.425842
 40
1.8
100
AcDbArc
 50
8.130102
 51
90.0
  0
ARC
  5
131
100
AcDbEntity
  8
M0
 62
     6
100
AcDbCircle
 10
301.363912
 20
241.01792
 40
1.8
100
AcDbArc
 50
0.0
 51
8.130102
  0
ARC
  5
132
100
AcDbEntity
  8
M0
 62
     6
100
AcDbCircle
 10
315.223912
 20
240.785842
 40
1.8
100
AcDbArc
 50
36.869898
 51
90.0
  0
ARC
  5
133
100
AcDbEntity
  8
M0
 62
     6
100
AcDbCircle
 10
320.862784
 20
233.267346
 40
1.8
100
AcDbArc
 50
5.710593
 51
36.869898
  0
ARC
  5
134
100
AcDbEntity
  8
M0
 62
     6
100
AcDbCircle
 10
274.763671
 20
214.756491
 40
4.8384
100
AcDbArc
 50
52.58592
 51
127.41408
  0
ARC
  5
135
100
AcDbEntity
  8
M0
 62
     6
100
AcDbCircle
 10
274.763671
 20
217.793065
 40
4.8384
100
AcDbArc
 50
232.58592
 51
307.41408
  0
TEXT
  5
136
100
AcDbEntity
  8
M0
 62
     6
100
AcDbText
 10
272.747674
 20
229.217934
 40
3.2256
  1
全
 41
1.25
  7
STANDARD
100
AcDbText
  0
TEXT
  5
137
100
AcDbEntity
  8
M0
 62
     6
100
AcDbText
 10
272.747674
 20
225.669774
 40
3.2256
  1
揚
 41
1.25
  7
STANDARD
100
AcDbText
  0
TEXT
  5
138
100
AcDbEntity
  8
M0
 62
     6
100
AcDbText
 10
272.747674
 20
222.121614
 40
3.2256
  1
程
 41
1.25
  7
STANDARD
100
AcDbText
  0
TEXT
  5
139
100
AcDbEntity
  8
M0
 62
     6
100
AcDbText
 10
272.747674
 20
218.573455
 40
3.2256
  1
　
 41
1.25
  7
STANDARD
100
AcDbText
  0
TEXT
  5
13A
100
AcDbEntity
  8
M0
 62
     6
100
AcDbText
 10
272.747674
 20
215.025295
 40
3.2256
  1
ｍ
 41
1.25
  7
STANDARD
100
AcDbText
  0
TEXT
  5
13B
100
AcDbEntity
  8
M0
 62
     6
100
AcDbText
 10
280.195728
 20
230.453814
 40
4.32
  1
３０
 41
0.611111
  7
STANDARD
100
AcDbText
  0
TEXT
  5
13C
100
AcDbEntity
  8
M0
 62
     6
100
AcDbText
 10
280.195728
 20
216.053811
 40
4.32
  1
２０
 41
0.611111
  7
STANDARD
100
AcDbText
  0
TEXT
  5
13D
100
AcDbEntity
  8
M0
 62
     6
100
AcDbText
 10
280.195728
 20
201.653819
 40
4.32
  1
１０
 41
0.611111
  7
STANDARD
100
AcDbText
  0
TEXT
  5
13E
100
AcDbEntity
  8
M0
 62
     6
100
AcDbText
 10
283.075725
 20
187.253811
 40
4.32
  1
０
 41
0.611111
  7
STANDARD
100
AcDbText
  0
TEXT
  5
13F
100
AcDbEntity
  8
M0
 62
     6
100
AcDbText
 10
285.955735
 20
183.868003
 40
4.32
  1
０
 41
0.611111
  7
STANDARD
100
AcDbText
  0
TEXT
  5
140
100
AcDbEntity
  8
M0
 62
     6
100
AcDbText
 10
314.755709
 20
183.868003
 40
4.32
  1
２０
 41
0.611111
  7
STANDARD
100
AcDbText
  0
TEXT
  5
141
100
AcDbEntity
  8
M0
 62
     6
100
AcDbText
 10
343.555736
 20
183.868003
 40
4.32
  1
４０
 41
0.611111
  7
STANDARD
100
AcDbText
  0
TEXT
  5
142
100
AcDbEntity
  8
M0
 62
     6
100
AcDbText
 10
309.70272
 20
178.177243
 40
4.8384
  1
揚水量（Ｌ／分）
 41
0.611111
  7
STANDARD
100
AcDbText
  0
TEXT
  5
143
100
AcDbEntity
  8
M0
 62
     6
100
AcDbText
 10
300.355737
 20
183.868003
 40
4.32
  1
１０
 41
0.611111
  7
STANDARD
100
AcDbText
  0
TEXT
  5
144
100
AcDbEntity
  8
M0
 62
     6
100
AcDbText
 10
329.155736
 20
183.868003
 40
4.32
  1
３０
 41
0.611111
  7
STANDARD
100
AcDbText
  0
TEXT
  5
145
100
AcDbEntity
  8
M0
 62
     6
100
AcDbText
 10
280.195728
 20
244.853816
 40
4.32
  1
４０
 41
0.611111
  7
STANDARD
100
AcDbText
  0
TEXT
  5
146
100
AcDbEntity
  8
M0
 62
     6
100
AcDbText
 10
280.195728
 20
259.253817
 40
4.32
  1
５０
 41
0.611111
  7
STANDARD
100
AcDbText
  0
LINE
  5
147
100
AcDbEntity
  8
M0
 62
     6
100
AcDbLine
 10
317.563912
 20
255.591875
 11
317.563912
 21
268.505842
  0
LINE
  5
148
100
AcDbEntity
  8
M0
 62
     6
100
AcDbLine
 10
331.963912
 20
240.967872
 11
331.963912
 21
268.505842
  0
LINE
  5
149
100
AcDbEntity
  8
M0
 62
     6
100
AcDbLine
 10
346.363912
 20
240.967872
 11
346.363912
 21
261.305842
  0
LINE
  5
14A
100
AcDbEntity
  8
M0
100
AcDbLine
 10
270.630558
 20
273.74379
 11
270.63056
 21
278.927791
  0
LINE
  5
14B
100
AcDbEntity
  8
M0
100
AcDbLine
 10
270.63056
 20
278.927791
 11
286.614563
 21
278.927791
  0
LINE
  5
14C
100
AcDbEntity
  8
M0
100
AcDbLine
 10
286.614563
 20
278.927791
 11
286.614561
 21
273.74379
  0
LINE
  5
14D
100
AcDbEntity
  8
M0
100
AcDbLine
 10
286.614561
 20
273.74379
 11
270.630558
 21
273.74379
  0
TEXT
  5
14E
100
AcDbEntity
  8
M0
100
AcDbText
 10
271.227559
 20
274.17579
 40
4.32
  1
　深井戸　　　シングルジェット（Ｊ４０－２４ＳＶ）使用時
 41
0.590278
  7
STANDARD
100
AcDbText
  0
TEXT
  5
14F
100
AcDbEntity
  8
M0
100
AcDbText
 10
336.10896
 20
262.43052
 40
4.32
  1
吸込管（Ｂ）３０ｍｍ
 41
0.590278
  7
STANDARD
100
AcDbText
  0
LINE
  5
150
100
AcDbEntity
  8
M0
  6
DASHED
100
AcDbLine
 10
187.749755
 20
150.322039
 11
195.426425
 21
150.322039
  0
ARC
  5
151
100
AcDbEntity
  8
M0
100
AcDbCircle
 10
195.426425
 20
148.522039
 40
1.8
100
AcDbArc
 50
33.690068
 51
90.0
  0
LINE
  5
152
100
AcDbEntity
  8
M0
100
AcDbLine
 10
196.924115
 20
149.520499
 11
199.070063
 21
146.301577
  0
ARC
  5
153
100
AcDbEntity
  8
M0
100
AcDbCircle
 10
200.349755
 20
142.158708
 40
1.8
100
AcDbArc
 50
0.0
 51
46.078465
  0
LINE
  5
154
100
AcDbEntity
  8
M0
100
AcDbLine
 10
202.149755
 20
142.158708
 11
202.149755
 21
124.658356
  0
LINE
  5
155
100
AcDbEntity
  8
M0
  6
DASHED
100
AcDbLine
 10
187.749755
 20
143.122039
 11
204.066425
 21
143.122039
  0
LINE
  5
156
100
AcDbEntity
  8
M0
100
AcDbLine
 10
205.564115
 20
142.320499
 11
207.607446
 21
139.255503
  0
LINE
  5
157
100
AcDbEntity
  8
M0
100
AcDbLine
 10
207.909755
 20
117.202039
 11
207.909755
 21
138.257042
  0
ARC
  5
158
100
AcDbEntity
  8
M0
100
AcDbCircle
 10
204.066425
 20
141.322039
 40
1.8
100
AcDbArc
 50
33.690068
 51
90.0
  0
ARC
  5
159
100
AcDbEntity
  8
M0
100
AcDbCircle
 10
206.109755
 20
138.257042
 40
1.8
100
AcDbArc
 50
0.0
 51
33.690068
  0
LINE
  5
15A
100
AcDbEntity
  8
M0
100
AcDbLine
 10
199.070063
 20
146.301577
 11
201.598366
 21
143.455231
  0
ENDSEC
  0
SECTION
  2
OBJECTS
  0
DICTIONARY
  5
C
100
AcDbDictionary
  3
ACAD_GROUP
350
D
  3
ACAD_MLINESTYLE
350
E
  0
DICTIONARY
  5
D
102
{ACAD_REACTORS
330
C
102
}
100
AcDbDictionary
  0
DICTIONARY
  5
E
102
{ACAD_REACTORS
330
C
102
}
100
AcDbDictionary
  3
STANDARD
350
13
  0
MLINESTYLE
  5
13
102
{ACAD_REACTORS
330
E
102
}
100
AcDbMlineStyle
  2
STANDARD
 70
     0
  3

 62
     0
 51
90.0
 52
90.0
 71
     2
 49
0.5
 62
   256
  6
BYLAYER
 49
-0.5
 62
   256
  6
BYLAYER
  0
ENDSEC
  0
EOF
