  0
SECTION
  2
HEADER
  9
$ACADVER
  1
AC1012
  9
$INSBASE
 10
0.000000
 20
0.000000
 30
0.0
  9
$VIEWCTR
 10
7.531722
 20
4.5
  9
$VIEWSIZE
 40
9.0
  9
$SNAPMODE
 70
     0
  9
$SNAPUNIT
 10
1.0
 20
1.0
  9
$SNAPBASE
 10
0.0
 20
0.0
  9
$SNAPANG
 50
0.0
  9
$SNAPSTYLE
 70
     0
  9
$SNAPISOPAIR
 70
     0
  9
$GRIDMODE
 70
     0
  9
$GRIDUNIT
 10
0.0
 20
0.0
  9
$ORTHOMODE
 70
     0
  9
$REGENMODE
 70
     1
  9
$FILLMODE
 70
     1
  9
$QTEXTMODE
 70
     0
  9
$DRAGMODE
 70
     2
  9
$LTSCALE
  40
     1.000000
  9
$OSMODE
 70
     0
  9
$ATTMODE
 70
     1
  9
$TEXTSIZE
 40
0.2
  9
$TRACEWID
 40
0.05
  9
$TEXTSTYLE
  7
STANDARD
  9
$CELTYPE
  6
BYLAYER
  9
$CECOLOR
 62
   256
  9
$DIMSCALE
 40
1.0
  9
$DIMASZ
 40
0.18
  9
$DIMEXO
 40
0.0625
  9
$DIMDLI
 40
0.38
  9
$DIMRND
 40
0.0
  9
$DIMDLE
 40
0.0
  9
$DIMEXE
 40
0.18
  9
$DIMTP
 40
0.0
  9
$DIMTM
 40
0.0
  9
$DIMTXT
 40
0.18
  9
$DIMCEN
 40
0.09
  9
$DIMTSZ
 40
0.0
  9
$DIMTOL
 70
     0
  9
$DIMLIM
 70
     0
  9
$DIMTIH
 70
     1
  9
$DIMTOH
 70
     1
  9
$DIMSE1
 70
     0
  9
$DIMSE2
 70
     0
  9
$DIMTAD
 70
     0
  9
$DIMZIN
 70
     0
  9
$DIMBLK
  1

  9
$LUNITS
 70
     2
  9
$LUPREC
 70
     4
  9
$AXISMODE
 70
     0
  9
$AXISUNIT
 10
0.0
 20
0.0
  9
$SKETCHINC
 40
0.1
  9
$FILLETRAD
 40
0.0
  9
$AUNITS
 70
     0
  9
$AUPREC
 70
     0
  9
$MENU
  1
ACAD
  9
$ELEVATION
 40
0.0
  9
$THICKNESS
 40
0.0
  9
$VIEWDIR
 10
0.0
 20
0.0
 30
1.0
  9
$LIMCHECK
 70
     0
  9
$BLIPMODE
 70
     1
  9
$CHAMFERA
 40
0.0
  9
$CHAMFERB
 40
0.0
  9
$FASTZOOM
 70
     1
  9
$SKPOLY
 70
     0
  9
$TDCREATE
 40
0000000.0000000000
  9
$TDUPDATE
 40
0000000.0000000000
  9
$TDINDWG
 40
0.0000000000
  9
$TDUSRTIMER
 40
0.0000000000
  9
$USRTIMER
 70
     1
  9
$ANGBASE
 50
0.0
  9
$ANGDIR
 70
     0
  9
$PDMODE
 70
     0
  9
$PDSIZE
 40
0.0
  9
$PLINEWID
 40
0.0
  9
$COORDS
 70
     0
  9
$USERI1
 70
     0
  9
$USERI2
 70
     0
  9
$USERI3
 70
     0
  9
$USERI4
 70
     0
  9
$USERI5
 70
     0
  9
$USERR1
 40
0.0
  9
$USERR2
 40
0.0
  9
$USERR3
 40
0.0
  9
$USERR4
 40
0.0
  9
$USERR5
 40
0.0
  9
$CLAYER
  8
M0
  9
$EXTMIN
 10
0.0
 20
0.0
  9
$EXTMAX
 10
420.0
 20
297.0
  9
$LIMMIN
 10
0.0
 20
0.0
  9
$LIMMAX
 10
420.0
 20
297.0
  9
$HANDSEED
  5
14D
  0
ENDSEC
  0
SECTION
  2
CLASSES
  0
ENDSEC
  0
SECTION
  2
TABLES
  0
TABLE
  2
VPORT
  5
8
100
AcDbSymbolTable
 70
     2
  0
VPORT
  5
14
100
AcDbSymbolTableRecord
100
AcDbViewportTableRecord
  2
*ACTIVE
 70
     0
 10
0.0
 20
0.0
 11
1.0
 21
1.0
 12
484.0
 22
297.0
 13
0.0
 23
0.0
 14
1.0
 24
1.0
 15
0.0
 25
0.0
 16
0.0
 26
0.0
 36
1.0
 17
0.0
 27
0.0
 37
0.0
 40
594.0
 41
2.0
 42
50.0
 43
0.0
 44
0.0
 50
0.0
 51
0.0
 71
     0
 72
   100
 73
     1
 74
     1
 75
     0
 76
     0
 77
     0
 78
     0
  0
ENDTAB
  0
TABLE
  2
LTYPE
  5
5
100
AcDbSymbolTable
 70
     5
  0
LTYPE
  5
15
100
AcDbSymbolTableRecord
100
AcDbLinetypeTableRecord
  2
BYBLOCK
 70
     0
  3

 72
    65
 73
     0
 40
0.0
  0
LTYPE
  5
16
100
AcDbSymbolTableRecord
100
AcDbLinetypeTableRecord
  2
BYLAYER
 70
     0
  3

 72
    65
 73
     0
 40
0.0
  0
LTYPE
  5
17
100
AcDbSymbolTableRecord
100
AcDbLinetypeTableRecord
  2
CONTINUOUS
 70
    64
  3
Solid line
 72
    65
 73
     0
 40
0.0
  0
LTYPE
  5
18
100
AcDbSymbolTableRecord
100
AcDbLinetypeTableRecord
  2
DASHED
 70
    64
  3
__ __ __ __ __ __ __ __ __ __ __ __ __ __ __ __
 72
    65
 73
     2
 40
0.75
 49
0.5
 74
     0
 49
-0.25
 74
     0
  0
LTYPE
  5
19
100
AcDbSymbolTableRecord
100
AcDbLinetypeTableRecord
  2
DASHDOT
 70
    64
  3
__ . __ . __ . __ . __ . __ . __ . __ . __ . __
 72
    65
 73
     4
 40
1.0
 49
0.5
 74
     0
 49
-0.25
 74
     0
 49
0.0
 74
     0
 49
-0.25
 74
     0
  0
LTYPE
  5
1A
100
AcDbSymbolTableRecord
100
AcDbLinetypeTableRecord
  2
DIVIDE
 70
    64
  3
____ . . ____ . . ____ . . ____ . . ____ . . __
 72
    65
 73
     6
 40
1.25
 49
0.5
 74
     0
 49
-0.25
 74
     0
 49
0.0
 74
     0
 49
-0.25
 74
     0
 49
0.0
 74
     0
 49
-0.25
 74
     0
  0
LTYPE
  5
1B
100
AcDbSymbolTableRecord
100
AcDbLinetypeTableRecord
  2
DOT
 70
    64
  3
. . . . . . . . . . . . . . . . . . . . . . . .
 72
    65
 73
     2
 40
0.25
 49
0.0
 74
     0
 49
-0.25
 74
     0
  0
ENDTAB
  0
TABLE
  2
LAYER
  5
2
100
AcDbSymbolTable
 70
   102
  0
LAYER
  5
F
100
AcDbSymbolTableRecord
100
AcDbLayerTableRecord
  2
0
 70
     0
 62
     7
  6
CONTINUOUS
  0
LAYER
  5
1C
100
AcDbSymbolTableRecord
100
AcDbLayerTableRecord
  2
DEFPOINTS
 70
     0
 62
     7
  6
CONTINUOUS
  0
LAYER
  5
1D
100
AcDbSymbolTableRecord
100
AcDbLayerTableRecord
  2
M0
 70
     0
 62
     3
  6
CONTINUOUS
  0
LAYER
  5
1E
100
AcDbSymbolTableRecord
100
AcDbLayerTableRecord
  2
DD0
 70
     0
 62
     4
  6
CONTINUOUS
  0
ENDTAB
  0
TABLE
  2
STYLE
  5
3
100
AcDbSymbolTable
 70
     2
  0
STYLE
  5
10
100
AcDbSymbolTableRecord
100
AcDbTextStyleTableRecord
  2
STANDARD
 70
     0
 40
0.0
 41
1.0
 50
0.0
 71
     0
 42
0.2
  3
txt
  4
BIGFONT
  0
ENDTAB
  0
TABLE
  2
VIEW
  5
6
100
AcDbSymbolTable
 70
     0
  0
ENDTAB
  0
TABLE
  2
UCS
  5
7
100
AcDbSymbolTable
 70
     0
  0
ENDTAB
  0
TABLE
  2
APPID
  5
9
100
AcDbSymbolTable
 70
     1
  0
APPID
  5
11
100
AcDbSymbolTableRecord
100
AcDbRegAppTableRecord
  2
ACAD
 70
     0
  0
ENDTAB
  0
TABLE
  2
DIMSTYLE
  5
A
100
AcDbSymbolTable
 70
     2
  0
DIMSTYLE
105
25
100
AcDbSymbolTableRecord
100
AcDbDimStyleTableRecord
  2
STANDARD
 70
     0
  3

  4

  5

  6
_OPEN
  7
_OPEN
 40
1.0
 41
3.0
 42
0.0
 43
8.0
 44
1.5
 45
0.0
 46
0.0
 47
0.0
 48
0.0
140
3.5
141
0.09
142
0.0
143
0.03937
144
1.0
145
0.0
146
1.0
147
1.0
 71
     0
 72
     0
 73
     1
 74
     1
 75
     0
 76
     0
 77
     3
 78
     8
170
     0
171
     2
172
     0
173
     1
174
     0
175
     0
176
     0
177
     0
178
     0
270
     2
271
     2
272
     4
273
     2
274
     2
340
10
275
     0
280
     0
281
     0
282
     0
283
     1
284
     0
285
     0
286
     0
287
     3
288
     0
  0
DIMSTYLE
105
26
100
AcDbSymbolTableRecord
100
AcDbDimStyleTableRecord
  2
LEADSTYL
 70
     0
  3

  4

  5

  6
_OPEN
  7
_OPEN
 40
1.0
 41
3.0
 42
0.0625
 43
0.38
 44
0.18
 45
0.0
 46
0.0
 47
0.0
 48
0.0
140
3.2
141
0.09
142
0.0
143
25.4
144
1.0
145
0.0
146
1.0
147
1.0
 71
     0
 72
     0
 73
     1
 74
     1
 75
     0
 76
     0
 77
     0
 78
     0
170
     0
171
     2
172
     0
173
     1
174
     0
175
     0
176
     0
177
     0
178
     0
270
     2
271
     4
272
     4
273
     2
274
     2
340
10
275
     0
280
     0
281
     0
282
     0
283
     1
284
     0
285
     0
286
     0
287
     3
288
     0
  0
ENDTAB
  0
TABLE
  2
BLOCK_RECORD
  5
1
100
AcDbSymbolTable
 70
     6
  0
BLOCK_RECORD
  5
1F
100
AcDbSymbolTableRecord
100
AcDbBlockTableRecord
  2
*MODEL_SPACE
  0
BLOCK_RECORD
  5
22
100
AcDbSymbolTableRecord
100
AcDbBlockTableRecord
  2
*PAPER_SPACE
  0
BLOCK_RECORD
  5
27
100
AcDbSymbolTableRecord
100
AcDbBlockTableRecord
  2
_NONE
  0
BLOCK_RECORD
  5
2B
100
AcDbSymbolTableRecord
100
AcDbBlockTableRecord
  2
_OPEN
  0
BLOCK_RECORD
  5
31
100
AcDbSymbolTableRecord
100
AcDbBlockTableRecord
  2
_CLOSED
  0
BLOCK_RECORD
  5
38
100
AcDbSymbolTableRecord
100
AcDbBlockTableRecord
  2
_ORIGIN
  0
BLOCK_RECORD
  5
3D
100
AcDbSymbolTableRecord
100
AcDbBlockTableRecord
  2
_DOT
  0
BLOCK_RECORD
  5
45
100
AcDbSymbolTableRecord
100
AcDbBlockTableRecord
  2
_OBLIQUE
  0
ENDTAB
  0
ENDSEC
  0
SECTION
  2
BLOCKS
  0
BLOCK
  5
20
100
AcDbEntity
  8
0
100
AcDbBlockBegin
  2
*MODEL_SPACE
 70
     0
 10
0.0
 20
0.0
 30
0.0
  3
*MODEL_SPACE
  1

  0
ENDBLK
  5
21
100
AcDbEntity
  8
0
100
AcDbBlockEnd
  0
BLOCK
  5
23
100
AcDbEntity
 67
     1
  8
0
100
AcDbBlockBegin
  2
*PAPER_SPACE
 70
     0
 10
0.0
 20
0.0
 30
0.0
  3
*PAPER_SPACE
  1

  0
ENDBLK
  5
24
100
AcDbEntity
 67
     1
  8
0
100
AcDbBlockEnd
  0
BLOCK
  5
28
100
AcDbEntity
  8
0
100
AcDbBlockBegin
  2
_NONE
 70
     0
 10
0.0
 20
0.0
  0
CIRCLE
  5
29
100
AcDbEntity
  8
0
 62
     0
100
AcDbCircle
 10
0.0
 20
0.0
 40
0.25
  0
ENDBLK
  5
2A
100
AcDbEntity
  8
0
100
AcDbBlockEnd
  0
BLOCK
  5
2C
100
AcDbEntity
  8
0
100
AcDbBlockBegin
  2
_OPEN
 70
     0
 10
0.0
 20
0.0
  0
LINE
  5
2D
100
AcDbEntity
  8
0
 62
     0
100
AcDbLine
 10
-0.965926
 20
0.258819
 11
0.0
 21
0.0
  0
LINE
  5
2E
100
AcDbEntity
  8
0
 62
     0
100
AcDbLine
 10
0.0
 20
0.0
 11
-0.965926
 21
-0.258819
  0
LINE
  5
2F
100
AcDbEntity
  8
0
 62
     0
100
AcDbLine
 10
0.0
 20
0.0
 11
-1.0
 21
0.0
  0
ENDBLK
  5
30
100
AcDbEntity
  8
0
100
AcDbBlockEnd
  0
BLOCK
  5
32
100
AcDbEntity
  8
0
100
AcDbBlockBegin
  2
_CLOSED
 70
     0
 10
0.0
 20
0.0
  0
LINE
  5
33
100
AcDbEntity
  8
0
 62
     0
100
AcDbLine
 10
-0.965926
 20
0.258819
 11
0.0
 21
0.0
  0
LINE
  5
34
100
AcDbEntity
  8
0
 62
     0
100
AcDbLine
 10
0.0
 20
0.0
 11
-0.965926
 21
-0.258819
  0
LINE
  5
35
100
AcDbEntity
  8
0
 62
     0
100
AcDbLine
 10
-0.965926
 20
0.258819
 11
-0.965926
 21
-0.258819
  0
LINE
  5
36
100
AcDbEntity
  8
0
 62
     0
100
AcDbLine
 10
0.0
 20
0.0
 11
-1.0
 21
0.0
  0
ENDBLK
  5
37
100
AcDbEntity
  8
0
100
AcDbBlockEnd
  0
BLOCK
  5
39
100
AcDbEntity
  8
0
100
AcDbBlockBegin
  2
_ORIGIN
 70
     0
 10
0.0
 20
0.0
  0
CIRCLE
  5
3A
100
AcDbEntity
  8
0
 62
     0
100
AcDbCircle
 10
0.0
 20
0.0
 40
0.5
  0
LINE
  5
3B
100
AcDbEntity
  8
0
 62
     0
100
AcDbLine
 10
0.0
 20
0.0
 11
-1.0
 21
0.0
  0
ENDBLK
  5
3C
100
AcDbEntity
  8
0
100
AcDbBlockEnd
  0
BLOCK
  5
3E
100
AcDbEntity
  8
0
100
AcDbBlockBegin
  2
_DOT
 70
     0
 10
0.0
 20
0.0
  0
POLYLINE
  5
3F
100
AcDbEntity
  8
0
 62
     0
100
AcDb2dPolyline
 66
     1
 70
     1
 40
0.5
 41
0.5
  0
VERTEX
  5
40
100
AcDbEntity
  8
0
 62
     0
100
AcDbVertex
100
AcDb2dVertex
 10
-0.25
 20
0.0
 42
1.0
  0
VERTEX
  5
41
100
AcDbEntity
  8
0
 62
     0
100
AcDbVertex
100
AcDb2dVertex
 10
0.25
 20
0.0
 42
1.0
  0
SEQEND
  5
42
100
AcDbEntity
  8
0
 62
     0
  0
LINE
  5
43
100
AcDbEntity
  8
0
 62
     0
100
AcDbLine
 10
-0.5
 20
0.0
 11
-1.0
 21
0.0
  0
ENDBLK
  5
44
100
AcDbEntity
  8
0
100
AcDbBlockEnd
  0
BLOCK
  5
46
100
AcDbEntity
  8
0
100
AcDbBlockBegin
  2
_OBLIQUE
 70
     0
 10
0.0
 20
0.0
  0
LINE
  5
47
100
AcDbEntity
  8
0
 62
     0
100
AcDbLine
 10
-0.353553
 20
-0.353553
 11
0.353553
 21
0.353553
  0
ENDBLK
  5
48
100
AcDbEntity
  8
0
100
AcDbBlockEnd
  0
ENDSEC
  0
SECTION
  2
ENTITIES
  0
LEADER
  5
49
100
AcDbEntity
  8
DD0
100
AcDbLeader
  3
LEADSTYL
 76
     3
 10
70.563629
 20
208.244812
 10
75.159012
 20
224.575882
 10
126.159012
 20
224.575882
340
4A
 77
     4
  0
TEXT
  5
4A
100
AcDbEntity
  8
DD0
100
AcDbText
 10
76.450679
 20
225.575882
 40
3.5
  1
「低」ＯＦＦ圧　２００ｋＰａ
 41
0.833333
  7
STANDARD
100
AcDbText
  0
LEADER
  5
4B
100
AcDbEntity
  8
DD0
100
AcDbLeader
  3
LEADSTYL
 76
     3
 10
30.604858
 20
227.844803
 10
39.168022
 20
240.444809
 10
90.168022
 20
240.444809
340
4C
 77
     4
  0
TEXT
  5
4C
100
AcDbEntity
  8
DD0
100
AcDbText
 10
40.459689
 20
241.444809
 40
3.5
  1
「高」ＯＦＦ圧　３４０ｋＰａ
 41
0.833333
  7
STANDARD
100
AcDbText
  0
LEADER
  5
4D
100
AcDbEntity
  8
DD0
100
AcDbLeader
  3
LEADSTYL
 76
     3
 10
44.51041
 20
213.844803
 10
51.752136
 20
232.21843
 10
106.252136
 20
232.21843
340
4E
 77
     4
  0
TEXT
  5
4E
100
AcDbEntity
  8
DD0
100
AcDbText
 10
53.043803
 20
233.21843
 40
3.5
  1
「標準」ＯＦＦ圧　２４０ｋＰａ
 41
0.833333
  7
STANDARD
100
AcDbText
  0
LEADER
  5
4F
100
AcDbEntity
  8
DD0
100
AcDbLeader
  3
LEADSTYL
 76
     3
 10
44.96347
 20
73.8237
 10
58.690121
 20
93.423698
 10
113.190117
 20
93.423698
340
50
 77
     4
  0
TEXT
  5
50
100
AcDbEntity
  8
DD0
100
AcDbText
 10
59.981787
 20
94.423698
 40
3.5
  1
「標準」ＯＦＦ圧　２４０ｋＰａ
 41
0.833333
  7
STANDARD
100
AcDbText
  0
LEADER
  5
51
100
AcDbEntity
  8
DD0
100
AcDbLeader
  3
LEADSTYL
 76
     3
 10
33.569893
 20
87.8237
 10
44.432098
 20
98.663544
 10
95.432098
 20
98.663544
340
52
 77
     4
  0
TEXT
  5
52
100
AcDbEntity
  8
DD0
100
AcDbText
 10
45.723765
 20
99.663544
 40
3.5
  1
「高」ＯＦＦ圧　３４０ｋＰａ
 41
0.833333
  7
STANDARD
100
AcDbText
  0
LEADER
  5
53
100
AcDbEntity
  8
DD0
100
AcDbLeader
  3
LEADSTYL
 76
     3
 10
62.554119
 20
68.223701
 10
73.978233
 20
87.555145
 10
124.978233
 20
87.555145
340
54
 77
     4
  0
TEXT
  5
54
100
AcDbEntity
  8
DD0
100
AcDbText
 10
75.2699
 20
88.555145
 40
3.5
  1
「低」ＯＦＦ圧　２００ｋＰａ
 41
0.833333
  7
STANDARD
100
AcDbText
  0
LEADER
  5
55
100
AcDbEntity
  8
DD0
100
AcDbLeader
  3
LEADSTYL
 76
     3
 10
167.535934
 20
237.644806
 10
176.37204
 20
254.444794
 10
230.87204
 20
254.444794
340
56
 77
     4
  0
TEXT
  5
56
100
AcDbEntity
  8
DD0
100
AcDbText
 10
177.663706
 20
255.444794
 40
3.5
  1
「標準」ＯＦＦ圧　２４０ｋＰａ
 41
0.833333
  7
STANDARD
100
AcDbText
  0
LEADER
  5
57
100
AcDbEntity
  8
DD0
100
AcDbLeader
  3
LEADSTYL
 76
     3
 10
182.585007
 20
232.0448
 10
192.122406
 20
248.402863
 10
243.122406
 20
248.402863
340
58
 77
     4
  0
TEXT
  5
58
100
AcDbEntity
  8
DD0
100
AcDbText
 10
193.414073
 20
249.402863
 40
3.5
  1
「低」ＯＦＦ圧　２００ｋＰａ
 41
0.833333
  7
STANDARD
100
AcDbText
  0
LEADER
  5
59
100
AcDbEntity
  8
DD0
100
AcDbLeader
  3
LEADSTYL
 76
     3
 10
308.233124
 20
247.444809
 10
316.010162
 20
254.444794
 10
367.010162
 20
254.444794
340
5A
 77
     4
  0
TEXT
  5
5A
100
AcDbEntity
  8
DD0
100
AcDbText
 10
317.301829
 20
255.444794
 40
3.5
  1
「低」ＯＦＦ圧　２００ｋＰａ
 41
0.833333
  7
STANDARD
100
AcDbText
  0
LEADER
  5
5B
100
AcDbEntity
  8
DD0
100
AcDbLeader
  3
LEADSTYL
 76
     3
 10
302.931549
 20
253.0448
 10
307.465027
 20
261.900482
 10
361.965027
 20
261.900482
340
5C
 77
     4
  0
TEXT
  5
5C
100
AcDbEntity
  8
DD0
100
AcDbText
 10
308.756694
 20
262.900482
 40
3.5
  1
「標準」ＯＦＦ圧　２４０ｋＰａ
 41
0.833333
  7
STANDARD
100
AcDbText
  0
LEADER
  5
5D
100
AcDbEntity
  8
DD0
100
AcDbLeader
  3
LEADSTYL
 76
     3
 10
304.883972
 20
90.623703
 10
311.281647
 20
107.423706
 10
365.781647
 20
107.423706
340
5E
 77
     4
  0
TEXT
  5
5E
100
AcDbEntity
  8
DD0
100
AcDbText
 10
312.573313
 20
108.423706
 40
3.5
  1
「標準」ＯＦＦ圧　２４０ｋＰａ
 41
0.833333
  7
STANDARD
100
AcDbText
  0
LEADER
  5
5F
100
AcDbEntity
  8
DD0
100
AcDbLeader
  3
LEADSTYL
 76
     3
 10
306.647003
 20
85.023705
 10
316.38559
 20
99.611839
 10
367.38559
 20
99.611839
340
60
 77
     4
  0
TEXT
  5
60
100
AcDbEntity
  8
DD0
100
AcDbText
 10
317.677256
 20
100.611839
 40
3.5
  1
「低」ＯＦＦ圧　２００ｋＰａ
 41
0.833333
  7
STANDARD
100
AcDbText
  0
LINE
  5
61
100
AcDbEntity
  8
M0
  6
DASHED
 62
   194
100
AcDbLine
 10
25.168019
 20
208.244805
 11
84.507909
 21
208.244805
  0
ARC
  5
62
100
AcDbEntity
  8
M0
 62
   194
100
AcDbCircle
 10
84.507909
 20
206.844805
 40
1.4
100
AcDbArc
 50
67.985497
 51
90.0
  0
LINE
  5
63
100
AcDbEntity
  8
M0
  6
DASHED
 62
   154
100
AcDbLine
 10
25.168019
 20
227.844805
 11
36.041697
 21
227.844805
  0
ARC
  5
64
100
AcDbEntity
  8
M0
 62
   154
100
AcDbCircle
 10
36.041697
 20
226.444805
 40
1.4
100
AcDbArc
 50
63.75865
 51
90.0
  0
LINE
  5
65
100
AcDbEntity
  8
M0
 62
   154
100
AcDbLine
 10
36.660711
 20
227.700521
 11
97.092797
 21
203.266578
  0
LINE
  5
66
100
AcDbEntity
  8
M0
 62
   154
100
AcDbLine
 10
97.968019
 20
201.968653
 11
97.968019
 21
180.244805
  0
ARC
  5
67
100
AcDbEntity
  8
M0
 62
   154
100
AcDbCircle
 10
96.568019
 20
201.968653
 40
1.4
100
AcDbArc
 50
0.0
 51
67.985497
  0
TEXT
  5
68
100
AcDbEntity
  8
M0
100
AcDbText
 10
24.008613
 20
165.771726
 40
3.6
  1
０
 41
0.601852
  7
STANDARD
100
AcDbText
  0
TEXT
  5
69
100
AcDbEntity
  8
M0
100
AcDbText
 10
37.0262
 20
165.771726
 40
3.6
  1
１０
 41
0.601852
  7
STANDARD
100
AcDbText
  0
TEXT
  5
6A
100
AcDbEntity
  8
M0
100
AcDbText
 10
51.026203
 20
165.771726
 40
3.6
  1
２０
 41
0.601852
  7
STANDARD
100
AcDbText
  0
TEXT
  5
6B
100
AcDbEntity
  8
M0
100
AcDbText
 10
65.0262
 20
165.771726
 40
3.6
  1
３０
 41
0.601852
  7
STANDARD
100
AcDbText
  0
TEXT
  5
6C
100
AcDbEntity
  8
M0
100
AcDbText
 10
79.026197
 20
165.771726
 40
3.6
  1
４０
 41
0.601852
  7
STANDARD
100
AcDbText
  0
TEXT
  5
6D
100
AcDbEntity
  8
M0
100
AcDbText
 10
93.026197
 20
165.771726
 40
3.6
  1
５０
 41
0.601852
  7
STANDARD
100
AcDbText
  0
TEXT
  5
6E
100
AcDbEntity
  8
M0
100
AcDbText
 10
107.026197
 20
165.771726
 40
3.6
  1
６０
 41
0.601852
  7
STANDARD
100
AcDbText
  0
TEXT
  5
6F
100
AcDbEntity
  8
M0
100
AcDbText
 10
53.319872
 20
161.271268
 40
3.6
  1
揚水量（Ｌ／分）
 41
0.63786
  7
STANDARD
100
AcDbText
  0
LINE
  5
70
100
AcDbEntity
  8
M0
100
AcDbLine
 10
25.168019
 20
240.444805
 11
25.168019
 21
170.444805
  0
LINE
  5
71
100
AcDbEntity
  8
M0
100
AcDbLine
 10
111.968019
 20
170.444805
 11
25.168019
 21
170.444805
  0
LINE
  5
72
100
AcDbEntity
  8
M0
100
AcDbLine
 10
39.168019
 20
238.488919
 11
39.168019
 21
170.444805
  0
LINE
  5
73
100
AcDbEntity
  8
M0
100
AcDbLine
 10
81.168019
 20
170.444805
 11
81.168019
 21
221.606701
  0
LINE
  5
74
100
AcDbEntity
  8
M0
100
AcDbLine
 10
95.168019
 20
170.444805
 11
95.168019
 21
221.606701
  0
LINE
  5
75
100
AcDbEntity
  8
M0
100
AcDbLine
 10
109.168019
 20
170.444805
 11
109.168019
 21
221.606701
  0
LINE
  5
76
100
AcDbEntity
  8
M0
100
AcDbLine
 10
67.168019
 20
221.606701
 11
67.168019
 21
170.444805
  0
LINE
  5
77
100
AcDbEntity
  8
M0
100
AcDbLine
 10
53.168019
 20
222.972105
 11
53.168019
 21
170.444805
  0
TEXT
  5
78
100
AcDbEntity
  8
M0
100
AcDbText
 10
21.892744
 20
168.371726
 40
3.6
  1
０
 41
0.601852
  7
STANDARD
100
AcDbText
  0
LINE
  5
79
100
AcDbEntity
  8
M0
100
AcDbLine
 10
25.168019
 20
184.444805
 11
111.968019
 21
184.444805
  0
LINE
  5
7A
100
AcDbEntity
  8
M0
100
AcDbLine
 10
25.168019
 20
198.444805
 11
77.743845
 21
198.444805
  0
LINE
  5
7B
100
AcDbEntity
  8
M0
100
AcDbLine
 10
25.168019
 20
198.444805
 11
111.968019
 21
198.444805
  0
TEXT
  5
7C
100
AcDbEntity
  8
M0
100
AcDbText
 10
19.544001
 20
182.735782
 40
3.6
  1
１０
 41
0.601852
  7
STANDARD
100
AcDbText
  0
TEXT
  5
7D
100
AcDbEntity
  8
M0
100
AcDbText
 10
19.544001
 20
196.735789
 40
3.6
  1
２０
 41
0.601852
  7
STANDARD
100
AcDbText
  0
TEXT
  5
7E
100
AcDbEntity
  8
M0
100
AcDbText
 10
16.955484
 20
191.23627
 40
3.6
  1
（　）
 50
90.000003
 41
0.63786
  7
STANDARD
100
AcDbText
  0
TEXT
  5
7F
100
AcDbEntity
  8
M0
100
AcDbText
 10
13.687063
 20
208.844807
 40
3.6
  1
全
 41
0.833333
  7
STANDARD
100
AcDbText
  0
TEXT
  5
80
100
AcDbEntity
  8
M0
100
AcDbText
 10
13.687063
 20
205.089251
 40
3.6
  1
揚
 41
0.833333
  7
STANDARD
100
AcDbText
  0
TEXT
  5
81
100
AcDbEntity
  8
M0
100
AcDbText
 10
13.687063
 20
201.333696
 40
3.6
  1
程
 41
0.833333
  7
STANDARD
100
AcDbText
  0
TEXT
  5
82
100
AcDbEntity
  8
M0
100
AcDbText
 10
13.687063
 20
197.57814
 40
3.6
  1
　
 41
0.833333
  7
STANDARD
100
AcDbText
  0
TEXT
  5
83
100
AcDbEntity
  8
M0
100
AcDbText
 10
13.687063
 20
193.822585
 40
3.6
  1
ｍ
 41
0.833333
  7
STANDARD
100
AcDbText
  0
TEXT
  5
84
100
AcDbEntity
  8
M0
100
AcDbText
 10
19.544001
 20
210.735789
 40
3.6
  1
３０
 41
0.601852
  7
STANDARD
100
AcDbText
  0
TEXT
  5
85
100
AcDbEntity
  8
M0
100
AcDbText
 10
19.442451
 20
224.64769
 40
3.6
  1
４０
 41
0.601852
  7
STANDARD
100
AcDbText
  0
TEXT
  5
86
100
AcDbEntity
  8
M0
100
AcDbText
 10
19.442451
 20
238.64769
 40
3.6
  1
５０
 41
0.601852
  7
STANDARD
100
AcDbText
  0
LINE
  5
87
100
AcDbEntity
  8
M0
100
AcDbLine
 10
25.168019
 20
212.444805
 11
72.433402
 21
212.444805
  0
LINE
  5
88
100
AcDbEntity
  8
M0
100
AcDbLine
 10
25.168019
 20
226.444805
 11
50.344137
 21
226.444805
  0
LINE
  5
89
100
AcDbEntity
  8
M0
100
AcDbLine
 10
25.168019
 20
240.444805
 11
36.928558
 21
240.444805
  0
TEXT
  5
8A
100
AcDbEntity
  8
M0
100
AcDbText
 10
27.768849
 20
254.747068
 40
3.528
  1
吸上高さ７ｍ時
 41
0.777778
  7
STANDARD
100
AcDbText
  0
TEXT
  5
8B
100
AcDbEntity
  8
M0
100
AcDbText
 10
21.849763
 20
264.526041
 40
3.528
  1
■ＣＴ－Ｐ６００Ｙ揚水特性曲線
 41
0.777778
  7
STANDARD
100
AcDbText
  0
TEXT
  5
8C
100
AcDbEntity
  8
M0
100
AcDbText
 10
24.341646
 20
259.682236
 40
3.528
  1
【標準ジェットＪ７５－７Ｙ組み合わせ時】
 41
0.777778
  7
STANDARD
100
AcDbText
  0
TEXT
  5
8D
100
AcDbEntity
  8
M0
100
AcDbText
 10
23.921683
 20
154.116788
 40
3.456
  1
※破線部域では圧力変動があります。
 50
-1.001791E-005
 41
0.652006
  7
STANDARD
100
AcDbText
  0
LINE
  5
8E
100
AcDbEntity
  8
M0
  6
DASHED
 62
     1
100
AcDbLine
 10
25.168019
 20
213.844805
 11
70.385201
 21
213.844805
  0
ARC
  5
8F
100
AcDbEntity
  8
M0
 62
     1
100
AcDbCircle
 10
70.385201
 20
211.044805
 40
2.8
100
AcDbArc
 50
67.985497
 51
90.0
  0
LINE
  5
90
100
AcDbEntity
  8
M0
  6
DASHED
 62
     1
100
AcDbLine
 10
25.168019
 20
73.823701
 11
76.7419
 21
73.823701
  0
ARC
  5
91
100
AcDbEntity
  8
M0
 62
     1
100
AcDbCircle
 10
76.7419
 20
72.423701
 40
1.4
100
AcDbArc
 50
48.012788
 51
90.0
  0
LINE
  5
92
100
AcDbEntity
  8
M0
  6
DASHED
 62
   154
100
AcDbLine
 10
25.168019
 20
87.823701
 11
44.510384
 21
87.823701
  0
LINE
  5
93
100
AcDbEntity
  8
M0
 62
   154
100
AcDbLine
 10
45.008777
 20
87.731984
 11
74.168019
 21
76.623701
  0
ARC
  5
94
100
AcDbEntity
  8
M0
 62
   154
100
AcDbCircle
 10
44.510384
 20
86.423701
 40
1.4
100
AcDbArc
 50
69.145542
 51
90.0
  0
LINE
  5
95
100
AcDbEntity
  8
M0
 62
   154
100
AcDbLine
 10
74.168019
 20
76.623701
 11
89.10457
 21
63.180806
  0
LINE
  5
96
100
AcDbEntity
  8
M0
 62
   154
100
AcDbLine
 10
89.568019
 20
40.223701
 11
89.568019
 21
62.140194
  0
ARC
  5
97
100
AcDbEntity
  8
M0
 62
   154
100
AcDbCircle
 10
88.168019
 20
62.140194
 40
1.4
100
AcDbArc
 50
0.0
 51
48.012788
  0
LINE
  5
98
100
AcDbEntity
  8
M0
  6
DASHED
 62
   194
100
AcDbLine
 10
25.168019
 20
68.223701
 11
82.964122
 21
68.223701
  0
ARC
  5
99
100
AcDbEntity
  8
M0
 62
   194
100
AcDbCircle
 10
82.964122
 20
66.823701
 40
1.4
100
AcDbArc
 50
48.012788
 51
90.0
  0
TEXT
  5
9A
100
AcDbEntity
  8
M0
100
AcDbText
 10
53.319871
 20
14.250164
 40
3.6
  1
揚水量（Ｌ／分）
 41
0.63786
  7
STANDARD
100
AcDbText
  0
TEXT
  5
9B
100
AcDbEntity
  8
M0
100
AcDbText
 10
21.892743
 20
21.350622
 40
3.6
  1
０
 41
0.601852
  7
STANDARD
100
AcDbText
  0
TEXT
  5
9C
100
AcDbEntity
  8
M0
100
AcDbText
 10
24.008612
 20
18.750622
 40
3.6
  1
０
 41
0.601852
  7
STANDARD
100
AcDbText
  0
TEXT
  5
9D
100
AcDbEntity
  8
M0
100
AcDbText
 10
37.026201
 20
18.750622
 40
3.6
  1
１０
 41
0.601852
  7
STANDARD
100
AcDbText
  0
TEXT
  5
9E
100
AcDbEntity
  8
M0
100
AcDbText
 10
51.026203
 20
18.750622
 40
3.6
  1
２０
 41
0.601852
  7
STANDARD
100
AcDbText
  0
TEXT
  5
9F
100
AcDbEntity
  8
M0
100
AcDbText
 10
65.0262
 20
18.750622
 40
3.6
  1
３０
 41
0.601852
  7
STANDARD
100
AcDbText
  0
TEXT
  5
A0
100
AcDbEntity
  8
M0
100
AcDbText
 10
79.026196
 20
18.750622
 40
3.6
  1
４０
 41
0.601852
  7
STANDARD
100
AcDbText
  0
TEXT
  5
A1
100
AcDbEntity
  8
M0
100
AcDbText
 10
93.026196
 20
18.750622
 40
3.6
  1
５０
 41
0.601852
  7
STANDARD
100
AcDbText
  0
TEXT
  5
A2
100
AcDbEntity
  8
M0
100
AcDbText
 10
107.026196
 20
18.750622
 40
3.6
  1
６０
 41
0.601852
  7
STANDARD
100
AcDbText
  0
LINE
  5
A3
100
AcDbEntity
  8
M0
100
AcDbLine
 10
25.168019
 20
93.423701
 11
25.168019
 21
23.423701
  0
LINE
  5
A4
100
AcDbEntity
  8
M0
100
AcDbLine
 10
111.968019
 20
23.423701
 11
25.168019
 21
23.423701
  0
LINE
  5
A5
100
AcDbEntity
  8
M0
100
AcDbLine
 10
39.168019
 20
91.747691
 11
39.168019
 21
23.423701
  0
LINE
  5
A6
100
AcDbEntity
  8
M0
100
AcDbLine
 10
53.168019
 20
91.747691
 11
53.168019
 21
23.423701
  0
LINE
  5
A7
100
AcDbEntity
  8
M0
100
AcDbLine
 10
67.168019
 20
84.531307
 11
67.168019
 21
23.423701
  0
LINE
  5
A8
100
AcDbEntity
  8
M0
100
AcDbLine
 10
81.168019
 20
23.423701
 11
81.168019
 21
84.531307
  0
LINE
  5
A9
100
AcDbEntity
  8
M0
100
AcDbLine
 10
95.168019
 20
23.423701
 11
95.168019
 21
68.387401
  0
LINE
  5
AA
100
AcDbEntity
  8
M0
100
AcDbLine
 10
109.168019
 20
23.423701
 11
109.168019
 21
68.387401
  0
TEXT
  5
AB
100
AcDbEntity
  8
M0
100
AcDbText
 10
16.955483
 20
44.215166
 40
3.6
  1
（　）
 50
90.000003
 41
0.63786
  7
STANDARD
100
AcDbText
  0
TEXT
  5
AC
100
AcDbEntity
  8
M0
100
AcDbText
 10
13.687062
 20
61.8237
 40
3.6
  1
全
 41
0.833333
  7
STANDARD
100
AcDbText
  0
TEXT
  5
AD
100
AcDbEntity
  8
M0
100
AcDbText
 10
13.687062
 20
58.068144
 40
3.6
  1
揚
 41
0.833333
  7
STANDARD
100
AcDbText
  0
TEXT
  5
AE
100
AcDbEntity
  8
M0
100
AcDbText
 10
13.687062
 20
54.312589
 40
3.6
  1
程
 41
0.833333
  7
STANDARD
100
AcDbText
  0
TEXT
  5
AF
100
AcDbEntity
  8
M0
100
AcDbText
 10
13.687062
 20
50.557033
 40
3.6
  1
　
 41
0.833333
  7
STANDARD
100
AcDbText
  0
TEXT
  5
B0
100
AcDbEntity
  8
M0
100
AcDbText
 10
13.687062
 20
46.801478
 40
3.6
  1
ｍ
 41
0.833333
  7
STANDARD
100
AcDbText
  0
TEXT
  5
B1
100
AcDbEntity
  8
M0
100
AcDbText
 10
19.544
 20
35.714679
 40
3.6
  1
１０
 41
0.601852
  7
STANDARD
100
AcDbText
  0
TEXT
  5
B2
100
AcDbEntity
  8
M0
100
AcDbText
 10
19.544
 20
49.714685
 40
3.6
  1
２０
 41
0.601852
  7
STANDARD
100
AcDbText
  0
TEXT
  5
B3
100
AcDbEntity
  8
M0
100
AcDbText
 10
19.544
 20
63.714685
 40
3.6
  1
３０
 41
0.601852
  7
STANDARD
100
AcDbText
  0
LINE
  5
B4
100
AcDbEntity
  8
M0
100
AcDbLine
 10
25.168019
 20
37.423701
 11
111.968019
 21
37.423701
  0
LINE
  5
B5
100
AcDbEntity
  8
M0
100
AcDbLine
 10
25.168019
 20
51.423701
 11
111.968019
 21
51.423701
  0
LINE
  5
B6
100
AcDbEntity
  8
M0
100
AcDbLine
 10
25.168019
 20
65.423701
 11
111.968019
 21
65.423701
  0
TEXT
  5
B7
100
AcDbEntity
  8
M0
100
AcDbText
 10
19.44245
 20
77.626586
 40
3.6
  1
４０
 41
0.601852
  7
STANDARD
100
AcDbText
  0
TEXT
  5
B8
100
AcDbEntity
  8
M0
100
AcDbText
 10
19.44245
 20
91.626586
 40
3.6
  1
５０
 41
0.601852
  7
STANDARD
100
AcDbText
  0
LINE
  5
B9
100
AcDbEntity
  8
M0
100
AcDbLine
 10
25.168019
 20
79.423701
 11
82.868555
 21
79.423701
  0
LINE
  5
BA
100
AcDbEntity
  8
M0
100
AcDbLine
 10
25.168019
 20
93.423701
 11
28.053929
 21
93.423701
  0
TEXT
  5
BB
100
AcDbEntity
  8
M0
100
AcDbText
 10
27.768855
 20
107.725964
 40
3.528
  1
吸上高さ１２ｍ時
 41
0.777778
  7
STANDARD
100
AcDbText
  0
TEXT
  5
BC
100
AcDbEntity
  8
M0
100
AcDbText
 10
24.341644
 20
112.661132
 40
3.528
  1
【標準ジェットＪ７５－７Ｙ組み合わせ時】
 41
0.777778
  7
STANDARD
100
AcDbText
  0
TEXT
  5
BD
100
AcDbEntity
  8
M0
100
AcDbText
 10
21.849762
 20
117.504937
 40
3.528
  1
■ＣＴ－Ｐ６００Ｙ揚水特性曲線
 41
0.777778
  7
STANDARD
100
AcDbText
  0
TEXT
  5
BE
100
AcDbEntity
  8
M0
100
AcDbText
 10
23.921685
 20
7.095684
 40
3.456
  1
※破線部域では圧力変動があります。
 50
-1.001791E-005
 41
0.652006
  7
STANDARD
100
AcDbText
  0
LINE
  5
BF
100
AcDbEntity
  8
M0
  6
DASHED
 62
     4
100
AcDbLine
 10
162.470779
 20
237.644805
 11
183.069265
 21
237.644805
  0
LINE
  5
C0
100
AcDbEntity
  8
M0
 62
     4
100
AcDbLine
 10
194.012778
 20
231.056056
 11
183.811263
 21
237.432003
  0
ARC
  5
C1
100
AcDbEntity
  8
M0
 62
     4
100
AcDbCircle
 10
183.069265
 20
236.244805
 40
1.4
100
AcDbArc
 50
57.994617
 51
90.0
  0
LINE
  5
C2
100
AcDbEntity
  8
M0
 62
     4
100
AcDbLine
 10
194.670779
 20
204.044805
 11
194.670779
 21
229.868858
  0
ARC
  5
C3
100
AcDbEntity
  8
M0
 62
     4
100
AcDbCircle
 10
193.270779
 20
229.868858
 40
1.4
100
AcDbArc
 50
0.0
 51
57.994617
  0
LINE
  5
C4
100
AcDbEntity
  8
M0
  6
DASHED
 62
     1
100
AcDbLine
 10
162.470779
 20
232.044805
 11
192.029265
 21
232.044805
  0
ARC
  5
C5
100
AcDbEntity
  8
M0
 62
     1
100
AcDbCircle
 10
192.029265
 20
230.644805
 40
1.4
100
AcDbArc
 50
57.994617
 51
90.0
  0
LINE
  5
C6
100
AcDbEntity
  8
M0
100
AcDbLine
 10
249.270779
 20
170.444805
 11
162.470779
 21
170.444805
  0
LINE
  5
C7
100
AcDbEntity
  8
M0
100
AcDbLine
 10
246.470779
 20
170.444805
 11
246.470779
 21
248.984936
  0
LINE
  5
C8
100
AcDbEntity
  8
M0
100
AcDbLine
 10
232.470779
 20
170.444805
 11
232.470779
 21
248.984936
  0
TEXT
  5
C9
100
AcDbEntity
  8
M0
100
AcDbText
 10
230.328956
 20
165.771732
 40
3.6
  1
５０
 41
0.601852
  7
STANDARD
100
AcDbText
  0
TEXT
  5
CA
100
AcDbEntity
  8
M0
100
AcDbText
 10
244.328956
 20
165.771732
 40
3.6
  1
６０
 41
0.601852
  7
STANDARD
100
AcDbText
  0
TEXT
  5
CB
100
AcDbEntity
  8
M0
100
AcDbText
 10
161.311372
 20
165.771726
 40
3.6
  1
０
 41
0.601852
  7
STANDARD
100
AcDbText
  0
TEXT
  5
CC
100
AcDbEntity
  8
M0
100
AcDbText
 10
174.32896
 20
165.771726
 40
3.6
  1
１０
 41
0.601852
  7
STANDARD
100
AcDbText
  0
TEXT
  5
CD
100
AcDbEntity
  8
M0
100
AcDbText
 10
188.328963
 20
165.771726
 40
3.6
  1
２０
 41
0.601852
  7
STANDARD
100
AcDbText
  0
TEXT
  5
CE
100
AcDbEntity
  8
M0
100
AcDbText
 10
202.32896
 20
165.771726
 40
3.6
  1
３０
 41
0.601852
  7
STANDARD
100
AcDbText
  0
TEXT
  5
CF
100
AcDbEntity
  8
M0
100
AcDbText
 10
216.328956
 20
165.771726
 40
3.6
  1
４０
 41
0.601852
  7
STANDARD
100
AcDbText
  0
LINE
  5
D0
100
AcDbEntity
  8
M0
100
AcDbLine
 10
190.470779
 20
249.503686
 11
190.470779
 21
170.444805
  0
LINE
  5
D1
100
AcDbEntity
  8
M0
100
AcDbLine
 10
218.470779
 20
170.444805
 11
218.470779
 21
247.878962
  0
LINE
  5
D2
100
AcDbEntity
  8
M0
100
AcDbLine
 10
162.470779
 20
184.444805
 11
249.262446
 21
184.444805
  0
LINE
  5
D3
100
AcDbEntity
  8
M0
100
AcDbLine
 10
176.470779
 20
249.374306
 11
176.470779
 21
170.444805
  0
LINE
  5
D4
100
AcDbEntity
  8
M0
100
AcDbLine
 10
162.470779
 20
257.244805
 11
162.470779
 21
170.444805
  0
LINE
  5
D5
100
AcDbEntity
  8
M0
100
AcDbLine
 10
204.470779
 20
247.878962
 11
204.470779
 21
170.444805
  0
TEXT
  5
D6
100
AcDbEntity
  8
M0
100
AcDbText
 10
154.258243
 20
191.23627
 40
3.6
  1
（　）
 50
90.000003
 41
0.63786
  7
STANDARD
100
AcDbText
  0
TEXT
  5
D7
100
AcDbEntity
  8
M0
100
AcDbText
 10
150.989822
 20
208.844804
 40
3.6
  1
全
 41
0.833333
  7
STANDARD
100
AcDbText
  0
TEXT
  5
D8
100
AcDbEntity
  8
M0
100
AcDbText
 10
150.989822
 20
205.089248
 40
3.6
  1
揚
 41
0.833333
  7
STANDARD
100
AcDbText
  0
TEXT
  5
D9
100
AcDbEntity
  8
M0
100
AcDbText
 10
150.989822
 20
201.333693
 40
3.6
  1
程
 41
0.833333
  7
STANDARD
100
AcDbText
  0
TEXT
  5
DA
100
AcDbEntity
  8
M0
100
AcDbText
 10
150.989822
 20
197.578137
 40
3.6
  1
　
 41
0.833333
  7
STANDARD
100
AcDbText
  0
TEXT
  5
DB
100
AcDbEntity
  8
M0
100
AcDbText
 10
150.989822
 20
193.822582
 40
3.6
  1
ｍ
 41
0.833333
  7
STANDARD
100
AcDbText
  0
TEXT
  5
DC
100
AcDbEntity
  8
M0
100
AcDbText
 10
159.195503
 20
168.371726
 40
3.6
  1
０
 41
0.601852
  7
STANDARD
100
AcDbText
  0
TEXT
  5
DD
100
AcDbEntity
  8
M0
100
AcDbText
 10
156.84676
 20
182.735782
 40
3.6
  1
１０
 41
0.601852
  7
STANDARD
100
AcDbText
  0
TEXT
  5
DE
100
AcDbEntity
  8
M0
100
AcDbText
 10
156.84676
 20
196.735789
 40
3.6
  1
２０
 41
0.601852
  7
STANDARD
100
AcDbText
  0
TEXT
  5
DF
100
AcDbEntity
  8
M0
100
AcDbText
 10
161.224442
 20
154.116789
 40
3.456
  1
※破線部域では圧力変動があります。
 50
-1.001791E-005
 41
0.652006
  7
STANDARD
100
AcDbText
  0
TEXT
  5
E0
100
AcDbEntity
  8
M0
100
AcDbText
 10
156.84676
 20
210.735789
 40
3.6
  1
３０
 41
0.601852
  7
STANDARD
100
AcDbText
  0
TEXT
  5
E1
100
AcDbEntity
  8
M0
100
AcDbText
 10
156.74521
 20
224.64769
 40
3.6
  1
４０
 41
0.601852
  7
STANDARD
100
AcDbText
  0
TEXT
  5
E2
100
AcDbEntity
  8
M0
100
AcDbText
 10
156.74521
 20
238.64769
 40
3.6
  1
５０
 41
0.601852
  7
STANDARD
100
AcDbText
  0
TEXT
  5
E3
100
AcDbEntity
  8
M0
100
AcDbText
 10
156.74521
 20
252.64769
 40
3.6
  1
６０
 41
0.601852
  7
STANDARD
100
AcDbText
  0
TEXT
  5
E4
100
AcDbEntity
  8
M0
100
AcDbText
 10
165.071613
 20
268.747074
 40
3.528
  1
吸上高さ２４ｍ時
 41
0.777778
  7
STANDARD
100
AcDbText
  0
TEXT
  5
E5
100
AcDbEntity
  8
M0
100
AcDbText
 10
161.644416
 20
273.68223
 40
3.528
  1
【深井戸ジェットＪ７５－２４Ｘ組み合わせ時】
 41
0.777778
  7
STANDARD
100
AcDbText
  0
TEXT
  5
E6
100
AcDbEntity
  8
M0
100
AcDbText
 10
159.152521
 20
278.526041
 40
3.528
  1
■ＣＴ－Ｐ６００Ｙ揚水特性曲線
 41
0.777778
  7
STANDARD
100
AcDbText
  0
LINE
  5
E7
100
AcDbEntity
  8
M0
100
AcDbLine
 10
162.470779
 20
226.444805
 11
249.262446
 21
226.444805
  0
LINE
  5
E8
100
AcDbEntity
  8
M0
100
AcDbLine
 10
162.470779
 20
212.444805
 11
249.262446
 21
212.444805
  0
LINE
  5
E9
100
AcDbEntity
  8
M0
100
AcDbLine
 10
162.470779
 20
198.444805
 11
221.270779
 21
198.444805
  0
LINE
  5
EA
100
AcDbEntity
  8
M0
100
AcDbLine
 10
162.470779
 20
198.444805
 11
249.262446
 21
198.444805
  0
LINE
  5
EB
100
AcDbEntity
  8
M0
100
AcDbLine
 10
162.470779
 20
240.444805
 11
249.262446
 21
240.444805
  0
LINE
  5
EC
100
AcDbEntity
  8
M0
100
AcDbLine
 10
162.470779
 20
254.444805
 11
173.096883
 21
254.444805
  0
TEXT
  5
ED
100
AcDbEntity
  8
M0
100
AcDbText
 10
190.622631
 20
161.271268
 40
3.6
  1
揚水量（Ｌ／分）
 41
0.63786
  7
STANDARD
100
AcDbText
  0
LINE
  5
EE
100
AcDbEntity
  8
M0
  6
DASHED
 62
     1
100
AcDbLine
 10
297.281656
 20
247.444805
 11
311.216737
 21
247.444805
  0
ARC
  5
EF
100
AcDbEntity
  8
M0
 62
     1
100
AcDbCircle
 10
311.216737
 20
246.044805
 40
1.4
100
AcDbArc
 50
25.201124
 51
90.0
  0
LINE
  5
F0
100
AcDbEntity
  8
M0
  6
DASHED
 62
   154
100
AcDbLine
 10
297.281656
 20
253.044805
 11
308.581443
 21
253.044805
  0
ARC
  5
F1
100
AcDbEntity
  8
M0
 62
   154
100
AcDbCircle
 10
308.581443
 20
251.644805
 40
1.4
100
AcDbArc
 50
25.201124
 51
90.0
  0
LINE
  5
F2
100
AcDbEntity
  8
M0
 62
   154
100
AcDbLine
 10
309.84819
 20
252.240921
 11
312.548402
 21
246.50297
  0
LINE
  5
F3
100
AcDbEntity
  8
M0
 62
   154
100
AcDbLine
 10
312.681656
 20
245.906854
 11
312.681656
 21
219.444805
  0
ARC
  5
F4
100
AcDbEntity
  8
M0
 62
   154
100
AcDbCircle
 10
311.281656
 20
245.906854
 40
1.4
100
AcDbArc
 50
0.0
 51
25.201124
  0
TEXT
  5
F5
100
AcDbEntity
  8
M0
100
AcDbText
 10
289.069119
 20
191.23627
 40
3.6
  1
（　）
 50
90.000003
 41
0.63786
  7
STANDARD
100
AcDbText
  0
TEXT
  5
F6
100
AcDbEntity
  8
M0
100
AcDbText
 10
285.800699
 20
208.844804
 40
3.6
  1
全
 41
0.833333
  7
STANDARD
100
AcDbText
  0
TEXT
  5
F7
100
AcDbEntity
  8
M0
100
AcDbText
 10
285.800699
 20
205.089248
 40
3.6
  1
揚
 41
0.833333
  7
STANDARD
100
AcDbText
  0
TEXT
  5
F8
100
AcDbEntity
  8
M0
100
AcDbText
 10
285.800699
 20
201.333693
 40
3.6
  1
程
 41
0.833333
  7
STANDARD
100
AcDbText
  0
TEXT
  5
F9
100
AcDbEntity
  8
M0
100
AcDbText
 10
285.800699
 20
197.578137
 40
3.6
  1
　
 41
0.833333
  7
STANDARD
100
AcDbText
  0
TEXT
  5
FA
100
AcDbEntity
  8
M0
100
AcDbText
 10
285.800699
 20
193.822582
 40
3.6
  1
ｍ
 41
0.833333
  7
STANDARD
100
AcDbText
  0
TEXT
  5
FB
100
AcDbEntity
  8
M0
100
AcDbText
 10
294.006379
 20
168.371726
 40
3.6
  1
０
 41
0.601852
  7
STANDARD
100
AcDbText
  0
TEXT
  5
FC
100
AcDbEntity
  8
M0
100
AcDbText
 10
291.657636
 20
182.735782
 40
3.6
  1
１０
 41
0.601852
  7
STANDARD
100
AcDbText
  0
TEXT
  5
FD
100
AcDbEntity
  8
M0
100
AcDbText
 10
291.657636
 20
196.735789
 40
3.6
  1
２０
 41
0.601852
  7
STANDARD
100
AcDbText
  0
TEXT
  5
FE
100
AcDbEntity
  8
M0
100
AcDbText
 10
291.657636
 20
210.735789
 40
3.6
  1
３０
 41
0.601852
  7
STANDARD
100
AcDbText
  0
LINE
  5
FF
100
AcDbEntity
  8
M0
100
AcDbLine
 10
384.081656
 20
170.444805
 11
297.281656
 21
170.444805
  0
LINE
  5
100
100
AcDbEntity
  8
M0
100
AcDbLine
 10
297.281656
 20
184.444805
 11
384.073322
 21
184.444805
  0
LINE
  5
101
100
AcDbEntity
  8
M0
100
AcDbLine
 10
297.281656
 20
198.444805
 11
384.073322
 21
198.444805
  0
LINE
  5
102
100
AcDbEntity
  8
M0
100
AcDbLine
 10
297.281656
 20
212.444805
 11
384.073322
 21
212.444805
  0
LINE
  5
103
100
AcDbEntity
  8
M0
100
AcDbLine
 10
381.281656
 20
170.444805
 11
381.281656
 21
248.984936
  0
LINE
  5
104
100
AcDbEntity
  8
M0
100
AcDbLine
 10
367.281656
 20
170.444805
 11
367.281656
 21
248.984936
  0
TEXT
  5
105
100
AcDbEntity
  8
M0
100
AcDbText
 10
379.139826
 20
165.771732
 40
3.6
  1
６０
 41
0.601852
  7
STANDARD
100
AcDbText
  0
TEXT
  5
106
100
AcDbEntity
  8
M0
100
AcDbText
 10
365.139826
 20
165.771732
 40
3.6
  1
５０
 41
0.601852
  7
STANDARD
100
AcDbText
  0
LINE
  5
107
100
AcDbEntity
  8
M0
100
AcDbLine
 10
356.985615
 20
170.444805
 11
297.281656
 21
170.444805
  0
LINE
  5
108
100
AcDbEntity
  8
M0
100
AcDbLine
 10
311.281656
 20
256.042211
 11
311.281656
 21
170.444805
  0
LINE
  5
109
100
AcDbEntity
  8
M0
100
AcDbLine
 10
297.281656
 20
257.244805
 11
297.281656
 21
170.444805
  0
LINE
  5
10A
100
AcDbEntity
  8
M0
100
AcDbLine
 10
325.281656
 20
244.113329
 11
325.281656
 21
170.444805
  0
LINE
  5
10B
100
AcDbEntity
  8
M0
100
AcDbLine
 10
339.281656
 20
244.113329
 11
339.281656
 21
170.444805
  0
LINE
  5
10C
100
AcDbEntity
  8
M0
100
AcDbLine
 10
353.281656
 20
244.113329
 11
353.281656
 21
170.444805
  0
TEXT
  5
10D
100
AcDbEntity
  8
M0
100
AcDbText
 10
296.122248
 20
165.771726
 40
3.6
  1
０
 41
0.601852
  7
STANDARD
100
AcDbText
  0
TEXT
  5
10E
100
AcDbEntity
  8
M0
100
AcDbText
 10
309.139837
 20
165.771726
 40
3.6
  1
１０
 41
0.601852
  7
STANDARD
100
AcDbText
  0
TEXT
  5
10F
100
AcDbEntity
  8
M0
100
AcDbText
 10
323.139839
 20
165.771726
 40
3.6
  1
２０
 41
0.601852
  7
STANDARD
100
AcDbText
  0
TEXT
  5
110
100
AcDbEntity
  8
M0
100
AcDbText
 10
337.139836
 20
165.771726
 40
3.6
  1
３０
 41
0.601852
  7
STANDARD
100
AcDbText
  0
TEXT
  5
111
100
AcDbEntity
  8
M0
100
AcDbText
 10
351.139826
 20
165.771726
 40
3.6
  1
４０
 41
0.601852
  7
STANDARD
100
AcDbText
  0
TEXT
  5
112
100
AcDbEntity
  8
M0
100
AcDbText
 10
291.556086
 20
224.64769
 40
3.6
  1
４０
 41
0.601852
  7
STANDARD
100
AcDbText
  0
TEXT
  5
113
100
AcDbEntity
  8
M0
100
AcDbText
 10
291.556086
 20
238.64769
 40
3.6
  1
５０
 41
0.601852
  7
STANDARD
100
AcDbText
  0
TEXT
  5
114
100
AcDbEntity
  8
M0
100
AcDbText
 10
291.556086
 20
252.64769
 40
3.6
  1
６０
 41
0.601852
  7
STANDARD
100
AcDbText
  0
LINE
  5
115
100
AcDbEntity
  8
M0
100
AcDbLine
 10
297.281656
 20
226.444805
 11
384.073322
 21
226.444805
  0
LINE
  5
116
100
AcDbEntity
  8
M0
100
AcDbLine
 10
297.281656
 20
240.444805
 11
384.073322
 21
240.444805
  0
LINE
  5
117
100
AcDbEntity
  8
M0
100
AcDbLine
 10
297.281656
 20
254.444805
 11
313.4648
 21
254.444805
  0
TEXT
  5
118
100
AcDbEntity
  8
M0
100
AcDbText
 10
296.035319
 20
154.116789
 40
3.456
  1
※破線部域では圧力変動があります。
 50
-1.001791E-005
 41
0.652006
  7
STANDARD
100
AcDbText
  0
TEXT
  5
119
100
AcDbEntity
  8
M0
100
AcDbText
 10
299.88249
 20
268.747074
 40
3.528
  1
吸上高さ３５ｍ時
 41
0.777778
  7
STANDARD
100
AcDbText
  0
TEXT
  5
11A
100
AcDbEntity
  8
M0
100
AcDbText
 10
296.455293
 20
273.68223
 40
3.528
  1
【深井戸ジェットＪ７５－３５Ｘ組み合わせ時】
 41
0.777778
  7
STANDARD
100
AcDbText
  0
TEXT
  5
11B
100
AcDbEntity
  8
M0
100
AcDbText
 10
293.963398
 20
278.526041
 40
3.528
  1
■ＣＴ－Ｐ６００Ｙ揚水特性曲線
 41
0.777778
  7
STANDARD
100
AcDbText
  0
TEXT
  5
11C
100
AcDbEntity
  8
M0
100
AcDbText
 10
325.43352
 20
161.271268
 40
3.6
  1
揚水量（Ｌ／分）
 41
0.63786
  7
STANDARD
100
AcDbText
  0
LINE
  5
11D
100
AcDbEntity
  8
M0
  6
DASHED
 62
   154
100
AcDbLine
 10
297.281656
 20
90.623701
 11
306.405005
 21
90.623701
  0
LINE
  5
11E
100
AcDbEntity
  8
M0
 62
   154
100
AcDbLine
 10
309.003623
 20
88.369932
 11
311.267585
 21
72.522196
  0
ARC
  5
11F
100
AcDbEntity
  8
M0
 62
   154
100
AcDbCircle
 10
306.405005
 20
87.998701
 40
2.625
100
AcDbArc
 50
8.130102
 51
90.0
  0
LINE
  5
120
100
AcDbEntity
  8
M0
 62
   154
100
AcDbLine
 10
311.281656
 20
72.324206
 11
311.281656
 21
57.023701
  0
ARC
  5
121
100
AcDbEntity
  8
M0
 62
   154
100
AcDbCircle
 10
309.881656
 20
72.324206
 40
1.4
100
AcDbArc
 50
0.0
 51
8.130102
  0
LINE
  5
122
100
AcDbEntity
  8
M0
  6
DASHED
 62
     1
100
AcDbLine
 10
297.281656
 20
85.023701
 11
308.267442
 21
85.023701
  0
ARC
  5
123
100
AcDbEntity
  8
M0
 62
     1
100
AcDbCircle
 10
308.267442
 20
83.623701
 40
1.4
100
AcDbArc
 50
8.130102
 51
90.0
  0
TEXT
  5
124
100
AcDbEntity
  8
M0
100
AcDbText
 10
296.122249
 20
18.750622
 40
3.6
  1
０
 41
0.601852
  7
STANDARD
100
AcDbText
  0
TEXT
  5
125
100
AcDbEntity
  8
M0
100
AcDbText
 10
309.139836
 20
18.750622
 40
3.6
  1
１０
 41
0.601852
  7
STANDARD
100
AcDbText
  0
TEXT
  5
126
100
AcDbEntity
  8
M0
100
AcDbText
 10
323.139839
 20
18.750622
 40
3.6
  1
２０
 41
0.601852
  7
STANDARD
100
AcDbText
  0
TEXT
  5
127
100
AcDbEntity
  8
M0
100
AcDbText
 10
337.139836
 20
18.750622
 40
3.6
  1
３０
 41
0.601852
  7
STANDARD
100
AcDbText
  0
TEXT
  5
128
100
AcDbEntity
  8
M0
100
AcDbText
 10
351.139833
 20
18.750622
 40
3.6
  1
４０
 41
0.601852
  7
STANDARD
100
AcDbText
  0
LINE
  5
129
100
AcDbEntity
  8
M0
100
AcDbLine
 10
367.281656
 20
23.423701
 11
367.281656
 21
96.333431
  0
LINE
  5
12A
100
AcDbEntity
  8
M0
100
AcDbLine
 10
381.281656
 20
23.423701
 11
381.281656
 21
101.963832
  0
TEXT
  5
12B
100
AcDbEntity
  8
M0
100
AcDbText
 10
379.139827
 20
18.750627
 40
3.6
  1
６０
 41
0.601852
  7
STANDARD
100
AcDbText
  0
TEXT
  5
12C
100
AcDbEntity
  8
M0
100
AcDbText
 10
365.139827
 20
18.750627
 40
3.6
  1
５０
 41
0.601852
  7
STANDARD
100
AcDbText
  0
TEXT
  5
12D
100
AcDbEntity
  8
M0
100
AcDbText
 10
296.035319
 20
7.095684
 40
3.456
  1
※破線部域では圧力変動があります。
 50
-1.001791E-005
 41
0.652006
  7
STANDARD
100
AcDbText
  0
LINE
  5
12E
100
AcDbEntity
  8
M0
100
AcDbLine
 10
325.281656
 20
94.823701
 11
325.281656
 21
23.423701
  0
LINE
  5
12F
100
AcDbEntity
  8
M0
100
AcDbLine
 10
353.281656
 20
23.423701
 11
353.281656
 21
94.823701
  0
LINE
  5
130
100
AcDbEntity
  8
M0
100
AcDbLine
 10
384.559105
 20
23.423701
 11
297.281656
 21
23.423701
  0
LINE
  5
131
100
AcDbEntity
  8
M0
100
AcDbLine
 10
311.281656
 20
104.679565
 11
311.281656
 21
23.423701
  0
LINE
  5
132
100
AcDbEntity
  8
M0
100
AcDbLine
 10
297.281656
 20
110.223701
 11
297.281656
 21
23.423701
  0
LINE
  5
133
100
AcDbEntity
  8
M0
100
AcDbLine
 10
339.281656
 20
94.823701
 11
339.281656
 21
23.423701
  0
TEXT
  5
134
100
AcDbEntity
  8
M0
100
AcDbText
 10
325.433508
 20
14.250164
 40
3.6
  1
揚水量（Ｌ／分）
 41
0.63786
  7
STANDARD
100
AcDbText
  0
TEXT
  5
135
100
AcDbEntity
  8
M0
100
AcDbText
 10
294.00638
 20
21.350622
 40
3.6
  1
０
 41
0.601852
  7
STANDARD
100
AcDbText
  0
TEXT
  5
136
100
AcDbEntity
  8
M0
100
AcDbText
 10
291.657637
 20
35.714679
 40
3.6
  1
１０
 41
0.601852
  7
STANDARD
100
AcDbText
  0
LINE
  5
137
100
AcDbEntity
  8
M0
100
AcDbLine
 10
297.281656
 20
51.423701
 11
384.073322
 21
51.423701
  0
LINE
  5
138
100
AcDbEntity
  8
M0
100
AcDbLine
 10
297.281656
 20
65.423701
 11
384.073322
 21
65.423701
  0
LINE
  5
139
100
AcDbEntity
  8
M0
100
AcDbLine
 10
297.281656
 20
51.423701
 11
349.857482
 21
51.423701
  0
TEXT
  5
13A
100
AcDbEntity
  8
M0
100
AcDbText
 10
289.06912
 20
44.215166
 40
3.6
  1
（　）
 50
90.000003
 41
0.63786
  7
STANDARD
100
AcDbText
  0
TEXT
  5
13B
100
AcDbEntity
  8
M0
100
AcDbText
 10
285.8007
 20
61.8237
 40
3.6
  1
全
 41
0.833333
  7
STANDARD
100
AcDbText
  0
TEXT
  5
13C
100
AcDbEntity
  8
M0
100
AcDbText
 10
285.8007
 20
58.068144
 40
3.6
  1
揚
 41
0.833333
  7
STANDARD
100
AcDbText
  0
TEXT
  5
13D
100
AcDbEntity
  8
M0
100
AcDbText
 10
285.8007
 20
54.312589
 40
3.6
  1
程
 41
0.833333
  7
STANDARD
100
AcDbText
  0
TEXT
  5
13E
100
AcDbEntity
  8
M0
100
AcDbText
 10
285.8007
 20
50.557033
 40
3.6
  1
　
 41
0.833333
  7
STANDARD
100
AcDbText
  0
TEXT
  5
13F
100
AcDbEntity
  8
M0
100
AcDbText
 10
285.8007
 20
46.801478
 40
3.6
  1
ｍ
 41
0.833333
  7
STANDARD
100
AcDbText
  0
TEXT
  5
140
100
AcDbEntity
  8
M0
100
AcDbText
 10
291.657637
 20
49.714685
 40
3.6
  1
２０
 41
0.601852
  7
STANDARD
100
AcDbText
  0
TEXT
  5
141
100
AcDbEntity
  8
M0
100
AcDbText
 10
291.657637
 20
63.714685
 40
3.6
  1
３０
 41
0.601852
  7
STANDARD
100
AcDbText
  0
LINE
  5
142
100
AcDbEntity
  8
M0
100
AcDbLine
 10
297.281656
 20
107.423701
 11
309.205489
 21
107.423701
  0
TEXT
  5
143
100
AcDbEntity
  8
M0
100
AcDbText
 10
291.556087
 20
105.626586
 40
3.6
  1
６０
 41
0.601852
  7
STANDARD
100
AcDbText
  0
TEXT
  5
144
100
AcDbEntity
  8
M0
100
AcDbText
 10
291.556087
 20
77.626586
 40
3.6
  1
４０
 41
0.601852
  7
STANDARD
100
AcDbText
  0
TEXT
  5
145
100
AcDbEntity
  8
M0
100
AcDbText
 10
291.556087
 20
91.626586
 40
3.6
  1
５０
 41
0.601852
  7
STANDARD
100
AcDbText
  0
LINE
  5
146
100
AcDbEntity
  8
M0
100
AcDbLine
 10
297.281656
 20
79.423701
 11
384.073322
 21
79.423701
  0
LINE
  5
147
100
AcDbEntity
  8
M0
100
AcDbLine
 10
297.281656
 20
93.423701
 11
384.073322
 21
93.423701
  0
LINE
  5
148
100
AcDbEntity
  8
M0
100
AcDbLine
 10
297.281656
 20
37.423701
 11
384.073322
 21
37.423701
  0
TEXT
  5
149
100
AcDbEntity
  8
M0
100
AcDbText
 10
299.88249
 20
119.915112
 40
3.528
  1
吸上高さ２４ｍ時
 41
0.777778
  7
STANDARD
100
AcDbText
  0
TEXT
  5
14A
100
AcDbEntity
  8
M0
100
AcDbText
 10
296.455293
 20
124.850268
 40
3.528
  1
【特殊ジェットＪ４０－２４ＳＸ組み合わせ時】
 41
0.777778
  7
STANDARD
100
AcDbText
  0
TEXT
  5
14B
100
AcDbEntity
  8
M0
100
AcDbText
 10
293.963398
 20
129.694079
 40
3.528
  1
■ＣＴ－Ｐ６００Ｙ揚水特性曲線
 41
0.777778
  7
STANDARD
100
AcDbText
  0
ENDSEC
  0
SECTION
  2
OBJECTS
  0
DICTIONARY
  5
C
100
AcDbDictionary
  3
ACAD_GROUP
350
D
  3
ACAD_MLINESTYLE
350
E
  0
DICTIONARY
  5
D
102
{ACAD_REACTORS
330
C
102
}
100
AcDbDictionary
  0
DICTIONARY
  5
E
102
{ACAD_REACTORS
330
C
102
}
100
AcDbDictionary
  3
STANDARD
350
13
  0
MLINESTYLE
  5
13
102
{ACAD_REACTORS
330
E
102
}
100
AcDbMlineStyle
  2
STANDARD
 70
     0
  3

 62
     0
 51
90.0
 52
90.0
 71
     2
 49
0.5
 62
   256
  6
BYLAYER
 49
-0.5
 62
   256
  6
BYLAYER
  0
ENDSEC
  0
EOF
