  0
SECTION
  2
HEADER
  9
$ACADVER
  1
AC1012
  9
$INSBASE
 10
0.0
 20
0.0
  9
$VIEWCTR
 10
7.531722
 20
4.5
  9
$VIEWSIZE
 40
9.0
  9
$SNAPMODE
 70
     0
  9
$SNAPUNIT
 10
1.0
 20
1.0
  9
$SNAPBASE
 10
0.0
 20
0.0
  9
$SNAPANG
 50
0.0
  9
$SNAPSTYLE
 70
     0
  9
$SNAPISOPAIR
 70
     0
  9
$GRIDMODE
 70
     0
  9
$GRIDUNIT
 10
0.0
 20
0.0
  9
$ORTHOMODE
 70
     0
  9
$REGENMODE
 70
     1
  9
$FILLMODE
 70
     1
  9
$QTEXTMODE
 70
     0
  9
$DRAGMODE
 70
     2
  9
$LTSCALE
 40
1.0
  9
$OSMODE
 70
     0
  9
$ATTMODE
 70
     1
  9
$TEXTSIZE
 40
0.2
  9
$TRACEWID
 40
0.05
  9
$TEXTSTYLE
  7
STANDARD
  9
$CELTYPE
  6
BYLAYER
  9
$CECOLOR
 62
   256
  9
$DIMSCALE
 40
1.0
  9
$DIMASZ
 40
0.18
  9
$DIMEXO
 40
0.0625
  9
$DIMDLI
 40
0.38
  9
$DIMRND
 40
0.0
  9
$DIMDLE
 40
0.0
  9
$DIMEXE
 40
0.18
  9
$DIMTP
 40
0.0
  9
$DIMTM
 40
0.0
  9
$DIMTXT
 40
0.18
  9
$DIMCEN
 40
0.09
  9
$DIMTSZ
 40
0.0
  9
$DIMTOL
 70
     0
  9
$DIMLIM
 70
     0
  9
$DIMTIH
 70
     1
  9
$DIMTOH
 70
     1
  9
$DIMSE1
 70
     0
  9
$DIMSE2
 70
     0
  9
$DIMTAD
 70
     0
  9
$DIMZIN
 70
     0
  9
$DIMBLK
  1

  9
$LUNITS
 70
     2
  9
$LUPREC
 70
     4
  9
$AXISMODE
 70
     0
  9
$AXISUNIT
 10
0.0
 20
0.0
  9
$SKETCHINC
 40
0.1
  9
$FILLETRAD
 40
0.0
  9
$AUNITS
 70
     0
  9
$AUPREC
 70
     0
  9
$MENU
  1
ACAD
  9
$ELEVATION
 40
0.0
  9
$THICKNESS
 40
0.0
  9
$VIEWDIR
 10
0.0
 20
0.0
 30
1.0
  9
$LIMCHECK
 70
     0
  9
$BLIPMODE
 70
     1
  9
$CHAMFERA
 40
0.0
  9
$CHAMFERB
 40
0.0
  9
$FASTZOOM
 70
     1
  9
$SKPOLY
 70
     0
  9
$TDCREATE
 40
0000000.0000000000
  9
$TDUPDATE
 40
0000000.0000000000
  9
$TDINDWG
 40
0.0000000000
  9
$TDUSRTIMER
 40
0.0000000000
  9
$USRTIMER
 70
     1
  9
$ANGBASE
 50
0.0
  9
$ANGDIR
 70
     0
  9
$PDMODE
 70
     0
  9
$PDSIZE
 40
0.0
  9
$PLINEWID
 40
0.0
  9
$COORDS
 70
     0
  9
$USERI1
 70
     0
  9
$USERI2
 70
     0
  9
$USERI3
 70
     0
  9
$USERI4
 70
     0
  9
$USERI5
 70
     0
  9
$USERR1
 40
0.0
  9
$USERR2
 40
0.0
  9
$USERR3
 40
0.0
  9
$USERR4
 40
0.0
  9
$USERR5
 40
0.0
  9
$CLAYER
  8
M0
  9
$EXTMIN
 10
0.0
 20
0.0
  9
$EXTMAX
 10
420.0
 20
297.0
  9
$LIMMIN
 10
0.0
 20
0.0
  9
$LIMMAX
 10
420.0
 20
297.0
  9
$HANDSEED
  5
176
  0
ENDSEC
  0
SECTION
  2
CLASSES
  0
ENDSEC
  0
SECTION
  2
TABLES
  0
TABLE
  2
VPORT
  5
8
100
AcDbSymbolTable
 70
     2
  0
VPORT
  5
14
100
AcDbSymbolTableRecord
100
AcDbViewportTableRecord
  2
*ACTIVE
 70
     0
 10
0.0
 20
0.0
 11
1.0
 21
1.0
 12
484.0
 22
297.0
 13
0.0
 23
0.0
 14
1.0
 24
1.0
 15
0.0
 25
0.0
 16
0.0
 26
0.0
 36
1.0
 17
0.0
 27
0.0
 37
0.0
 40
594.0
 41
2.0
 42
50.0
 43
0.0
 44
0.0
 50
0.0
 51
0.0
 71
     0
 72
   100
 73
     1
 74
     1
 75
     0
 76
     0
 77
     0
 78
     0
  0
ENDTAB
  0
TABLE
  2
LTYPE
  5
5
100
AcDbSymbolTable
 70
     5
  0
LTYPE
  5
15
100
AcDbSymbolTableRecord
100
AcDbLinetypeTableRecord
  2
BYBLOCK
 70
     0
  3

 72
    65
 73
     0
 40
0.0
  0
LTYPE
  5
16
100
AcDbSymbolTableRecord
100
AcDbLinetypeTableRecord
  2
BYLAYER
 70
     0
  3

 72
    65
 73
     0
 40
0.0
  0
LTYPE
  5
17
100
AcDbSymbolTableRecord
100
AcDbLinetypeTableRecord
  2
CONTINUOUS
 70
    64
  3
Solid line
 72
    65
 73
     0
 40
0.0
  0
LTYPE
  5
18
100
AcDbSymbolTableRecord
100
AcDbLinetypeTableRecord
  2
DASHED
 70
    64
  3
__ __ __ __ __ __ __ __ __ __ __ __ __ __ __ __
 72
    65
 73
     2
 40
0.75
 49
0.5
 74
     0
 49
-0.25
 74
     0
  0
LTYPE
  5
19
100
AcDbSymbolTableRecord
100
AcDbLinetypeTableRecord
  2
DASHDOT
 70
    64
  3
__ . __ . __ . __ . __ . __ . __ . __ . __ . __
 72
    65
 73
     4
 40
1.0
 49
0.5
 74
     0
 49
-0.25
 74
     0
 49
0.0
 74
     0
 49
-0.25
 74
     0
  0
LTYPE
  5
1A
100
AcDbSymbolTableRecord
100
AcDbLinetypeTableRecord
  2
DIVIDE
 70
    64
  3
____ . . ____ . . ____ . . ____ . . ____ . . __
 72
    65
 73
     6
 40
1.25
 49
0.5
 74
     0
 49
-0.25
 74
     0
 49
0.0
 74
     0
 49
-0.25
 74
     0
 49
0.0
 74
     0
 49
-0.25
 74
     0
  0
LTYPE
  5
1B
100
AcDbSymbolTableRecord
100
AcDbLinetypeTableRecord
  2
DOT
 70
    64
  3
. . . . . . . . . . . . . . . . . . . . . . . .
 72
    65
 73
     2
 40
0.25
 49
0.0
 74
     0
 49
-0.25
 74
     0
  0
ENDTAB
  0
TABLE
  2
LAYER
  5
2
100
AcDbSymbolTable
 70
   102
  0
LAYER
  5
F
100
AcDbSymbolTableRecord
100
AcDbLayerTableRecord
  2
0
 70
     0
 62
     7
  6
CONTINUOUS
  0
LAYER
  5
1C
100
AcDbSymbolTableRecord
100
AcDbLayerTableRecord
  2
DEFPOINTS
 70
     0
 62
     7
  6
CONTINUOUS
  0
LAYER
  5
1D
100
AcDbSymbolTableRecord
100
AcDbLayerTableRecord
  2
M0
 70
     0
 62
     3
  6
CONTINUOUS
  0
LAYER
  5
1E
100
AcDbSymbolTableRecord
100
AcDbLayerTableRecord
  2
DD0
 70
     0
 62
     4
  6
CONTINUOUS
  0
ENDTAB
  0
TABLE
  2
STYLE
  5
3
100
AcDbSymbolTable
 70
     2
  0
STYLE
  5
10
100
AcDbSymbolTableRecord
100
AcDbTextStyleTableRecord
  2
STANDARD
 70
     0
 40
0.0
 41
1.0
 50
0.0
 71
     0
 42
0.2
  3
txt
  4
BIGFONT
  0
ENDTAB
  0
TABLE
  2
VIEW
  5
6
100
AcDbSymbolTable
 70
     0
  0
ENDTAB
  0
TABLE
  2
UCS
  5
7
100
AcDbSymbolTable
 70
     0
  0
ENDTAB
  0
TABLE
  2
APPID
  5
9
100
AcDbSymbolTable
 70
     1
  0
APPID
  5
11
100
AcDbSymbolTableRecord
100
AcDbRegAppTableRecord
  2
ACAD
 70
     0
  0
ENDTAB
  0
TABLE
  2
DIMSTYLE
  5
A
100
AcDbSymbolTable
 70
     2
  0
DIMSTYLE
105
25
100
AcDbSymbolTableRecord
100
AcDbDimStyleTableRecord
  2
STANDARD
 70
     0
  3

  4

  5

  6
_OPEN
  7
_OPEN
 40
1.0
 41
3.0
 42
0.0
 43
8.0
 44
1.5
 45
0.0
 46
0.0
 47
0.0
 48
0.0
140
3.5
141
0.09
142
0.0
143
0.03937
144
1.0
145
0.0
146
1.0
147
1.0
 71
     0
 72
     0
 73
     0
 74
     0
 75
     0
 76
     0
 77
     3
 78
     8
170
     0
171
     2
172
     0
173
     1
174
     0
175
     0
176
     0
177
     0
178
     0
270
     2
271
     2
272
     4
273
     2
274
     2
340
10
275
     0
280
     0
281
     0
282
     0
283
     1
284
     0
285
     0
286
     0
287
     3
288
     0
  0
DIMSTYLE
105
26
100
AcDbSymbolTableRecord
100
AcDbDimStyleTableRecord
  2
LEADSTYL
 70
     0
  3

  4

  5

  6
_OPEN
  7
_OPEN
 40
1.0
 41
3.0
 42
0.0625
 43
0.38
 44
0.18
 45
0.0
 46
0.0
 47
0.0
 48
0.0
140
3.2
141
0.09
142
0.0
143
25.4
144
1.0
145
0.0
146
1.0
147
1.0
 71
     0
 72
     0
 73
     1
 74
     1
 75
     0
 76
     0
 77
     0
 78
     0
170
     0
171
     2
172
     0
173
     1
174
     0
175
     0
176
     0
177
     0
178
     0
270
     2
271
     4
272
     4
273
     2
274
     2
340
10
275
     0
280
     0
281
     0
282
     0
283
     1
284
     0
285
     0
286
     0
287
     3
288
     0
  0
ENDTAB
  0
TABLE
  2
BLOCK_RECORD
  5
1
100
AcDbSymbolTable
 70
     6
  0
BLOCK_RECORD
  5
1F
100
AcDbSymbolTableRecord
100
AcDbBlockTableRecord
  2
*MODEL_SPACE
  0
BLOCK_RECORD
  5
22
100
AcDbSymbolTableRecord
100
AcDbBlockTableRecord
  2
*PAPER_SPACE
  0
BLOCK_RECORD
  5
27
100
AcDbSymbolTableRecord
100
AcDbBlockTableRecord
  2
_NONE
  0
BLOCK_RECORD
  5
2B
100
AcDbSymbolTableRecord
100
AcDbBlockTableRecord
  2
_OPEN
  0
BLOCK_RECORD
  5
31
100
AcDbSymbolTableRecord
100
AcDbBlockTableRecord
  2
_CLOSED
  0
BLOCK_RECORD
  5
38
100
AcDbSymbolTableRecord
100
AcDbBlockTableRecord
  2
_ORIGIN
  0
BLOCK_RECORD
  5
3D
100
AcDbSymbolTableRecord
100
AcDbBlockTableRecord
  2
_DOT
  0
BLOCK_RECORD
  5
45
100
AcDbSymbolTableRecord
100
AcDbBlockTableRecord
  2
_OBLIQUE
  0
ENDTAB
  0
ENDSEC
  0
SECTION
  2
BLOCKS
  0
BLOCK
  5
20
100
AcDbEntity
  8
0
100
AcDbBlockBegin
  2
*MODEL_SPACE
 70
     0
 10
0.0
 20
0.0
 30
0.0
  3
*MODEL_SPACE
  1

  0
ENDBLK
  5
21
100
AcDbEntity
  8
0
100
AcDbBlockEnd
  0
BLOCK
  5
23
100
AcDbEntity
 67
     1
  8
0
100
AcDbBlockBegin
  2
*PAPER_SPACE
 70
     0
 10
0.0
 20
0.0
 30
0.0
  3
*PAPER_SPACE
  1

  0
ENDBLK
  5
24
100
AcDbEntity
 67
     1
  8
0
100
AcDbBlockEnd
  0
BLOCK
  5
28
100
AcDbEntity
  8
0
100
AcDbBlockBegin
  2
_NONE
 70
     0
 10
0.0
 20
0.0
  0
CIRCLE
  5
29
100
AcDbEntity
  8
0
 62
     0
100
AcDbCircle
 10
0.0
 20
0.0
 40
0.25
  0
ENDBLK
  5
2A
100
AcDbEntity
  8
0
100
AcDbBlockEnd
  0
BLOCK
  5
2C
100
AcDbEntity
  8
0
100
AcDbBlockBegin
  2
_OPEN
 70
     0
 10
0.0
 20
0.0
  0
LINE
  5
2D
100
AcDbEntity
  8
0
 62
     0
100
AcDbLine
 10
-0.965926
 20
0.258819
 11
0.0
 21
0.0
  0
LINE
  5
2E
100
AcDbEntity
  8
0
 62
     0
100
AcDbLine
 10
0.0
 20
0.0
 11
-0.965926
 21
-0.258819
  0
LINE
  5
2F
100
AcDbEntity
  8
0
 62
     0
100
AcDbLine
 10
0.0
 20
0.0
 11
-1.0
 21
0.0
  0
ENDBLK
  5
30
100
AcDbEntity
  8
0
100
AcDbBlockEnd
  0
BLOCK
  5
32
100
AcDbEntity
  8
0
100
AcDbBlockBegin
  2
_CLOSED
 70
     0
 10
0.0
 20
0.0
  0
LINE
  5
33
100
AcDbEntity
  8
0
 62
     0
100
AcDbLine
 10
-0.965926
 20
0.258819
 11
0.0
 21
0.0
  0
LINE
  5
34
100
AcDbEntity
  8
0
 62
     0
100
AcDbLine
 10
0.0
 20
0.0
 11
-0.965926
 21
-0.258819
  0
LINE
  5
35
100
AcDbEntity
  8
0
 62
     0
100
AcDbLine
 10
-0.965926
 20
0.258819
 11
-0.965926
 21
-0.258819
  0
LINE
  5
36
100
AcDbEntity
  8
0
 62
     0
100
AcDbLine
 10
0.0
 20
0.0
 11
-1.0
 21
0.0
  0
ENDBLK
  5
37
100
AcDbEntity
  8
0
100
AcDbBlockEnd
  0
BLOCK
  5
39
100
AcDbEntity
  8
0
100
AcDbBlockBegin
  2
_ORIGIN
 70
     0
 10
0.0
 20
0.0
  0
CIRCLE
  5
3A
100
AcDbEntity
  8
0
 62
     0
100
AcDbCircle
 10
0.0
 20
0.0
 40
0.5
  0
LINE
  5
3B
100
AcDbEntity
  8
0
 62
     0
100
AcDbLine
 10
0.0
 20
0.0
 11
-1.0
 21
0.0
  0
ENDBLK
  5
3C
100
AcDbEntity
  8
0
100
AcDbBlockEnd
  0
BLOCK
  5
3E
100
AcDbEntity
  8
0
100
AcDbBlockBegin
  2
_DOT
 70
     0
 10
0.0
 20
0.0
  0
POLYLINE
  5
3F
100
AcDbEntity
  8
0
 62
     0
100
AcDb2dPolyline
 66
     1
 70
     1
 40
0.5
 41
0.5
  0
VERTEX
  5
40
100
AcDbEntity
  8
0
 62
     0
100
AcDbVertex
100
AcDb2dVertex
 10
-0.25
 20
0.0
 42
1.0
  0
VERTEX
  5
41
100
AcDbEntity
  8
0
 62
     0
100
AcDbVertex
100
AcDb2dVertex
 10
0.25
 20
0.0
 42
1.0
  0
SEQEND
  5
42
100
AcDbEntity
  8
0
 62
     0
  0
LINE
  5
43
100
AcDbEntity
  8
0
 62
     0
100
AcDbLine
 10
-0.5
 20
0.0
 11
-1.0
 21
0.0
  0
ENDBLK
  5
44
100
AcDbEntity
  8
0
100
AcDbBlockEnd
  0
BLOCK
  5
46
100
AcDbEntity
  8
0
100
AcDbBlockBegin
  2
_OBLIQUE
 70
     0
 10
0.0
 20
0.0
  0
LINE
  5
47
100
AcDbEntity
  8
0
 62
     0
100
AcDbLine
 10
-0.353553
 20
-0.353553
 11
0.353553
 21
0.353553
  0
ENDBLK
  5
48
100
AcDbEntity
  8
0
100
AcDbBlockEnd
  0
ENDSEC
  0
SECTION
  2
ENTITIES
  0
LEADER
  5
49
100
AcDbEntity
  8
DD0
100
AcDbLeader
  3
LEADSTYL
 76
     3
 10
94.822464
 20
231.393753
 10
116.36171
 20
254.341232
 10
58.36171
 20
254.341232
340
4A
 77
     4
  0
TEXT
  5
4A
100
AcDbEntity
  8
DD0
100
AcDbText
 10
59.653376
 20
255.341232
 40
3.5
  1
ＤＭ－Ｐ４００Ｓ＋Ｊ７５－２４Ｓ
 41
0.833333
  7
STANDARD
100
AcDbText
  0
LEADER
  5
4B
100
AcDbEntity
  8
DD0
100
AcDbLeader
  3
LEADSTYL
 76
     3
 10
106.402725
 20
230.37265
 10
133.911987
 20
261.254364
 10
75.911987
 20
261.254364
340
4C
 77
     4
  0
TEXT
  5
4C
100
AcDbEntity
  8
DD0
100
AcDbText
 10
77.203654
 20
262.254364
 40
3.5
  1
ＤＭ－Ｐ６００Ｓ＋Ｊ７５－２４Ｓ
 41
0.833333
  7
STANDARD
100
AcDbText
  0
LEADER
  5
4D
100
AcDbEntity
  8
DD0
100
AcDbLeader
  3
LEADSTYL
 76
     3
 10
112.183578
 20
225.818558
 10
147.573776
 20
267.56662
 10
89.573776
 20
267.56662
340
4E
 77
     4
  0
TEXT
  5
4E
100
AcDbEntity
  8
DD0
100
AcDbText
 10
90.865443
 20
268.56662
 40
3.5
  1
ＤＭ－Ｋ７５０Ｓ＋Ｊ７５－２４Ｓ
 41
0.833333
  7
STANDARD
100
AcDbText
  0
LEADER
  5
4F
100
AcDbEntity
  8
DD0
100
AcDbLeader
  3
LEADSTYL
 76
     3
 10
222.583572
 20
238.693909
 10
245.278854
 20
267.56665
 10
187.278854
 20
267.56665
340
50
 77
     4
  0
TEXT
  5
50
100
AcDbEntity
  8
DD0
100
AcDbText
 10
188.570521
 20
268.56665
 40
3.5
  1
ＤＭ－Ｋ７５０Ｓ＋Ｊ７５－２４Ｓ
 41
0.833333
  7
STANDARD
100
AcDbText
  0
LEADER
  5
51
100
AcDbEntity
  8
DD0
100
AcDbLeader
  3
LEADSTYL
 76
     3
 10
212.983582
 20
234.242737
 10
229.118225
 20
255.153702
 10
171.118225
 20
255.153702
340
52
 77
     4
  0
TEXT
  5
52
100
AcDbEntity
  8
DD0
100
AcDbText
 10
172.409892
 20
256.153687
 40
3.5
  1
ＤＭ－Ｐ６００Ｓ＋Ｊ７５－２４Ｓ
 41
0.833333
  7
STANDARD
100
AcDbText
  0
LEADER
  5
53
100
AcDbEntity
  8
DD0
100
AcDbLeader
  3
LEADSTYL
 76
     3
 10
192.583572
 20
239.636642
 10
175.557602
 20
191.477432
 10
279.648499
 20
191.477432
340
54
 77
     4
  0
TEXT
  5
54
100
AcDbEntity
  8
DD0
100
AcDbText
 10
177.44018
 20
192.477432
 40
3.5
  1
ＤＭ－Ｐ４００Ｓ、Ｐ６００Ｓ、Ｋ７５０Ｓ＋Ｊ４０－２４ＳＳ
 41
0.833333
  7
STANDARD
100
AcDbText
  0
LEADER
  5
55
100
AcDbEntity
  8
DD0
100
AcDbLeader
  3
LEADSTYL
 76
     3
 10
201.955856
 20
240.964355
 10
189.170731
 20
204.538666
 10
247.750198
 20
204.538666
340
56
 77
     4
  0
TEXT
  5
56
100
AcDbEntity
  8
DD0
100
AcDbText
 10
191.041865
 20
205.538666
 40
3.5
  1
ＤＭ－Ｐ４００Ｓ＋Ｊ７５－２４Ｓ
 41
0.833333
  7
STANDARD
100
AcDbText
  0
LEADER
  5
57
100
AcDbEntity
  8
DD0
100
AcDbLeader
  3
LEADSTYL
 76
     3
 10
330.255646
 20
218.753052
 10
342.593262
 20
239.001907
 10
400.593262
 20
239.001907
340
58
 77
     4
  0
TEXT
  5
58
100
AcDbEntity
  8
DD0
100
AcDbText
 10
343.884928
 20
240.001907
 40
3.5
  1
ＤＭ－Ｋ７５０Ｓ＋Ｊ７５－２４Ｓ
 41
0.833333
  7
STANDARD
100
AcDbText
  0
LEADER
  5
59
100
AcDbEntity
  8
DD0
100
AcDbLeader
  3
LEADSTYL
 76
     3
 10
62.967419
 20
108.859581
 10
81.367416
 20
129.110413
 10
139.367416
 20
129.110413
340
5A
 77
     4
  0
TEXT
  5
5A
100
AcDbEntity
  8
DD0
100
AcDbText
 10
82.659083
 20
130.110413
 40
3.5
  1
ＤＭ－Ｐ４００Ｓ＋Ｊ７５－３５Ｓ
 41
0.833333
  7
STANDARD
100
AcDbText
  0
LEADER
  5
5B
100
AcDbEntity
  8
DD0
100
AcDbLeader
  3
LEADSTYL
 76
     3
 10
66.967415
 20
121.315422
 10
81.367416
 20
137.982086
 10
139.367416
 20
137.982086
340
5C
 77
     4
  0
TEXT
  5
5C
100
AcDbEntity
  8
DD0
100
AcDbText
 10
82.659083
 20
138.982086
 40
3.5
  1
ＤＭ－Ｐ６００Ｓ＋Ｊ７５－３５Ｓ
 41
0.833333
  7
STANDARD
100
AcDbText
  0
LEADER
  5
5D
100
AcDbEntity
  8
DD0
100
AcDbLeader
  3
LEADSTYL
 76
     3
 10
71.767418
 20
134.63028
 10
82.6474
 20
146.983994
 10
140.6474
 20
146.983994
340
5E
 77
     4
  0
TEXT
  5
5E
100
AcDbEntity
  8
DD0
100
AcDbText
 10
83.939067
 20
147.983994
 40
3.5
  1
ＤＭ－Ｋ７５０Ｓ＋Ｊ７５－３５Ｓ
 41
0.833333
  7
STANDARD
100
AcDbText
  0
LEADER
  5
5F
100
AcDbEntity
  8
DD0
100
AcDbLeader
  3
LEADSTYL
 76
     3
 10
326.255646
 20
195.738083
 10
342.639099
 20
223.695862
 10
400.639099
 20
223.695862
340
60
 77
     4
  0
TEXT
  5
60
100
AcDbEntity
  8
DD0
100
AcDbText
 10
343.930766
 20
224.695862
 40
3.5
  1
ＤＭ－Ｐ４００Ｓ＋Ｊ７５－３５Ｓ
 41
0.833333
  7
STANDARD
100
AcDbText
  0
LEADER
  5
61
100
AcDbEntity
  8
DD0
100
AcDbLeader
  3
LEADSTYL
 76
     3
 10
327.855652
 20
205.901886
 10
342.934296
 20
231.156982
 10
400.934296
 20
231.156982
340
62
 77
     4
  0
TEXT
  5
62
100
AcDbEntity
  8
DD0
100
AcDbText
 10
344.225962
 20
232.156982
 40
3.5
  1
ＤＭ－Ｐ６００Ｓ＋Ｊ７５－２４Ｓ
 41
0.833333
  7
STANDARD
100
AcDbText
  0
LEADER
  5
63
100
AcDbEntity
  8
DD0
100
AcDbLeader
  3
LEADSTYL
 76
     3
 10
190.337265
 20
121.869873
 10
205.11203
 20
140.799393
 10
263.11203
 20
140.799393
340
64
 77
     4
  0
TEXT
  5
64
100
AcDbEntity
  8
DD0
100
AcDbText
 10
206.403697
 20
141.799393
 40
3.5
  1
ＤＭ－Ｐ６００Ｓ＋Ｊ７５－３５Ｓ
 41
0.833333
  7
STANDARD
100
AcDbText
  0
LEADER
  5
65
100
AcDbEntity
  8
DD0
100
AcDbLeader
  3
LEADSTYL
 76
     3
 10
195.137268
 20
135.199738
 10
204.771744
 20
146.542374
 10
262.771759
 20
146.542374
340
66
 77
     4
  0
TEXT
  5
66
100
AcDbEntity
  8
DD0
100
AcDbText
 10
206.06341
 20
147.542374
 40
3.5
  1
ＤＭ－Ｋ７５０Ｓ＋Ｊ７５－３５Ｓ
 41
0.833333
  7
STANDARD
100
AcDbText
  0
LEADER
  5
67
100
AcDbEntity
  8
DD0
100
AcDbLeader
  3
LEADSTYL
 76
     3
 10
315.958527
 20
213.420486
 10
302.07959
 20
175.938782
 10
406.24588
 20
175.938782
340
68
 77
     4
  0
TEXT
  5
68
100
AcDbEntity
  8
DD0
100
AcDbText
 10
304.037547
 20
176.938782
 40
3.5
  1
ＤＭ－Ｐ４００Ｓ、Ｐ６００Ｓ、Ｋ７５０Ｓ＋Ｊ４０－２４ＳＳ
 41
0.833333
  7
STANDARD
100
AcDbText
  0
LINE
  5
69
100
AcDbEntity
  8
M0
 62
     4
100
AcDbLine
 10
318.255645
 20
208.699091
 11
318.255645
 21
191.609079
  0
LINE
  5
6A
100
AcDbEntity
  8
M0
 62
     4
100
AcDbLine
 10
326.255645
 20
191.609079
 11
326.255645
 21
214.869231
  0
LINE
  5
6B
100
AcDbEntity
  8
M0
 62
     4
100
AcDbLine
 10
327.855645
 20
216.484979
 11
327.855645
 21
191.609079
  0
LINE
  5
6C
100
AcDbEntity
  8
M0
 62
     4
100
AcDbLine
 10
330.255645
 20
191.609079
 11
330.255645
 21
224.809079
  0
LINE
  5
6D
100
AcDbEntity
  8
M0
 62
     4
100
AcDbLine
 10
49.367418
 20
140.515425
 11
69.767418
 21
140.515425
  0
LINE
  5
6E
100
AcDbEntity
  8
M0
 62
     4
100
AcDbLine
 10
62.967418
 20
130.248758
 11
62.967418
 21
105.315425
  0
LINE
  5
6F
100
AcDbEntity
  8
M0
 62
     4
100
AcDbLine
 10
56.367418
 20
139.715425
 11
62.567418
 21
131.448758
  0
LINE
  5
70
100
AcDbEntity
  8
M0
 62
     4
100
AcDbLine
 10
66.967418
 20
133.448758
 11
66.967418
 21
105.315425
  0
LINE
  5
71
100
AcDbEntity
  8
M0
 62
     4
100
AcDbLine
 10
71.767418
 20
105.315425
 11
71.767418
 21
138.515425
  0
ARC
  5
72
100
AcDbEntity
  8
M0
 62
     4
100
AcDbCircle
 10
60.967418
 20
130.248758
 40
2.0
100
AcDbArc
 50
0.0
 51
36.869898
  0
LINE
  5
73
100
AcDbEntity
  8
M0
 62
     4
100
AcDbLine
 10
300.655645
 20
226.809079
 11
328.255645
 21
226.809079
  0
LINE
  5
74
100
AcDbEntity
  8
M0
 62
     4
100
AcDbLine
 10
309.22417
 20
225.766783
 11
318.011436
 21
209.656795
  0
LINE
  5
75
100
AcDbEntity
  8
M0
 62
     4
100
AcDbLine
 10
325.774158
 20
216.170813
 11
317.254288
 21
226.110662
  0
LINE
  5
76
100
AcDbEntity
  8
M0
 62
     4
100
AcDbLine
 10
320.455337
 20
226.089448
 11
327.392087
 21
217.765348
  0
ARC
  5
77
100
AcDbEntity
  8
M0
 62
     4
100
AcDbCircle
 10
328.255645
 20
224.809079
 40
2.0
100
AcDbArc
 50
0.0
 51
90.0
  0
ARC
  5
78
100
AcDbEntity
  8
M0
 62
     4
100
AcDbCircle
 10
318.918895
 20
224.809079
 40
2.0
100
AcDbArc
 50
39.805571
 51
90.0
  0
ARC
  5
79
100
AcDbEntity
  8
M0
 62
     4
100
AcDbCircle
 10
315.735775
 20
224.809079
 40
2.0
100
AcDbArc
 50
40.601295
 51
90.0
  0
ARC
  5
7A
100
AcDbEntity
  8
M0
 62
     4
100
AcDbCircle
 10
307.468378
 20
224.809079
 40
2.0
100
AcDbArc
 50
28.61046
 51
90.0
  0
ARC
  5
7B
100
AcDbEntity
  8
M0
 62
     4
100
AcDbCircle
 10
316.255645
 20
208.699091
 40
2.0
100
AcDbArc
 50
0.0
 51
28.61046
  0
ARC
  5
7C
100
AcDbEntity
  8
M0
 62
     4
100
AcDbCircle
 10
325.855645
 20
216.484979
 40
2.0
100
AcDbArc
 50
0.0
 51
39.805571
  0
ARC
  5
7D
100
AcDbEntity
  8
M0
 62
     4
100
AcDbCircle
 10
324.255645
 20
214.869231
 40
2.0
100
AcDbArc
 50
0.0
 51
40.601295
  0
LINE
  5
7E
100
AcDbEntity
  8
M0
 62
     4
100
AcDbLine
 10
62.767418
 20
139.715425
 11
66.567418
 21
134.648758
  0
ARC
  5
7F
100
AcDbEntity
  8
M0
 62
     4
100
AcDbCircle
 10
54.767418
 20
138.515425
 40
2.0
100
AcDbArc
 50
36.869898
 51
90.0
  0
ARC
  5
80
100
AcDbEntity
  8
M0
 62
     4
100
AcDbCircle
 10
61.167418
 20
138.515425
 40
2.0
100
AcDbArc
 50
36.869898
 51
90.0
  0
ARC
  5
81
100
AcDbEntity
  8
M0
 62
     4
100
AcDbCircle
 10
64.967418
 20
133.448758
 40
2.0
100
AcDbArc
 50
0.0
 51
36.869898
  0
ARC
  5
82
100
AcDbEntity
  8
M0
 62
     4
100
AcDbCircle
 10
69.767418
 20
138.515425
 40
2.0
100
AcDbArc
 50
0.0
 51
90.0
  0
TEXT
  5
83
100
AcDbEntity
  8
M0
 62
     4
100
AcDbText
 10
199.413239
 20
168.087501
 40
5.376
  1
揚水量（Ｌ／分）
 41
0.611111
  7
STANDARD
100
AcDbText
  0
ARC
  5
84
100
AcDbEntity
  8
M0
100
AcDbCircle
 10
-314.576671
 20
261.699649
 40
20.0
100
AcDbArc
 50
262.874984
 51
437.905243
  0
LINE
  5
85
100
AcDbEntity
  8
M0
 62
     4
100
AcDbLine
 10
30.883606
 20
274.006636
 11
54.268013
 21
274.006636
  0
LINE
  5
86
100
AcDbEntity
  8
M0
 62
     4
100
AcDbLine
 10
54.268013
 20
283.538566
 11
30.883606
 21
283.538566
  0
LINE
  5
87
100
AcDbEntity
  8
M0
 62
     4
100
AcDbLine
 10
30.883606
 20
283.538566
 11
30.883606
 21
274.006636
  0
LINE
  5
88
100
AcDbEntity
  8
M0
 62
     4
100
AcDbLine
 10
54.268013
 20
283.538566
 11
54.268013
 21
274.006636
  0
TEXT
  5
89
100
AcDbEntity
  8
M0
 62
     4
100
AcDbText
 10
33.325355
 20
276.021239
 40
5.4
  1
揚水性能
 41
0.740741
  7
STANDARD
100
AcDbText
  0
TEXT
  5
8A
100
AcDbEntity
  8
M0
 62
     4
100
AcDbText
 10
77.923833
 20
276.159864
 40
4.8
  1
吸上高さ１２ｍ時の場合
 41
0.590278
  7
STANDARD
100
AcDbText
  0
TEXT
  5
8B
100
AcDbEntity
  8
M0
 62
     4
100
AcDbText
 10
192.923833
 20
276.159864
 40
4.8
  1
吸上高さ１８ｍ時の場合
 41
0.590278
  7
STANDARD
100
AcDbText
  0
TEXT
  5
8C
100
AcDbEntity
  8
M0
 62
     4
100
AcDbText
 10
318.795888
 20
245.832307
 40
4.8
  1
吸上高さ２４ｍ時の場合
 41
0.590278
  7
STANDARD
100
AcDbText
  0
TEXT
  5
8D
100
AcDbEntity
  8
M0
 62
     4
100
AcDbText
 10
67.507673
 20
155.938655
 40
4.8
  1
吸上高さ３０ｍ時の場合
 41
0.590278
  7
STANDARD
100
AcDbText
  0
TEXT
  5
8E
100
AcDbEntity
  8
M0
 62
     4
100
AcDbText
 10
175.677516
 20
156.940402
 40
4.8
  1
吸上高さ３５ｍ時の場合（ＤＭ－Ｐ６００Ｓ、Ｋ７５０Ｓ）
 41
0.590278
  7
STANDARD
100
AcDbText
  0
LINE
  5
8F
100
AcDbEntity
  8
M0
 62
    74
100
AcDbLine
 10
300.655645
 20
153.209079
 11
372.655645
 21
153.209079
  0
LINE
  5
90
100
AcDbEntity
  8
M0
 62
    74
100
AcDbLine
 10
300.655645
 20
241.209079
 11
300.655645
 21
153.209079
  0
LINE
  5
91
100
AcDbEntity
  8
M0
 62
    74
100
AcDbLine
 10
300.655645
 20
169.209079
 11
372.655645
 21
169.209079
  0
LINE
  5
92
100
AcDbEntity
  8
M0
 62
    74
100
AcDbLine
 10
300.655645
 20
185.209079
 11
372.655645
 21
185.209079
  0
LINE
  5
93
100
AcDbEntity
  8
M0
 62
    74
100
AcDbLine
 10
332.655645
 20
201.209079
 11
332.655645
 21
217.209079
  0
LINE
  5
94
100
AcDbEntity
  8
M0
 62
    74
100
AcDbLine
 10
300.655645
 20
217.209079
 11
372.655645
 21
217.209079
  0
LINE
  5
95
100
AcDbEntity
  8
M0
 62
    74
100
AcDbLine
 10
300.655645
 20
201.209079
 11
372.655645
 21
201.209079
  0
LINE
  5
96
100
AcDbEntity
  8
M0
 62
    74
100
AcDbLine
 10
300.655645
 20
233.209079
 11
338.277821
 21
233.209079
  0
ARC
  5
97
100
AcDbEntity
  8
M0
 62
    74
100
AcDbCircle
 10
285.099821
 20
181.487578
 40
5.376
100
AcDbArc
 50
52.58592
 51
127.41408
  0
ARC
  5
98
100
AcDbEntity
  8
M0
 62
    74
100
AcDbCircle
 10
285.099821
 20
184.861548
 40
5.376
100
AcDbArc
 50
232.58592
 51
307.41408
  0
TEXT
  5
99
100
AcDbEntity
  8
M0
 62
    74
100
AcDbText
 10
282.859824
 20
197.555846
 40
3.584
  1
全
 41
1.25
  7
STANDARD
100
AcDbText
  0
TEXT
  5
9A
100
AcDbEntity
  8
M0
 62
    74
100
AcDbText
 10
282.859824
 20
193.613446
 40
3.584
  1
揚
 41
1.25
  7
STANDARD
100
AcDbText
  0
TEXT
  5
9B
100
AcDbEntity
  8
M0
 62
    74
100
AcDbText
 10
282.859824
 20
189.671046
 40
3.584
  1
程
 41
1.25
  7
STANDARD
100
AcDbText
  0
TEXT
  5
9C
100
AcDbEntity
  8
M0
 62
    74
100
AcDbText
 10
282.859824
 20
185.728646
 40
3.584
  1
　
 41
1.25
  7
STANDARD
100
AcDbText
  0
TEXT
  5
9D
100
AcDbEntity
  8
M0
 62
    74
100
AcDbText
 10
282.859824
 20
181.786246
 40
3.584
  1
ｍ
 41
1.25
  7
STANDARD
100
AcDbText
  0
TEXT
  5
9E
100
AcDbEntity
  8
M0
 62
    74
100
AcDbText
 10
291.13544
 20
198.929045
 40
4.8
  1
３０
 41
0.611111
  7
STANDARD
100
AcDbText
  0
TEXT
  5
9F
100
AcDbEntity
  8
M0
 62
    74
100
AcDbText
 10
291.13544
 20
182.929044
 40
4.8
  1
２０
 41
0.611111
  7
STANDARD
100
AcDbText
  0
TEXT
  5
A0
100
AcDbEntity
  8
M0
 62
    74
100
AcDbText
 10
291.13544
 20
166.929051
 40
4.8
  1
１０
 41
0.611111
  7
STANDARD
100
AcDbText
  0
TEXT
  5
A1
100
AcDbEntity
  8
M0
 62
    74
100
AcDbText
 10
294.335437
 20
150.929045
 40
4.8
  1
０
 41
0.611111
  7
STANDARD
100
AcDbText
  0
TEXT
  5
A2
100
AcDbEntity
  8
M0
 62
    74
100
AcDbText
 10
297.535451
 20
145.167037
 40
4.8
  1
０
 41
0.611111
  7
STANDARD
100
AcDbText
  0
TEXT
  5
A3
100
AcDbEntity
  8
M0
 62
    74
100
AcDbText
 10
329.535419
 20
145.167037
 40
4.8
  1
２０
 41
0.611111
  7
STANDARD
100
AcDbText
  0
TEXT
  5
A4
100
AcDbEntity
  8
M0
 62
    74
100
AcDbText
 10
361.535449
 20
145.167037
 40
4.8
  1
４０
 41
0.611111
  7
STANDARD
100
AcDbText
  0
TEXT
  5
A5
100
AcDbEntity
  8
M0
 62
    74
100
AcDbText
 10
323.920987
 20
137.84397
 40
5.376
  1
揚水量（Ｌ／分）
 41
0.611111
  7
STANDARD
100
AcDbText
  0
TEXT
  5
A6
100
AcDbEntity
  8
M0
 62
    74
100
AcDbText
 10
313.535449
 20
145.167037
 40
4.8
  1
１０
 41
0.611111
  7
STANDARD
100
AcDbText
  0
TEXT
  5
A7
100
AcDbEntity
  8
M0
 62
    74
100
AcDbText
 10
345.535451
 20
145.167037
 40
4.8
  1
３０
 41
0.611111
  7
STANDARD
100
AcDbText
  0
TEXT
  5
A8
100
AcDbEntity
  8
M0
 62
    74
100
AcDbText
 10
291.13544
 20
214.929049
 40
4.8
  1
４０
 41
0.611111
  7
STANDARD
100
AcDbText
  0
TEXT
  5
A9
100
AcDbEntity
  8
M0
 62
    74
100
AcDbText
 10
291.13544
 20
230.929049
 40
4.8
  1
５０
 41
0.611111
  7
STANDARD
100
AcDbText
  0
LINE
  5
AA
100
AcDbEntity
  8
M0
 62
    74
100
AcDbLine
 10
332.655645
 20
217.209079
 11
332.655645
 21
241.250749
  0
LINE
  5
AB
100
AcDbEntity
  8
M0
 62
    74
100
AcDbLine
 10
348.655645
 20
201.209079
 11
348.655645
 21
220.609415
  0
LINE
  5
AC
100
AcDbEntity
  8
M0
 62
    74
100
AcDbLine
 10
364.655645
 20
201.209079
 11
364.655645
 21
220.609415
  0
LINE
  5
AD
100
AcDbEntity
  8
M0
 62
    74
100
AcDbLine
 10
49.367418
 20
57.315425
 11
121.367418
 21
57.315425
  0
LINE
  5
AE
100
AcDbEntity
  8
M0
 62
    74
100
AcDbLine
 10
49.367418
 20
153.315425
 11
49.367418
 21
57.315425
  0
LINE
  5
AF
100
AcDbEntity
  8
M0
 62
    74
100
AcDbLine
 10
81.367418
 20
57.315425
 11
81.367418
 21
105.315425
  0
LINE
  5
B0
100
AcDbEntity
  8
M0
 62
    74
100
AcDbLine
 10
113.367418
 20
57.315425
 11
113.367418
 21
105.315425
  0
LINE
  5
B1
100
AcDbEntity
  8
M0
 62
    74
100
AcDbLine
 10
49.367418
 20
73.315425
 11
121.367418
 21
73.315425
  0
LINE
  5
B2
100
AcDbEntity
  8
M0
 62
    74
100
AcDbLine
 10
49.367418
 20
89.315425
 11
121.367418
 21
89.315425
  0
LINE
  5
B3
100
AcDbEntity
  8
M0
 62
    74
100
AcDbLine
 10
81.367418
 20
105.315425
 11
81.367418
 21
121.315425
  0
LINE
  5
B4
100
AcDbEntity
  8
M0
 62
    74
100
AcDbLine
 10
65.367418
 20
57.315425
 11
65.367418
 21
153.315425
  0
LINE
  5
B5
100
AcDbEntity
  8
M0
 62
    74
100
AcDbLine
 10
97.367418
 20
57.315425
 11
97.367418
 21
105.315425
  0
LINE
  5
B6
100
AcDbEntity
  8
M0
 62
    74
100
AcDbLine
 10
49.367418
 20
121.315425
 11
121.367418
 21
121.315425
  0
LINE
  5
B7
100
AcDbEntity
  8
M0
 62
    74
100
AcDbLine
 10
49.367418
 20
105.315425
 11
121.367418
 21
105.315425
  0
LINE
  5
B8
100
AcDbEntity
  8
M0
 62
    74
100
AcDbLine
 10
49.367418
 20
137.315425
 11
81.367418
 21
137.315425
  0
LINE
  5
B9
100
AcDbEntity
  8
M0
 62
    74
100
AcDbLine
 10
81.367418
 20
121.315425
 11
81.367418
 21
153.315425
  0
LINE
  5
BA
100
AcDbEntity
  8
M0
 62
    74
100
AcDbLine
 10
97.367418
 20
105.315425
 11
97.367418
 21
124.592725
  0
LINE
  5
BB
100
AcDbEntity
  8
M0
 62
    74
100
AcDbLine
 10
113.367418
 20
105.315425
 11
113.367418
 21
125.690773
  0
ARC
  5
BC
100
AcDbEntity
  8
M0
 62
    74
100
AcDbCircle
 10
33.811594
 20
85.593923
 40
5.376
100
AcDbArc
 50
52.58592
 51
127.41408
  0
ARC
  5
BD
100
AcDbEntity
  8
M0
 62
    74
100
AcDbCircle
 10
33.811594
 20
88.967894
 40
5.376
100
AcDbArc
 50
232.58592
 51
307.41408
  0
TEXT
  5
BE
100
AcDbEntity
  8
M0
 62
    74
100
AcDbText
 10
31.571608
 20
101.662192
 40
3.584
  1
全
 41
1.25
  7
STANDARD
100
AcDbText
  0
TEXT
  5
BF
100
AcDbEntity
  8
M0
 62
    74
100
AcDbText
 10
31.571608
 20
97.719792
 40
3.584
  1
揚
 41
1.25
  7
STANDARD
100
AcDbText
  0
TEXT
  5
C0
100
AcDbEntity
  8
M0
 62
    74
100
AcDbText
 10
31.571608
 20
93.777392
 40
3.584
  1
程
 41
1.25
  7
STANDARD
100
AcDbText
  0
TEXT
  5
C1
100
AcDbEntity
  8
M0
 62
    74
100
AcDbText
 10
31.571608
 20
89.834992
 40
3.584
  1
　
 41
1.25
  7
STANDARD
100
AcDbText
  0
TEXT
  5
C2
100
AcDbEntity
  8
M0
 62
    74
100
AcDbText
 10
31.571608
 20
85.892592
 40
3.584
  1
ｍ
 41
1.25
  7
STANDARD
100
AcDbText
  0
TEXT
  5
C3
100
AcDbEntity
  8
M0
 62
    74
100
AcDbText
 10
39.847224
 20
103.035392
 40
4.8
  1
３０
 41
0.611111
  7
STANDARD
100
AcDbText
  0
TEXT
  5
C4
100
AcDbEntity
  8
M0
 62
    74
100
AcDbText
 10
39.847224
 20
87.035392
 40
4.8
  1
２０
 41
0.611111
  7
STANDARD
100
AcDbText
  0
TEXT
  5
C5
100
AcDbEntity
  8
M0
 62
    74
100
AcDbText
 10
39.847224
 20
71.035399
 40
4.8
  1
１０
 41
0.611111
  7
STANDARD
100
AcDbText
  0
TEXT
  5
C6
100
AcDbEntity
  8
M0
 62
    74
100
AcDbText
 10
43.047206
 20
55.035384
 40
4.8
  1
０
 41
0.611111
  7
STANDARD
100
AcDbText
  0
TEXT
  5
C7
100
AcDbEntity
  8
M0
 62
    74
100
AcDbText
 10
46.247218
 20
49.273375
 40
4.8
  1
０
 41
0.611111
  7
STANDARD
100
AcDbText
  0
TEXT
  5
C8
100
AcDbEntity
  8
M0
 62
    74
100
AcDbText
 10
78.247188
 20
49.273375
 40
4.8
  1
２０
 41
0.611111
  7
STANDARD
100
AcDbText
  0
TEXT
  5
C9
100
AcDbEntity
  8
M0
 62
    74
100
AcDbText
 10
110.247218
 20
49.273375
 40
4.8
  1
４０
 41
0.611111
  7
STANDARD
100
AcDbText
  0
TEXT
  5
CA
100
AcDbEntity
  8
M0
 62
    74
100
AcDbText
 10
72.632756
 20
41.950316
 40
5.376
  1
揚水量（Ｌ／分）
 41
0.611111
  7
STANDARD
100
AcDbText
  0
TEXT
  5
CB
100
AcDbEntity
  8
M0
 62
    74
100
AcDbText
 10
62.247218
 20
49.273375
 40
4.8
  1
１０
 41
0.611111
  7
STANDARD
100
AcDbText
  0
TEXT
  5
CC
100
AcDbEntity
  8
M0
 62
    74
100
AcDbText
 10
94.247218
 20
49.273375
 40
4.8
  1
３０
 41
0.611111
  7
STANDARD
100
AcDbText
  0
TEXT
  5
CD
100
AcDbEntity
  8
M0
 62
    74
100
AcDbText
 10
39.847224
 20
119.035399
 40
4.8
  1
４０
 41
0.611111
  7
STANDARD
100
AcDbText
  0
TEXT
  5
CE
100
AcDbEntity
  8
M0
 62
    74
100
AcDbText
 10
39.847224
 20
135.035395
 40
4.8
  1
５０
 41
0.611111
  7
STANDARD
100
AcDbText
  0
TEXT
  5
CF
100
AcDbEntity
  8
M0
 62
    74
100
AcDbText
 10
206.417033
 20
50.27513
 40
4.8
  1
２０
 41
0.611111
  7
STANDARD
100
AcDbText
  0
TEXT
  5
D0
100
AcDbEntity
  8
M0
 62
    74
100
AcDbText
 10
238.417064
 20
50.27513
 40
4.8
  1
４０
 41
0.611111
  7
STANDARD
100
AcDbText
  0
TEXT
  5
D1
100
AcDbEntity
  8
M0
 62
    74
100
AcDbText
 10
200.802601
 20
42.952071
 40
5.376
  1
揚水量（Ｌ／分）
 41
0.611111
  7
STANDARD
100
AcDbText
  0
TEXT
  5
D2
100
AcDbEntity
  8
M0
 62
    74
100
AcDbText
 10
190.417064
 20
50.27513
 40
4.8
  1
１０
 41
0.611111
  7
STANDARD
100
AcDbText
  0
TEXT
  5
D3
100
AcDbEntity
  8
M0
 62
    74
100
AcDbText
 10
222.417064
 20
50.27513
 40
4.8
  1
３０
 41
0.611111
  7
STANDARD
100
AcDbText
  0
TEXT
  5
D4
100
AcDbEntity
  8
M0
 62
    74
100
AcDbText
 10
168.01707
 20
120.037146
 40
4.8
  1
４０
 41
0.611111
  7
STANDARD
100
AcDbText
  0
TEXT
  5
D5
100
AcDbEntity
  8
M0
 62
    74
100
AcDbText
 10
168.01707
 20
136.037146
 40
4.8
  1
５０
 41
0.611111
  7
STANDARD
100
AcDbText
  0
LINE
  5
D6
100
AcDbEntity
  8
M0
 62
    74
100
AcDbLine
 10
177.537262
 20
58.317175
 11
249.537262
 21
58.317175
  0
LINE
  5
D7
100
AcDbEntity
  8
M0
 62
    74
100
AcDbLine
 10
177.537262
 20
154.317175
 11
177.537262
 21
58.317175
  0
LINE
  5
D8
100
AcDbEntity
  8
M0
 62
    74
100
AcDbLine
 10
209.537262
 20
58.317175
 11
209.537262
 21
106.317175
  0
LINE
  5
D9
100
AcDbEntity
  8
M0
 62
    74
100
AcDbLine
 10
241.537262
 20
58.317175
 11
241.537262
 21
106.317175
  0
LINE
  5
DA
100
AcDbEntity
  8
M0
 62
    74
100
AcDbLine
 10
177.537262
 20
74.317175
 11
249.537262
 21
74.317175
  0
LINE
  5
DB
100
AcDbEntity
  8
M0
 62
    74
100
AcDbLine
 10
177.537262
 20
90.317175
 11
249.537262
 21
90.317175
  0
LINE
  5
DC
100
AcDbEntity
  8
M0
 62
    74
100
AcDbLine
 10
209.537262
 20
106.317175
 11
209.537262
 21
122.317175
  0
LINE
  5
DD
100
AcDbEntity
  8
M0
 62
    74
100
AcDbLine
 10
193.537262
 20
58.317175
 11
193.537262
 21
154.317175
  0
LINE
  5
DE
100
AcDbEntity
  8
M0
 62
    74
100
AcDbLine
 10
225.537262
 20
58.317175
 11
225.537262
 21
106.317175
  0
LINE
  5
DF
100
AcDbEntity
  8
M0
 62
    74
100
AcDbLine
 10
177.537262
 20
122.317175
 11
249.537262
 21
122.317175
  0
LINE
  5
E0
100
AcDbEntity
  8
M0
 62
    74
100
AcDbLine
 10
177.537262
 20
106.317175
 11
249.537262
 21
106.317175
  0
LINE
  5
E1
100
AcDbEntity
  8
M0
 62
    74
100
AcDbLine
 10
177.537262
 20
138.317175
 11
249.537262
 21
138.317175
  0
LINE
  5
E2
100
AcDbEntity
  8
M0
 62
    74
100
AcDbLine
 10
209.537262
 20
122.317175
 11
209.537262
 21
138.317175
  0
LINE
  5
E3
100
AcDbEntity
  8
M0
 62
    74
100
AcDbLine
 10
225.537262
 20
106.317175
 11
225.537262
 21
138.317175
  0
LINE
  5
E4
100
AcDbEntity
  8
M0
 62
    74
100
AcDbLine
 10
241.537262
 20
106.317175
 11
241.537262
 21
138.317175
  0
ARC
  5
E5
100
AcDbEntity
  8
M0
 62
    74
100
AcDbCircle
 10
161.981438
 20
86.595674
 40
5.376
100
AcDbArc
 50
52.58592
 51
127.41408
  0
ARC
  5
E6
100
AcDbEntity
  8
M0
 62
    74
100
AcDbCircle
 10
161.981438
 20
89.969644
 40
5.376
100
AcDbArc
 50
232.58592
 51
307.41408
  0
TEXT
  5
E7
100
AcDbEntity
  8
M0
 62
    74
100
AcDbText
 10
159.741454
 20
102.663939
 40
3.584
  1
全
 41
1.25
  7
STANDARD
100
AcDbText
  0
TEXT
  5
E8
100
AcDbEntity
  8
M0
 62
    74
100
AcDbText
 10
159.741454
 20
98.721539
 40
3.584
  1
揚
 41
1.25
  7
STANDARD
100
AcDbText
  0
TEXT
  5
E9
100
AcDbEntity
  8
M0
 62
    74
100
AcDbText
 10
159.741454
 20
94.779139
 40
3.584
  1
程
 41
1.25
  7
STANDARD
100
AcDbText
  0
TEXT
  5
EA
100
AcDbEntity
  8
M0
 62
    74
100
AcDbText
 10
159.741454
 20
90.836739
 40
3.584
  1
　
 41
1.25
  7
STANDARD
100
AcDbText
  0
TEXT
  5
EB
100
AcDbEntity
  8
M0
 62
    74
100
AcDbText
 10
159.741454
 20
86.89434
 40
3.584
  1
ｍ
 41
1.25
  7
STANDARD
100
AcDbText
  0
TEXT
  5
EC
100
AcDbEntity
  8
M0
 62
    74
100
AcDbText
 10
168.01707
 20
104.037139
 40
4.8
  1
３０
 41
0.611111
  7
STANDARD
100
AcDbText
  0
TEXT
  5
ED
100
AcDbEntity
  8
M0
 62
    74
100
AcDbText
 10
168.01707
 20
88.037139
 40
4.8
  1
２０
 41
0.611111
  7
STANDARD
100
AcDbText
  0
TEXT
  5
EE
100
AcDbEntity
  8
M0
 62
    74
100
AcDbText
 10
168.01707
 20
72.037146
 40
4.8
  1
１０
 41
0.611111
  7
STANDARD
100
AcDbText
  0
TEXT
  5
EF
100
AcDbEntity
  8
M0
 62
    74
100
AcDbText
 10
171.217052
 20
56.037139
 40
4.8
  1
０
 41
0.611111
  7
STANDARD
100
AcDbText
  0
TEXT
  5
F0
100
AcDbEntity
  8
M0
 62
    74
100
AcDbText
 10
174.417064
 20
50.27513
 40
4.8
  1
０
 41
0.611111
  7
STANDARD
100
AcDbText
  0
LINE
  5
F1
100
AcDbEntity
  8
M0
 62
    74
100
AcDbLine
 10
249.537262
 20
154.317175
 11
177.537262
 21
154.317175
  0
TEXT
  5
F2
100
AcDbEntity
  8
M0
 62
    74
100
AcDbText
 10
168.01707
 20
152.037146
 40
4.8
  1
６０
 41
0.611111
  7
STANDARD
100
AcDbText
  0
LINE
  5
F3
100
AcDbEntity
  8
M0
 62
    74
100
AcDbLine
 10
177.537262
 20
149.517175
 11
193.137262
 21
149.517175
  0
LINE
  5
F4
100
AcDbEntity
  8
M0
 62
    74
100
AcDbLine
 10
190.337262
 20
114.317175
 11
190.337262
 21
143.57894
  0
LINE
  5
F5
100
AcDbEntity
  8
M0
 62
    74
100
AcDbLine
 10
195.137262
 20
147.517175
 11
195.137262
 21
114.317175
  0
LINE
  5
F6
100
AcDbEntity
  8
M0
 62
    74
100
AcDbLine
 10
316.655645
 20
153.209079
 11
316.655645
 21
173.718686
  0
LINE
  5
F7
100
AcDbEntity
  8
M0
 62
    74
100
AcDbLine
 10
332.655645
 20
153.209079
 11
332.655645
 21
173.718686
  0
LINE
  5
F8
100
AcDbEntity
  8
M0
 62
    74
100
AcDbLine
 10
348.655645
 20
153.209079
 11
348.655645
 21
173.718686
  0
LINE
  5
F9
100
AcDbEntity
  8
M0
 62
    74
100
AcDbLine
 10
364.655645
 20
153.209079
 11
364.655645
 21
173.718686
  0
LINE
  5
FA
100
AcDbEntity
  8
M0
 62
    74
100
AcDbLine
 10
364.655645
 20
181.076814
 11
364.655645
 21
201.209079
  0
LINE
  5
FB
100
AcDbEntity
  8
M0
 62
    74
100
AcDbLine
 10
348.655645
 20
181.076814
 11
348.655645
 21
201.209079
  0
LINE
  5
FC
100
AcDbEntity
  8
M0
 62
    74
100
AcDbLine
 10
332.655645
 20
180.718907
 11
332.655645
 21
201.209079
  0
LINE
  5
FD
100
AcDbEntity
  8
M0
 62
    74
100
AcDbLine
 10
316.655645
 20
181.243611
 11
316.655645
 21
241.209079
  0
LINE
  5
FE
100
AcDbEntity
  8
M0
 62
    74
100
AcDbLine
 10
209.537262
 20
152.488653
 11
209.537262
 21
154.317175
  0
LINE
  5
FF
100
AcDbEntity
  8
M0
 62
    74
100
AcDbLine
 10
225.537262
 20
152.411635
 11
225.537262
 21
154.317175
  0
LINE
  5
100
100
AcDbEntity
  8
M0
 62
    74
100
AcDbLine
 10
241.537262
 20
152.565671
 11
241.537262
 21
154.317175
  0
LINE
  5
101
100
AcDbEntity
  8
M0
 62
    74
100
AcDbLine
 10
121.367418
 20
153.315425
 11
49.367418
 21
153.315425
  0
TEXT
  5
102
100
AcDbEntity
  8
M0
 62
    74
100
AcDbText
 10
39.847224
 20
151.035395
 40
4.8
  1
６０
 41
0.611111
  7
STANDARD
100
AcDbText
  0
ARC
  5
103
100
AcDbEntity
  8
M0
 62
    74
100
AcDbCircle
 10
193.137262
 20
147.517175
 40
2.0
100
AcDbArc
 50
0.0
 51
90.0
  0
LINE
  5
104
100
AcDbEntity
  8
M0
 62
    74
100
AcDbLine
 10
189.775397
 20
147.790405
 11
190.31851
 21
143.852169
  0
ARC
  5
105
100
AcDbEntity
  8
M0
 62
    74
100
AcDbCircle
 10
187.794148
 20
147.517175
 40
2.0
100
AcDbArc
 50
7.852007
 51
90.0
  0
ARC
  5
106
100
AcDbEntity
  8
M0
 62
    74
100
AcDbCircle
 10
188.337262
 20
143.57894
 40
2.0
100
AcDbArc
 50
0.0
 51
7.852007
  0
TEXT
  5
107
100
AcDbEntity
  8
M0
 62
    74
100
AcDbText
 10
271.514546
 20
91.504409
 40
4.5
  1
ＤＭ－Ｐ４００Ｓ、ＤＭ－Ｐ６００Ｓ、ＤＭ－Ｋ７５０Ｓ　揚水性能図
 41
0.777778
  7
STANDARD
100
AcDbText
  0
LINE
  5
108
100
AcDbEntity
  8
M0
100
AcDbLine
 10
49.783576
 20
183.536635
 11
137.783576
 21
183.536635
  0
LINE
  5
109
100
AcDbEntity
  8
M0
100
AcDbLine
 10
49.783576
 20
271.536635
 11
49.783576
 21
183.536635
  0
LINE
  5
10A
100
AcDbEntity
  8
M0
100
AcDbLine
 10
81.783576
 20
183.536635
 11
81.783576
 21
231.536635
  0
LINE
  5
10B
100
AcDbEntity
  8
M0
100
AcDbLine
 10
113.783576
 20
183.536635
 11
113.783576
 21
231.536635
  0
LINE
  5
10C
100
AcDbEntity
  8
M0
100
AcDbLine
 10
49.783576
 20
199.536635
 11
137.783576
 21
199.536635
  0
LINE
  5
10D
100
AcDbEntity
  8
M0
100
AcDbLine
 10
49.783576
 20
215.536635
 11
137.783576
 21
215.536635
  0
LINE
  5
10E
100
AcDbEntity
  8
M0
100
AcDbLine
 10
81.783576
 20
231.536635
 11
81.783576
 21
237.386239
  0
LINE
  5
10F
100
AcDbEntity
  8
M0
100
AcDbLine
 10
65.783576
 20
183.536635
 11
65.783576
 21
237.386239
  0
LINE
  5
110
100
AcDbEntity
  8
M0
100
AcDbLine
 10
97.783576
 20
183.536635
 11
97.783576
 21
237.936635
  0
LINE
  5
111
100
AcDbEntity
  8
M0
100
AcDbLine
 10
129.783576
 20
183.536635
 11
129.783576
 21
252.248374
  0
LINE
  5
112
100
AcDbEntity
  8
M0
100
AcDbLine
 10
49.783576
 20
247.536635
 11
137.783576
 21
247.536635
  0
LINE
  5
113
100
AcDbEntity
  8
M0
100
AcDbLine
 10
49.783576
 20
237.936635
 11
110.183576
 21
237.936635
  0
LINE
  5
114
100
AcDbEntity
  8
M0
100
AcDbLine
 10
49.783576
 20
263.536635
 11
73.157531
 21
263.536635
  0
LINE
  5
115
100
AcDbEntity
  8
M0
100
AcDbLine
 10
113.783576
 20
231.536635
 11
113.783576
 21
252.248374
  0
LINE
  5
116
100
AcDbEntity
  8
M0
100
AcDbLine
 10
49.783576
 20
231.536635
 11
137.783576
 21
231.536635
  0
LINE
  5
117
100
AcDbEntity
  8
M0
100
AcDbLine
 10
84.357721
 20
237.653035
 11
108.010208
 21
223.505753
  0
LINE
  5
118
100
AcDbEntity
  8
M0
100
AcDbLine
 10
108.983576
 20
202.915037
 11
108.983576
 21
221.789353
  0
LINE
  5
119
100
AcDbEntity
  8
M0
100
AcDbLine
 10
110.583576
 20
202.996015
 11
110.583576
 21
222.973526
  0
LINE
  5
11A
100
AcDbEntity
  8
M0
100
AcDbLine
 10
102.361635
 20
236.980133
 11
110.289774
 21
224.017023
  0
LINE
  5
11B
100
AcDbEntity
  8
M0
100
AcDbLine
 10
112.183576
 20
202.996015
 11
112.183576
 21
235.936635
  0
ARC
  5
11C
100
AcDbEntity
  8
M0
100
AcDbCircle
 10
94.031089
 20
229.536635
 40
2.0
100
AcDbArc
 50
59.115055
 51
90.0
  0
ARC
  5
11D
100
AcDbEntity
  8
M0
100
AcDbCircle
 10
106.983576
 20
221.789353
 40
2.0
100
AcDbArc
 50
0.0
 51
59.115055
  0
ARC
  5
11E
100
AcDbEntity
  8
M0
100
AcDbCircle
 10
108.583576
 20
222.973526
 40
2.0
100
AcDbArc
 50
0.0
 51
31.449638
  0
LINE
  5
11F
100
AcDbEntity
  8
M0
100
AcDbLine
 10
65.783576
 20
237.936635
 11
65.783576
 21
251.888077
  0
LINE
  5
120
100
AcDbEntity
  8
M0
100
AcDbLine
 10
81.783576
 20
237.936635
 11
81.783576
 21
252.248374
  0
LINE
  5
121
100
AcDbEntity
  8
M0
100
AcDbLine
 10
97.783576
 20
237.936635
 11
97.783576
 21
252.248374
  0
ARC
  5
122
100
AcDbEntity
  8
M0
100
AcDbCircle
 10
34.449628
 20
213.67551
 40
5.376
100
AcDbArc
 50
52.58592
 51
127.41408
  0
ARC
  5
123
100
AcDbEntity
  8
M0
100
AcDbCircle
 10
34.449628
 20
217.04948
 40
5.376
100
AcDbArc
 50
232.58592
 51
307.41408
  0
TEXT
  5
124
100
AcDbEntity
  8
M0
100
AcDbText
 10
32.209626
 20
229.743773
 40
3.584
  1
全
 41
1.25
  7
STANDARD
100
AcDbText
  0
TEXT
  5
125
100
AcDbEntity
  8
M0
100
AcDbText
 10
32.209626
 20
225.801373
 40
3.584
  1
揚
 41
1.25
  7
STANDARD
100
AcDbText
  0
TEXT
  5
126
100
AcDbEntity
  8
M0
100
AcDbText
 10
32.209626
 20
221.858973
 40
3.584
  1
程
 41
1.25
  7
STANDARD
100
AcDbText
  0
TEXT
  5
127
100
AcDbEntity
  8
M0
100
AcDbText
 10
32.209626
 20
217.916573
 40
3.584
  1
　
 41
1.25
  7
STANDARD
100
AcDbText
  0
TEXT
  5
128
100
AcDbEntity
  8
M0
100
AcDbText
 10
32.209626
 20
213.974174
 40
3.584
  1
ｍ
 41
1.25
  7
STANDARD
100
AcDbText
  0
TEXT
  5
129
100
AcDbEntity
  8
M0
100
AcDbText
 10
40.263376
 20
229.256602
 40
4.8
  1
３０
 41
0.611111
  7
STANDARD
100
AcDbText
  0
TEXT
  5
12A
100
AcDbEntity
  8
M0
100
AcDbText
 10
40.263376
 20
213.256602
 40
4.8
  1
２０
 41
0.611111
  7
STANDARD
100
AcDbText
  0
TEXT
  5
12B
100
AcDbEntity
  8
M0
100
AcDbText
 10
40.263376
 20
197.256606
 40
4.8
  1
１０
 41
0.611111
  7
STANDARD
100
AcDbText
  0
TEXT
  5
12C
100
AcDbEntity
  8
M0
100
AcDbText
 10
43.463373
 20
181.256598
 40
4.8
  1
０
 41
0.611111
  7
STANDARD
100
AcDbText
  0
TEXT
  5
12D
100
AcDbEntity
  8
M0
100
AcDbText
 10
46.663369
 20
175.49459
 40
4.8
  1
０
 41
0.611111
  7
STANDARD
100
AcDbText
  0
TEXT
  5
12E
100
AcDbEntity
  8
M0
100
AcDbText
 10
78.663372
 20
175.49459
 40
4.8
  1
２０
 41
0.611111
  7
STANDARD
100
AcDbText
  0
TEXT
  5
12F
100
AcDbEntity
  8
M0
100
AcDbText
 10
110.663375
 20
175.49459
 40
4.8
  1
４０
 41
0.611111
  7
STANDARD
100
AcDbText
  0
TEXT
  5
130
100
AcDbEntity
  8
M0
100
AcDbText
 10
79.413235
 20
168.0875
 40
5.376
  1
揚水量（Ｌ／分）
 41
0.611111
  7
STANDARD
100
AcDbText
  0
TEXT
  5
131
100
AcDbEntity
  8
M0
100
AcDbText
 10
62.663371
 20
175.49459
 40
4.8
  1
１０
 41
0.611111
  7
STANDARD
100
AcDbText
  0
TEXT
  5
132
100
AcDbEntity
  8
M0
100
AcDbText
 10
94.663375
 20
175.49459
 40
4.8
  1
３０
 41
0.611111
  7
STANDARD
100
AcDbText
  0
TEXT
  5
133
100
AcDbEntity
  8
M0
100
AcDbText
 10
126.663366
 20
175.49459
 40
4.8
  1
５０
 41
0.611111
  7
STANDARD
100
AcDbText
  0
TEXT
  5
134
100
AcDbEntity
  8
M0
100
AcDbText
 10
40.263376
 20
245.256602
 40
4.8
  1
４０
 41
0.611111
  7
STANDARD
100
AcDbText
  0
TEXT
  5
135
100
AcDbEntity
  8
M0
100
AcDbText
 10
40.263376
 20
261.256606
 40
4.8
  1
５０
 41
0.611111
  7
STANDARD
100
AcDbText
  0
ARC
  5
136
100
AcDbEntity
  8
M0
100
AcDbCircle
 10
83.331089
 20
235.936635
 40
2.0
100
AcDbArc
 50
59.115055
 51
90.0
  0
ARC
  5
137
100
AcDbEntity
  8
M0
100
AcDbCircle
 10
100.655437
 20
235.936635
 40
2.0
100
AcDbArc
 50
31.449638
 51
90.0
  0
ARC
  5
138
100
AcDbEntity
  8
M0
100
AcDbCircle
 10
110.183576
 20
235.936635
 40
2.0
100
AcDbArc
 50
0.0
 51
90.0
  0
LINE
  5
139
100
AcDbEntity
  8
M0
100
AcDbLine
 10
65.783576
 20
263.536635
 11
65.783576
 21
271.536635
  0
LINE
  5
13A
100
AcDbEntity
  8
M0
 62
    34
100
AcDbLine
 10
169.783576
 20
183.536635
 11
257.783576
 21
183.536635
  0
LINE
  5
13B
100
AcDbEntity
  8
M0
 62
    34
100
AcDbLine
 10
169.783576
 20
271.536635
 11
169.783576
 21
183.536635
  0
LINE
  5
13C
100
AcDbEntity
  8
M0
 62
    34
100
AcDbLine
 10
201.783576
 20
183.536635
 11
201.783576
 21
188.659561
  0
LINE
  5
13D
100
AcDbEntity
  8
M0
 62
    34
100
AcDbLine
 10
233.783576
 20
183.536635
 11
233.783576
 21
188.499969
  0
LINE
  5
13E
100
AcDbEntity
  8
M0
 62
    34
100
AcDbLine
 10
169.783576
 20
199.536635
 11
257.783576
 21
199.536635
  0
LINE
  5
13F
100
AcDbEntity
  8
M0
 62
    34
100
AcDbLine
 10
169.783576
 20
215.536635
 11
257.783576
 21
215.536635
  0
LINE
  5
140
100
AcDbEntity
  8
M0
 62
    34
100
AcDbLine
 10
201.783576
 20
231.536635
 11
201.783576
 21
253.155621
  0
LINE
  5
141
100
AcDbEntity
  8
M0
 62
    34
100
AcDbLine
 10
185.783576
 20
183.536635
 11
185.783576
 21
188.803214
  0
LINE
  5
142
100
AcDbEntity
  8
M0
 62
    34
100
AcDbLine
 10
217.783576
 20
183.536635
 11
217.783576
 21
188.700461
  0
LINE
  5
143
100
AcDbEntity
  8
M0
 62
    34
100
AcDbLine
 10
249.783576
 20
183.536635
 11
249.783576
 21
188.499969
  0
LINE
  5
144
100
AcDbEntity
  8
M0
 62
    34
100
AcDbLine
 10
169.783576
 20
247.536635
 11
257.783576
 21
247.536635
  0
LINE
  5
145
100
AcDbEntity
  8
M0
 62
    34
100
AcDbLine
 10
169.783576
 20
263.536635
 11
257.783576
 21
263.536635
  0
LINE
  5
146
100
AcDbEntity
  8
M0
 62
    34
100
AcDbLine
 10
233.783576
 20
231.536635
 11
233.783576
 21
266.206915
  0
LINE
  5
147
100
AcDbEntity
  8
M0
 62
    34
100
AcDbLine
 10
169.783576
 20
231.536635
 11
257.783576
 21
231.536635
  0
LINE
  5
148
100
AcDbEntity
  8
M0
 62
    34
100
AcDbLine
 10
169.783576
 20
247.536635
 11
220.583576
 21
247.536635
  0
LINE
  5
149
100
AcDbEntity
  8
M0
 62
    34
100
AcDbLine
 10
222.583576
 20
212.94251
 11
222.583576
 21
245.536635
  0
LINE
  5
14A
100
AcDbEntity
  8
M0
 62
    34
100
AcDbLine
 10
212.983576
 20
212.94251
 11
212.983576
 21
240.175385
  0
LINE
  5
14B
100
AcDbEntity
  8
M0
 62
    34
100
AcDbLine
 10
206.583576
 20
235.508208
 11
206.583576
 21
212.94251
  0
LINE
  5
14C
100
AcDbEntity
  8
M0
 62
    34
100
AcDbLine
 10
195.969363
 20
246.950849
 11
205.99779
 21
236.922422
  0
LINE
  5
14D
100
AcDbEntity
  8
M0
 62
    34
100
AcDbLine
 10
203.383576
 20
230.536635
 11
203.383576
 21
212.94251
  0
LINE
  5
14E
100
AcDbEntity
  8
M0
 62
    34
100
AcDbLine
 10
202.583576
 20
232.136635
 11
182.583576
 21
247.136635
  0
LINE
  5
14F
100
AcDbEntity
  8
M0
 62
    34
100
AcDbLine
 10
185.783576
 20
260.803827
 11
185.783576
 21
271.536635
  0
LINE
  5
150
100
AcDbEntity
  8
M0
 62
    34
100
AcDbLine
 10
201.783576
 20
260.933458
 11
201.783576
 21
265.996412
  0
LINE
  5
151
100
AcDbEntity
  8
M0
 62
    34
100
AcDbLine
 10
217.783576
 20
261.192719
 11
217.783576
 21
266.206915
  0
LINE
  5
152
100
AcDbEntity
  8
M0
 62
    34
100
AcDbLine
 10
185.783576
 20
197.278754
 11
185.783576
 21
253.155621
  0
LINE
  5
153
100
AcDbEntity
  8
M0
 62
    34
100
AcDbLine
 10
201.783576
 20
197.709714
 11
201.783576
 21
203.599495
  0
LINE
  5
154
100
AcDbEntity
  8
M0
 62
    34
100
AcDbLine
 10
201.783576
 20
211.500422
 11
201.783576
 21
231.536635
  0
LINE
  5
155
100
AcDbEntity
  8
M0
 62
    34
100
AcDbLine
 10
217.783576
 20
211.931382
 11
217.783576
 21
252.766729
  0
LINE
  5
156
100
AcDbEntity
  8
M0
 62
    34
100
AcDbLine
 10
233.783576
 20
212.075035
 11
233.783576
 21
231.536635
  0
LINE
  5
157
100
AcDbEntity
  8
M0
 62
    34
100
AcDbLine
 10
217.783576
 20
197.581411
 11
217.783576
 21
203.455842
  0
LINE
  5
158
100
AcDbEntity
  8
M0
 62
    34
100
AcDbLine
 10
233.783576
 20
197.53393
 11
233.783576
 21
203.024883
  0
LINE
  5
159
100
AcDbEntity
  8
M0
 62
    34
100
AcDbLine
 10
249.783576
 20
197.258084
 11
249.783576
 21
265.996412
  0
ARC
  5
15A
100
AcDbEntity
  8
M0
 62
    34
100
AcDbCircle
 10
154.449628
 20
213.67551
 40
5.376
100
AcDbArc
 50
52.58592
 51
127.41408
  0
ARC
  5
15B
100
AcDbEntity
  8
M0
 62
    34
100
AcDbCircle
 10
154.449628
 20
217.04948
 40
5.376
100
AcDbArc
 50
232.58592
 51
307.41408
  0
TEXT
  5
15C
100
AcDbEntity
  8
M0
 62
    34
100
AcDbText
 10
152.209628
 20
229.743773
 40
3.584
  1
全
 41
1.25
  7
STANDARD
100
AcDbText
  0
TEXT
  5
15D
100
AcDbEntity
  8
M0
 62
    34
100
AcDbText
 10
152.209628
 20
225.801373
 40
3.584
  1
揚
 41
1.25
  7
STANDARD
100
AcDbText
  0
TEXT
  5
15E
100
AcDbEntity
  8
M0
 62
    34
100
AcDbText
 10
152.209628
 20
221.858973
 40
3.584
  1
程
 41
1.25
  7
STANDARD
100
AcDbText
  0
TEXT
  5
15F
100
AcDbEntity
  8
M0
 62
    34
100
AcDbText
 10
152.209628
 20
217.916573
 40
3.584
  1
　
 41
1.25
  7
STANDARD
100
AcDbText
  0
TEXT
  5
160
100
AcDbEntity
  8
M0
 62
    34
100
AcDbText
 10
152.209628
 20
213.974174
 40
3.584
  1
ｍ
 41
1.25
  7
STANDARD
100
AcDbText
  0
TEXT
  5
161
100
AcDbEntity
  8
M0
 62
    34
100
AcDbText
 10
160.263374
 20
229.256602
 40
4.8
  1
３０
 41
0.611111
  7
STANDARD
100
AcDbText
  0
TEXT
  5
162
100
AcDbEntity
  8
M0
 62
    34
100
AcDbText
 10
160.263374
 20
213.256602
 40
4.8
  1
２０
 41
0.611111
  7
STANDARD
100
AcDbText
  0
TEXT
  5
163
100
AcDbEntity
  8
M0
 62
    34
100
AcDbText
 10
160.263374
 20
197.256606
 40
4.8
  1
１０
 41
0.611111
  7
STANDARD
100
AcDbText
  0
TEXT
  5
164
100
AcDbEntity
  8
M0
 62
    34
100
AcDbText
 10
163.463371
 20
181.256598
 40
4.8
  1
０
 41
0.611111
  7
STANDARD
100
AcDbText
  0
TEXT
  5
165
100
AcDbEntity
  8
M0
 62
    34
100
AcDbText
 10
166.663367
 20
175.49459
 40
4.8
  1
０
 41
0.611111
  7
STANDARD
100
AcDbText
  0
TEXT
  5
166
100
AcDbEntity
  8
M0
 62
    34
100
AcDbText
 10
198.663368
 20
175.49459
 40
4.8
  1
２０
 41
0.611111
  7
STANDARD
100
AcDbText
  0
TEXT
  5
167
100
AcDbEntity
  8
M0
 62
    34
100
AcDbText
 10
230.663366
 20
175.49459
 40
4.8
  1
４０
 41
0.611111
  7
STANDARD
100
AcDbText
  0
TEXT
  5
168
100
AcDbEntity
  8
M0
 62
    34
100
AcDbText
 10
182.663368
 20
175.49459
 40
4.8
  1
１０
 41
0.611111
  7
STANDARD
100
AcDbText
  0
TEXT
  5
169
100
AcDbEntity
  8
M0
 62
    34
100
AcDbText
 10
214.663366
 20
175.49459
 40
4.8
  1
３０
 41
0.611111
  7
STANDARD
100
AcDbText
  0
TEXT
  5
16A
100
AcDbEntity
  8
M0
 62
    34
100
AcDbText
 10
246.663369
 20
175.49459
 40
4.8
  1
５０
 41
0.611111
  7
STANDARD
100
AcDbText
  0
TEXT
  5
16B
100
AcDbEntity
  8
M0
 62
    34
100
AcDbText
 10
160.263374
 20
245.256602
 40
4.8
  1
４０
 41
0.611111
  7
STANDARD
100
AcDbText
  0
TEXT
  5
16C
100
AcDbEntity
  8
M0
 62
    34
100
AcDbText
 10
160.263374
 20
261.256606
 40
4.8
  1
５０
 41
0.611111
  7
STANDARD
100
AcDbText
  0
LINE
  5
16D
100
AcDbEntity
  8
M0
 62
    34
100
AcDbLine
 10
205.531404
 20
247.098373
 11
212.232966
 21
241.737123
  0
ARC
  5
16E
100
AcDbEntity
  8
M0
 62
    34
100
AcDbCircle
 10
181.383576
 20
245.536635
 40
2.0
100
AcDbArc
 50
53.130102
 51
90.0
  0
ARC
  5
16F
100
AcDbEntity
  8
M0
 62
    34
100
AcDbCircle
 10
194.555149
 20
245.536635
 40
2.0
100
AcDbArc
 50
45.0
 51
90.0
  0
ARC
  5
170
100
AcDbEntity
  8
M0
 62
    34
100
AcDbCircle
 10
204.282014
 20
245.536635
 40
2.0
100
AcDbArc
 50
51.340192
 51
90.0
  0
ARC
  5
171
100
AcDbEntity
  8
M0
 62
    34
100
AcDbCircle
 10
210.983576
 20
240.175385
 40
2.0
100
AcDbArc
 50
0.0
 51
51.340192
  0
ARC
  5
172
100
AcDbEntity
  8
M0
 62
    34
100
AcDbCircle
 10
204.583576
 20
235.508208
 40
2.0
100
AcDbArc
 50
0.0
 51
45.0
  0
ARC
  5
173
100
AcDbEntity
  8
M0
 62
    34
100
AcDbCircle
 10
201.383576
 20
230.536635
 40
2.0
100
AcDbArc
 50
0.0
 51
53.130102
  0
ARC
  5
174
100
AcDbEntity
  8
M0
 62
    34
100
AcDbCircle
 10
220.583576
 20
245.536635
 40
2.0
100
AcDbArc
 50
0.0
 51
90.0
  0
ENDSEC
  0
SECTION
  2
OBJECTS
  0
DICTIONARY
  5
C
100
AcDbDictionary
  3
ACAD_GROUP
350
D
  3
ACAD_MLINESTYLE
350
E
  0
DICTIONARY
  5
D
102
{ACAD_REACTORS
330
C
102
}
100
AcDbDictionary
  0
DICTIONARY
  5
E
102
{ACAD_REACTORS
330
C
102
}
100
AcDbDictionary
  3
STANDARD
350
13
  0
MLINESTYLE
  5
13
102
{ACAD_REACTORS
330
E
102
}
100
AcDbMlineStyle
  2
STANDARD
 70
     0
  3

 62
     0
 51
90.0
 52
90.0
 71
     2
 49
0.5
 62
   256
  6
BYLAYER
 49
-0.5
 62
   256
  6
BYLAYER
  0
ENDSEC
  0
EOF
