  0
SECTION
  2
HEADER
  9
$ACADVER
  1
AC1012
  9
$INSBASE
 10
0.0
 20
0.0
  9
$VIEWCTR
 10
7.531722
 20
4.5
  9
$VIEWSIZE
 40
9.0
  9
$SNAPMODE
 70
     0
  9
$SNAPUNIT
 10
1.0
 20
1.0
  9
$SNAPBASE
 10
0.0
 20
0.0
  9
$SNAPANG
 50
0.0
  9
$SNAPSTYLE
 70
     0
  9
$SNAPISOPAIR
 70
     0
  9
$GRIDMODE
 70
     0
  9
$GRIDUNIT
 10
0.0
 20
0.0
  9
$ORTHOMODE
 70
     0
  9
$REGENMODE
 70
     1
  9
$FILLMODE
 70
     1
  9
$QTEXTMODE
 70
     0
  9
$DRAGMODE
 70
     2
  9
$LTSCALE
 40
1.0
  9
$OSMODE
 70
     0
  9
$ATTMODE
 70
     1
  9
$TEXTSIZE
 40
0.2
  9
$TRACEWID
 40
0.05
  9
$TEXTSTYLE
  7
STANDARD
  9
$CELTYPE
  6
BYLAYER
  9
$CECOLOR
 62
   256
  9
$DIMSCALE
 40
1.0
  9
$DIMASZ
 40
0.18
  9
$DIMEXO
 40
0.0625
  9
$DIMDLI
 40
0.38
  9
$DIMRND
 40
0.0
  9
$DIMDLE
 40
0.0
  9
$DIMEXE
 40
0.18
  9
$DIMTP
 40
0.0
  9
$DIMTM
 40
0.0
  9
$DIMTXT
 40
0.18
  9
$DIMCEN
 40
0.09
  9
$DIMTSZ
 40
0.0
  9
$DIMTOL
 70
     0
  9
$DIMLIM
 70
     0
  9
$DIMTIH
 70
     1
  9
$DIMTOH
 70
     1
  9
$DIMSE1
 70
     0
  9
$DIMSE2
 70
     0
  9
$DIMTAD
 70
     0
  9
$DIMZIN
 70
     0
  9
$DIMBLK
  1

  9
$LUNITS
 70
     2
  9
$LUPREC
 70
     4
  9
$AXISMODE
 70
     0
  9
$AXISUNIT
 10
0.0
 20
0.0
  9
$SKETCHINC
 40
0.1
  9
$FILLETRAD
 40
0.0
  9
$AUNITS
 70
     0
  9
$AUPREC
 70
     0
  9
$MENU
  1
ACAD
  9
$ELEVATION
 40
0.0
  9
$THICKNESS
 40
0.0
  9
$VIEWDIR
 10
0.0
 20
0.0
 30
1.0
  9
$LIMCHECK
 70
     0
  9
$BLIPMODE
 70
     1
  9
$CHAMFERA
 40
0.0
  9
$CHAMFERB
 40
0.0
  9
$FASTZOOM
 70
     1
  9
$SKPOLY
 70
     0
  9
$TDCREATE
 40
0000000.0000000000
  9
$TDUPDATE
 40
0000000.0000000000
  9
$TDINDWG
 40
0.0000000000
  9
$TDUSRTIMER
 40
0.0000000000
  9
$USRTIMER
 70
     1
  9
$ANGBASE
 50
0.0
  9
$ANGDIR
 70
     0
  9
$PDMODE
 70
     0
  9
$PDSIZE
 40
0.0
  9
$PLINEWID
 40
0.0
  9
$COORDS
 70
     0
  9
$USERI1
 70
     0
  9
$USERI2
 70
     0
  9
$USERI3
 70
     0
  9
$USERI4
 70
     0
  9
$USERI5
 70
     0
  9
$USERR1
 40
0.0
  9
$USERR2
 40
0.0
  9
$USERR3
 40
0.0
  9
$USERR4
 40
0.0
  9
$USERR5
 40
0.0
  9
$CLAYER
  8
M0
  9
$EXTMIN
 10
0.0
 20
0.0
  9
$EXTMAX
 10
420.0
 20
297.0
  9
$LIMMIN
 10
0.0
 20
0.0
  9
$LIMMAX
 10
420.0
 20
297.0
  9
$HANDSEED
  5
119
  0
ENDSEC
  0
SECTION
  2
CLASSES
  0
ENDSEC
  0
SECTION
  2
TABLES
  0
TABLE
  2
VPORT
  5
8
100
AcDbSymbolTable
 70
     2
  0
VPORT
  5
14
100
AcDbSymbolTableRecord
100
AcDbViewportTableRecord
  2
*ACTIVE
 70
     0
 10
0.0
 20
0.0
 11
1.0
 21
1.0
 12
484.0
 22
297.0
 13
0.0
 23
0.0
 14
1.0
 24
1.0
 15
0.0
 25
0.0
 16
0.0
 26
0.0
 36
1.0
 17
0.0
 27
0.0
 37
0.0
 40
594.0
 41
2.0
 42
50.0
 43
0.0
 44
0.0
 50
0.0
 51
0.0
 71
     0
 72
   100
 73
     1
 74
     1
 75
     0
 76
     0
 77
     0
 78
     0
  0
ENDTAB
  0
TABLE
  2
LTYPE
  5
5
100
AcDbSymbolTable
 70
     5
  0
LTYPE
  5
15
100
AcDbSymbolTableRecord
100
AcDbLinetypeTableRecord
  2
BYBLOCK
 70
     0
  3

 72
    65
 73
     0
 40
0.0
  0
LTYPE
  5
16
100
AcDbSymbolTableRecord
100
AcDbLinetypeTableRecord
  2
BYLAYER
 70
     0
  3

 72
    65
 73
     0
 40
0.0
  0
LTYPE
  5
17
100
AcDbSymbolTableRecord
100
AcDbLinetypeTableRecord
  2
CONTINUOUS
 70
    64
  3
Solid line
 72
    65
 73
     0
 40
0.0
  0
LTYPE
  5
18
100
AcDbSymbolTableRecord
100
AcDbLinetypeTableRecord
  2
DASHED
 70
    64
  3
__ __ __ __ __ __ __ __ __ __ __ __ __ __ __ __
 72
    65
 73
     2
 40
0.75
 49
0.5
 74
     0
 49
-0.25
 74
     0
  0
LTYPE
  5
19
100
AcDbSymbolTableRecord
100
AcDbLinetypeTableRecord
  2
DASHDOT
 70
    64
  3
__ . __ . __ . __ . __ . __ . __ . __ . __ . __
 72
    65
 73
     4
 40
1.0
 49
0.5
 74
     0
 49
-0.25
 74
     0
 49
0.0
 74
     0
 49
-0.25
 74
     0
  0
LTYPE
  5
1A
100
AcDbSymbolTableRecord
100
AcDbLinetypeTableRecord
  2
DIVIDE
 70
    64
  3
____ . . ____ . . ____ . . ____ . . ____ . . __
 72
    65
 73
     6
 40
1.25
 49
0.5
 74
     0
 49
-0.25
 74
     0
 49
0.0
 74
     0
 49
-0.25
 74
     0
 49
0.0
 74
     0
 49
-0.25
 74
     0
  0
LTYPE
  5
1B
100
AcDbSymbolTableRecord
100
AcDbLinetypeTableRecord
  2
DOT
 70
    64
  3
. . . . . . . . . . . . . . . . . . . . . . . .
 72
    65
 73
     2
 40
0.25
 49
0.0
 74
     0
 49
-0.25
 74
     0
  0
ENDTAB
  0
TABLE
  2
LAYER
  5
2
100
AcDbSymbolTable
 70
   102
  0
LAYER
  5
F
100
AcDbSymbolTableRecord
100
AcDbLayerTableRecord
  2
0
 70
     0
 62
     7
  6
CONTINUOUS
  0
LAYER
  5
1C
100
AcDbSymbolTableRecord
100
AcDbLayerTableRecord
  2
DEFPOINTS
 70
     0
 62
     7
  6
CONTINUOUS
  0
LAYER
  5
1D
100
AcDbSymbolTableRecord
100
AcDbLayerTableRecord
  2
M0
 70
     0
 62
     3
  6
CONTINUOUS
  0
LAYER
  5
1E
100
AcDbSymbolTableRecord
100
AcDbLayerTableRecord
  2
DD0
 70
     0
 62
     4
  6
CONTINUOUS
  0
ENDTAB
  0
TABLE
  2
STYLE
  5
3
100
AcDbSymbolTable
 70
     2
  0
STYLE
  5
10
100
AcDbSymbolTableRecord
100
AcDbTextStyleTableRecord
  2
STANDARD
 70
     0
 40
0.0
 41
1.0
 50
0.0
 71
     0
 42
0.2
  3
txt
  4
BIGFONT
  0
ENDTAB
  0
TABLE
  2
VIEW
  5
6
100
AcDbSymbolTable
 70
     0
  0
ENDTAB
  0
TABLE
  2
UCS
  5
7
100
AcDbSymbolTable
 70
     0
  0
ENDTAB
  0
TABLE
  2
APPID
  5
9
100
AcDbSymbolTable
 70
     1
  0
APPID
  5
11
100
AcDbSymbolTableRecord
100
AcDbRegAppTableRecord
  2
ACAD
 70
     0
  0
ENDTAB
  0
TABLE
  2
DIMSTYLE
  5
A
100
AcDbSymbolTable
 70
     2
  0
DIMSTYLE
105
25
100
AcDbSymbolTableRecord
100
AcDbDimStyleTableRecord
  2
STANDARD
 70
     0
  3

  4

  5

  6
_OPEN
  7
_OPEN
 40
1.0
 41
3.0
 42
0.0
 43
8.0
 44
1.5
 45
0.0
 46
0.0
 47
0.0
 48
0.0
140
3.5
141
0.09
142
0.0
143
0.03937
144
1.0
145
0.0
146
1.0
147
1.0
 71
     0
 72
     0
 73
     0
 74
     0
 75
     0
 76
     0
 77
     3
 78
     8
170
     0
171
     2
172
     0
173
     1
174
     0
175
     0
176
     0
177
     0
178
     0
270
     2
271
     2
272
     4
273
     2
274
     2
340
10
275
     0
280
     0
281
     0
282
     0
283
     1
284
     0
285
     0
286
     0
287
     3
288
     0
  0
DIMSTYLE
105
26
100
AcDbSymbolTableRecord
100
AcDbDimStyleTableRecord
  2
LEADSTYL
 70
     0
  3

  4

  5

  6
_OPEN
  7
_OPEN
 40
1.0
 41
3.0
 42
0.0625
 43
0.38
 44
0.18
 45
0.0
 46
0.0
 47
0.0
 48
0.0
140
3.2
141
0.09
142
0.0
143
25.4
144
1.0
145
0.0
146
1.0
147
1.0
 71
     0
 72
     0
 73
     1
 74
     1
 75
     0
 76
     0
 77
     0
 78
     0
170
     0
171
     2
172
     0
173
     1
174
     0
175
     0
176
     0
177
     0
178
     0
270
     2
271
     4
272
     4
273
     2
274
     2
340
10
275
     0
280
     0
281
     0
282
     0
283
     1
284
     0
285
     0
286
     0
287
     3
288
     0
  0
ENDTAB
  0
TABLE
  2
BLOCK_RECORD
  5
1
100
AcDbSymbolTable
 70
     6
  0
BLOCK_RECORD
  5
1F
100
AcDbSymbolTableRecord
100
AcDbBlockTableRecord
  2
*MODEL_SPACE
  0
BLOCK_RECORD
  5
22
100
AcDbSymbolTableRecord
100
AcDbBlockTableRecord
  2
*PAPER_SPACE
  0
BLOCK_RECORD
  5
27
100
AcDbSymbolTableRecord
100
AcDbBlockTableRecord
  2
_NONE
  0
BLOCK_RECORD
  5
2B
100
AcDbSymbolTableRecord
100
AcDbBlockTableRecord
  2
_OPEN
  0
BLOCK_RECORD
  5
31
100
AcDbSymbolTableRecord
100
AcDbBlockTableRecord
  2
_CLOSED
  0
BLOCK_RECORD
  5
38
100
AcDbSymbolTableRecord
100
AcDbBlockTableRecord
  2
_ORIGIN
  0
BLOCK_RECORD
  5
3D
100
AcDbSymbolTableRecord
100
AcDbBlockTableRecord
  2
_DOT
  0
BLOCK_RECORD
  5
45
100
AcDbSymbolTableRecord
100
AcDbBlockTableRecord
  2
_OBLIQUE
  0
ENDTAB
  0
ENDSEC
  0
SECTION
  2
BLOCKS
  0
BLOCK
  5
20
100
AcDbEntity
  8
0
100
AcDbBlockBegin
  2
*MODEL_SPACE
 70
     0
 10
0.0
 20
0.0
 30
0.0
  3
*MODEL_SPACE
  1

  0
ENDBLK
  5
21
100
AcDbEntity
  8
0
100
AcDbBlockEnd
  0
BLOCK
  5
23
100
AcDbEntity
 67
     1
  8
0
100
AcDbBlockBegin
  2
*PAPER_SPACE
 70
     0
 10
0.0
 20
0.0
 30
0.0
  3
*PAPER_SPACE
  1

  0
ENDBLK
  5
24
100
AcDbEntity
 67
     1
  8
0
100
AcDbBlockEnd
  0
BLOCK
  5
28
100
AcDbEntity
  8
0
100
AcDbBlockBegin
  2
_NONE
 70
     0
 10
0.0
 20
0.0
  0
CIRCLE
  5
29
100
AcDbEntity
  8
0
 62
     0
100
AcDbCircle
 10
0.0
 20
0.0
 40
0.25
  0
ENDBLK
  5
2A
100
AcDbEntity
  8
0
100
AcDbBlockEnd
  0
BLOCK
  5
2C
100
AcDbEntity
  8
0
100
AcDbBlockBegin
  2
_OPEN
 70
     0
 10
0.0
 20
0.0
  0
LINE
  5
2D
100
AcDbEntity
  8
0
 62
     0
100
AcDbLine
 10
-0.965926
 20
0.258819
 11
0.0
 21
0.0
  0
LINE
  5
2E
100
AcDbEntity
  8
0
 62
     0
100
AcDbLine
 10
0.0
 20
0.0
 11
-0.965926
 21
-0.258819
  0
LINE
  5
2F
100
AcDbEntity
  8
0
 62
     0
100
AcDbLine
 10
0.0
 20
0.0
 11
-1.0
 21
0.0
  0
ENDBLK
  5
30
100
AcDbEntity
  8
0
100
AcDbBlockEnd
  0
BLOCK
  5
32
100
AcDbEntity
  8
0
100
AcDbBlockBegin
  2
_CLOSED
 70
     0
 10
0.0
 20
0.0
  0
LINE
  5
33
100
AcDbEntity
  8
0
 62
     0
100
AcDbLine
 10
-0.965926
 20
0.258819
 11
0.0
 21
0.0
  0
LINE
  5
34
100
AcDbEntity
  8
0
 62
     0
100
AcDbLine
 10
0.0
 20
0.0
 11
-0.965926
 21
-0.258819
  0
LINE
  5
35
100
AcDbEntity
  8
0
 62
     0
100
AcDbLine
 10
-0.965926
 20
0.258819
 11
-0.965926
 21
-0.258819
  0
LINE
  5
36
100
AcDbEntity
  8
0
 62
     0
100
AcDbLine
 10
0.0
 20
0.0
 11
-1.0
 21
0.0
  0
ENDBLK
  5
37
100
AcDbEntity
  8
0
100
AcDbBlockEnd
  0
BLOCK
  5
39
100
AcDbEntity
  8
0
100
AcDbBlockBegin
  2
_ORIGIN
 70
     0
 10
0.0
 20
0.0
  0
CIRCLE
  5
3A
100
AcDbEntity
  8
0
 62
     0
100
AcDbCircle
 10
0.0
 20
0.0
 40
0.5
  0
LINE
  5
3B
100
AcDbEntity
  8
0
 62
     0
100
AcDbLine
 10
0.0
 20
0.0
 11
-1.0
 21
0.0
  0
ENDBLK
  5
3C
100
AcDbEntity
  8
0
100
AcDbBlockEnd
  0
BLOCK
  5
3E
100
AcDbEntity
  8
0
100
AcDbBlockBegin
  2
_DOT
 70
     0
 10
0.0
 20
0.0
  0
POLYLINE
  5
3F
100
AcDbEntity
  8
0
 62
     0
100
AcDb2dPolyline
 66
     1
 70
     1
 40
0.5
 41
0.5
  0
VERTEX
  5
40
100
AcDbEntity
  8
0
 62
     0
100
AcDbVertex
100
AcDb2dVertex
 10
-0.25
 20
0.0
 42
1.0
  0
VERTEX
  5
41
100
AcDbEntity
  8
0
 62
     0
100
AcDbVertex
100
AcDb2dVertex
 10
0.25
 20
0.0
 42
1.0
  0
SEQEND
  5
42
100
AcDbEntity
  8
0
 62
     0
  0
LINE
  5
43
100
AcDbEntity
  8
0
 62
     0
100
AcDbLine
 10
-0.5
 20
0.0
 11
-1.0
 21
0.0
  0
ENDBLK
  5
44
100
AcDbEntity
  8
0
100
AcDbBlockEnd
  0
BLOCK
  5
46
100
AcDbEntity
  8
0
100
AcDbBlockBegin
  2
_OBLIQUE
 70
     0
 10
0.0
 20
0.0
  0
LINE
  5
47
100
AcDbEntity
  8
0
 62
     0
100
AcDbLine
 10
-0.353553
 20
-0.353553
 11
0.353553
 21
0.353553
  0
ENDBLK
  5
48
100
AcDbEntity
  8
0
100
AcDbBlockEnd
  0
ENDSEC
  0
SECTION
  2
ENTITIES
  0
LEADER
  5
49
100
AcDbEntity
  8
DD0
100
AcDbLeader
  3
LEADSTYL
 76
     3
 10
194.231949
 20
232.418167
 10
201.435852
 20
239.240417
 10
227.935852
 20
239.240417
340
4A
 77
     4
  0
TEXT
  5
4A
100
AcDbEntity
  8
DD0
100
AcDbText
 10
202.727519
 20
240.240417
 40
3.5
  1
運転圧力：標準
 41
0.833333
  7
STANDARD
100
AcDbText
  0
LEADER
  5
4B
100
AcDbEntity
  8
DD0
100
AcDbLeader
  3
LEADSTYL
 76
     3
 10
179.124069
 20
248.418167
 10
188.846588
 20
253.79306
 10
211.846588
 20
253.79306
340
4C
 77
     4
  0
TEXT
  5
4C
100
AcDbEntity
  8
DD0
100
AcDbText
 10
190.138255
 20
254.79306
 40
3.5
  1
運転圧力：高
 41
0.833333
  7
STANDARD
100
AcDbText
  0
LEADER
  5
4D
100
AcDbEntity
  8
DD0
100
AcDbLeader
  3
LEADSTYL
 76
     3
 10
77.043755
 20
222.818176
 10
92.810692
 20
235.441498
 10
119.310692
 20
235.441498
340
4E
 77
     4
  0
TEXT
  5
4E
100
AcDbEntity
  8
DD0
100
AcDbText
 10
94.102359
 20
236.441498
 40
3.5
  1
運転圧力：標準
 41
0.833333
  7
STANDARD
100
AcDbText
  0
LEADER
  5
4F
100
AcDbEntity
  8
DD0
100
AcDbLeader
  3
LEADSTYL
 76
     3
 10
70.341629
 20
238.818176
 10
83.650841
 20
248.311203
 10
106.650841
 20
248.311203
340
50
 77
     4
  0
TEXT
  5
50
100
AcDbEntity
  8
DD0
100
AcDbText
 10
84.942507
 20
249.311203
 40
3.5
  1
運転圧力：高
 41
0.833333
  7
STANDARD
100
AcDbText
  0
LINE
  5
51
100
AcDbEntity
  8
M0
100
AcDbLine
 10
52.531126
 20
165.21817
 11
140.531126
 21
165.21817
  0
LINE
  5
52
100
AcDbEntity
  8
M0
100
AcDbLine
 10
52.531126
 20
253.21817
 11
52.531126
 21
165.21817
  0
LINE
  5
53
100
AcDbEntity
  8
M0
100
AcDbLine
 10
84.531126
 20
165.21817
 11
84.531126
 21
213.21817
  0
LINE
  5
54
100
AcDbEntity
  8
M0
100
AcDbLine
 10
116.531126
 20
165.21817
 11
116.531126
 21
213.21817
  0
LINE
  5
55
100
AcDbEntity
  8
M0
100
AcDbLine
 10
52.531126
 20
181.21817
 11
140.531126
 21
181.21817
  0
LINE
  5
56
100
AcDbEntity
  8
M0
100
AcDbLine
 10
52.531126
 20
197.21817
 11
140.531126
 21
197.21817
  0
LINE
  5
57
100
AcDbEntity
  8
M0
100
AcDbLine
 10
84.531126
 20
213.21817
 11
84.531126
 21
219.61817
  0
LINE
  5
58
100
AcDbEntity
  8
M0
100
AcDbLine
 10
68.531126
 20
165.21817
 11
68.531126
 21
219.61817
  0
LINE
  5
59
100
AcDbEntity
  8
M0
100
AcDbLine
 10
100.531126
 20
165.21817
 11
100.531126
 21
219.61817
  0
LINE
  5
5A
100
AcDbEntity
  8
M0
100
AcDbLine
 10
132.531126
 20
165.21817
 11
132.531126
 21
253.21817
  0
LINE
  5
5B
100
AcDbEntity
  8
M0
100
AcDbLine
 10
52.531126
 20
229.21817
 11
116.531126
 21
229.21817
  0
LINE
  5
5C
100
AcDbEntity
  8
M0
100
AcDbLine
 10
52.531126
 20
245.21817
 11
140.531126
 21
245.21817
  0
LINE
  5
5D
100
AcDbEntity
  8
M0
100
AcDbLine
 10
116.531126
 20
213.21817
 11
116.531126
 21
216.567489
  0
LINE
  5
5E
100
AcDbEntity
  8
M0
100
AcDbLine
 10
52.531126
 20
213.21817
 11
140.531126
 21
213.21817
  0
LINE
  5
5F
100
AcDbEntity
  8
M0
100
AcDbLine
 10
68.531126
 20
219.61817
 11
68.531126
 21
253.21817
  0
LINE
  5
60
100
AcDbEntity
  8
M0
100
AcDbLine
 10
84.531126
 20
219.61817
 11
84.531126
 21
246.988144
  0
LINE
  5
61
100
AcDbEntity
  8
M0
100
AcDbLine
 10
100.531126
 20
219.61817
 11
100.531126
 21
233.193888
  0
ARC
  5
62
100
AcDbEntity
  8
M0
100
AcDbCircle
 10
37.197178
 20
195.357044
 40
5.376
100
AcDbArc
 50
52.58592
 51
127.41408
  0
ARC
  5
63
100
AcDbEntity
  8
M0
100
AcDbCircle
 10
37.197178
 20
198.731014
 40
5.376
100
AcDbArc
 50
232.58592
 51
307.41408
  0
TEXT
  5
64
100
AcDbEntity
  8
M0
100
AcDbText
 10
34.957176
 20
211.425307
 40
3.584
  1
全
 41
1.25
  7
STANDARD
100
AcDbText
  0
TEXT
  5
65
100
AcDbEntity
  8
M0
100
AcDbText
 10
34.957176
 20
207.482908
 40
3.584
  1
揚
 41
1.25
  7
STANDARD
100
AcDbText
  0
TEXT
  5
66
100
AcDbEntity
  8
M0
100
AcDbText
 10
34.957176
 20
203.540508
 40
3.584
  1
程
 41
1.25
  7
STANDARD
100
AcDbText
  0
TEXT
  5
67
100
AcDbEntity
  8
M0
100
AcDbText
 10
34.957176
 20
199.598108
 40
3.584
  1
　
 41
1.25
  7
STANDARD
100
AcDbText
  0
TEXT
  5
68
100
AcDbEntity
  8
M0
100
AcDbText
 10
34.957176
 20
195.655708
 40
3.584
  1
ｍ
 41
1.25
  7
STANDARD
100
AcDbText
  0
TEXT
  5
69
100
AcDbEntity
  8
M0
100
AcDbText
 10
43.010926
 20
210.938137
 40
4.8
  1
３０
 41
0.611111
  7
STANDARD
100
AcDbText
  0
TEXT
  5
6A
100
AcDbEntity
  8
M0
100
AcDbText
 10
43.010926
 20
194.938137
 40
4.8
  1
２０
 41
0.611111
  7
STANDARD
100
AcDbText
  0
TEXT
  5
6B
100
AcDbEntity
  8
M0
100
AcDbText
 10
43.010926
 20
178.93814
 40
4.8
  1
１０
 41
0.611111
  7
STANDARD
100
AcDbText
  0
TEXT
  5
6C
100
AcDbEntity
  8
M0
100
AcDbText
 10
46.210923
 20
162.938133
 40
4.8
  1
０
 41
0.611111
  7
STANDARD
100
AcDbText
  0
TEXT
  5
6D
100
AcDbEntity
  8
M0
100
AcDbText
 10
49.41092
 20
157.176124
 40
4.8
  1
０
 41
0.611111
  7
STANDARD
100
AcDbText
  0
TEXT
  5
6E
100
AcDbEntity
  8
M0
100
AcDbText
 10
81.410922
 20
157.176124
 40
4.8
  1
２０
 41
0.611111
  7
STANDARD
100
AcDbText
  0
TEXT
  5
6F
100
AcDbEntity
  8
M0
100
AcDbText
 10
113.410925
 20
157.176124
 40
4.8
  1
４０
 41
0.611111
  7
STANDARD
100
AcDbText
  0
TEXT
  5
70
100
AcDbEntity
  8
M0
100
AcDbText
 10
82.160785
 20
149.769035
 40
5.376
  1
揚水量（Ｌ／分）
 41
0.611111
  7
STANDARD
100
AcDbText
  0
TEXT
  5
71
100
AcDbEntity
  8
M0
100
AcDbText
 10
65.410922
 20
157.176124
 40
4.8
  1
１０
 41
0.611111
  7
STANDARD
100
AcDbText
  0
TEXT
  5
72
100
AcDbEntity
  8
M0
100
AcDbText
 10
97.410925
 20
157.176124
 40
4.8
  1
３０
 41
0.611111
  7
STANDARD
100
AcDbText
  0
TEXT
  5
73
100
AcDbEntity
  8
M0
100
AcDbText
 10
129.410916
 20
157.176124
 40
4.8
  1
５０
 41
0.611111
  7
STANDARD
100
AcDbText
  0
TEXT
  5
74
100
AcDbEntity
  8
M0
100
AcDbText
 10
43.010926
 20
226.93814
 40
4.8
  1
４０
 41
0.611111
  7
STANDARD
100
AcDbText
  0
TEXT
  5
75
100
AcDbEntity
  8
M0
100
AcDbText
 10
43.010926
 20
242.93814
 40
4.8
  1
５０
 41
0.611111
  7
STANDARD
100
AcDbText
  0
LINE
  5
76
100
AcDbEntity
  8
M0
100
AcDbLine
 10
116.531126
 20
229.21817
 11
140.531126
 21
229.21817
  0
TEXT
  5
77
100
AcDbEntity
  8
M0
100
AcDbText
 10
49.555485
 20
143.729299
 40
4.05
  1
※破線部域では６０ｋＰａの圧力変動があります。
 41
0.777778
  7
STANDARD
100
AcDbText
  0
LINE
  5
78
100
AcDbEntity
  8
M0
100
AcDbLine
 10
116.531126
 20
241.240537
 11
116.531126
 21
247.243593
  0
LINE
  5
79
100
AcDbEntity
  8
M0
100
AcDbLine
 10
116.531126
 20
225.739094
 11
116.531126
 21
232.044366
  0
LINE
  5
7A
100
AcDbEntity
  8
M0
 62
     3
100
AcDbLine
 10
138.984655
 20
106.596959
 11
138.984655
 21
80.996959
  0
LINE
  5
7B
100
AcDbEntity
  8
M0
  6
DASHED
 62
     3
100
AcDbLine
 10
119.784655
 20
119.396959
 11
128.321828
 21
119.396959
  0
ARC
  5
7C
100
AcDbEntity
  8
M0
 62
     3
100
AcDbCircle
 10
135.984655
 20
106.596959
 40
3.0
100
AcDbArc
 50
0.0
 51
35.706691
  0
ARC
  5
7D
100
AcDbEntity
  8
M0
 62
     3
100
AcDbCircle
 10
128.321828
 20
116.396959
 40
3.0
100
AcDbArc
 50
38.011428
 51
90.0
  0
LINE
  5
7E
100
AcDbEntity
  8
M0
 62
     3
100
AcDbLine
 10
138.420702
 20
108.347867
 11
130.685492
 21
118.244415
  0
LINE
  5
7F
100
AcDbEntity
  8
M0
 62
     4
100
AcDbLine
 10
33.631156
 20
265.688171
 11
57.015563
 21
265.688171
  0
LINE
  5
80
100
AcDbEntity
  8
M0
 62
     4
100
AcDbLine
 10
57.015563
 20
275.220101
 11
33.631156
 21
275.220101
  0
LINE
  5
81
100
AcDbEntity
  8
M0
 62
     4
100
AcDbLine
 10
33.631156
 20
275.220101
 11
33.631156
 21
265.688171
  0
LINE
  5
82
100
AcDbEntity
  8
M0
 62
     4
100
AcDbLine
 10
57.015563
 20
275.220101
 11
57.015563
 21
265.688171
  0
TEXT
  5
83
100
AcDbEntity
  8
M0
 62
     4
100
AcDbText
 10
36.072905
 20
267.702774
 40
5.4
  1
揚水性能
 41
0.740741
  7
STANDARD
100
AcDbText
  0
TEXT
  5
84
100
AcDbEntity
  8
M0
 62
     4
100
AcDbText
 10
104.803158
 20
219.130676
 40
4.8
  1
吸上高さ１２ｍ時
 41
0.590278
  7
STANDARD
100
AcDbText
  0
TEXT
  5
85
100
AcDbEntity
  8
M0
 62
     4
100
AcDbText
 10
62.606077
 20
258.695921
 40
4.5
  1
深井戸専用ジェット（Ｊ７５－２４Ｗ）使用時
 41
0.555556
  7
STANDARD
100
AcDbText
  0
TEXT
  5
86
100
AcDbEntity
  8
M0
 62
     4
100
AcDbText
 10
137.220913
 20
114.596958
 40
4.8
  1
吸上高さ３０ｍ時
 41
0.590278
  7
STANDARD
100
AcDbText
  0
TEXT
  5
87
100
AcDbEntity
  8
M0
 62
     4
100
AcDbText
 10
125.27577
 20
133.611805
 40
4.5
  1
深井戸専用ジェット（Ｊ７５－３５Ｗ）使用時
 41
0.555556
  7
STANDARD
100
AcDbText
  0
TEXT
  5
88
100
AcDbEntity
  8
M0
 62
     4
100
AcDbText
 10
184.250311
 20
258.695921
 40
4.5
  1
深井戸専用ジェット（Ｊ７５－２４Ｗ）使用時
 41
0.555556
  7
STANDARD
100
AcDbText
  0
TEXT
  5
89
100
AcDbEntity
  8
M0
 62
     4
100
AcDbText
 10
300.653196
 20
258.695921
 40
4.5
  1
深井戸用シングルジェット（Ｊ４０－２４ＳＷ）使用時
 41
0.555556
  7
STANDARD
100
AcDbText
  0
TEXT
  5
8A
100
AcDbEntity
  8
M0
 62
     4
100
AcDbText
 10
221.021542
 20
218.348474
 40
4.8
  1
吸上高さ１８ｍ時
 41
0.590278
  7
STANDARD
100
AcDbText
  0
TEXT
  5
8B
100
AcDbEntity
  8
M0
 62
     4
100
AcDbText
 10
317.440472
 20
236.148172
 40
4.8
  1
吸上高さ２４ｍ時
 41
0.590278
  7
STANDARD
100
AcDbText
  0
TEXT
  5
8C
100
AcDbEntity
  8
M0
 62
     4
100
AcDbText
 10
148.780224
 20
71.396961
 40
4.8
  1
吸上高さ２４ｍ時
 41
0.590278
  7
STANDARD
100
AcDbText
  0
LINE
  5
8D
100
AcDbEntity
  8
M0
 62
    74
100
AcDbLine
 10
303.403195
 20
165.220613
 11
375.403195
 21
165.220613
  0
LINE
  5
8E
100
AcDbEntity
  8
M0
 62
    74
100
AcDbLine
 10
303.403195
 20
253.220613
 11
303.403195
 21
165.220613
  0
LINE
  5
8F
100
AcDbEntity
  8
M0
 62
    74
100
AcDbLine
 10
303.403195
 20
181.220613
 11
375.403195
 21
181.220613
  0
LINE
  5
90
100
AcDbEntity
  8
M0
 62
    74
100
AcDbLine
 10
303.403195
 20
197.220613
 11
375.403195
 21
197.220613
  0
LINE
  5
91
100
AcDbEntity
  8
M0
 62
    74
100
AcDbLine
 10
335.403195
 20
213.220613
 11
335.403195
 21
229.220613
  0
LINE
  5
92
100
AcDbEntity
  8
M0
 62
    74
100
AcDbLine
 10
303.403195
 20
229.220613
 11
375.403195
 21
229.220613
  0
LINE
  5
93
100
AcDbEntity
  8
M0
 62
    74
100
AcDbLine
 10
303.403195
 20
213.220613
 11
375.403195
 21
213.220613
  0
LINE
  5
94
100
AcDbEntity
  8
M0
 62
    74
100
AcDbLine
 10
303.403195
 20
245.220613
 11
375.403195
 21
245.220613
  0
ARC
  5
95
100
AcDbEntity
  8
M0
 62
    74
100
AcDbCircle
 10
287.847372
 20
193.499112
 40
5.376
100
AcDbArc
 50
52.58592
 51
127.41408
  0
ARC
  5
96
100
AcDbEntity
  8
M0
 62
    74
100
AcDbCircle
 10
287.847372
 20
196.873083
 40
5.376
100
AcDbArc
 50
232.58592
 51
307.41408
  0
TEXT
  5
97
100
AcDbEntity
  8
M0
 62
    74
100
AcDbText
 10
285.607374
 20
209.567382
 40
3.584
  1
全
 41
1.25
  7
STANDARD
100
AcDbText
  0
TEXT
  5
98
100
AcDbEntity
  8
M0
 62
    74
100
AcDbText
 10
285.607374
 20
205.624982
 40
3.584
  1
揚
 41
1.25
  7
STANDARD
100
AcDbText
  0
TEXT
  5
99
100
AcDbEntity
  8
M0
 62
    74
100
AcDbText
 10
285.607374
 20
201.682582
 40
3.584
  1
程
 41
1.25
  7
STANDARD
100
AcDbText
  0
TEXT
  5
9A
100
AcDbEntity
  8
M0
 62
    74
100
AcDbText
 10
285.607374
 20
197.740182
 40
3.584
  1
　
 41
1.25
  7
STANDARD
100
AcDbText
  0
TEXT
  5
9B
100
AcDbEntity
  8
M0
 62
    74
100
AcDbText
 10
285.607374
 20
193.797783
 40
3.584
  1
ｍ
 41
1.25
  7
STANDARD
100
AcDbText
  0
TEXT
  5
9C
100
AcDbEntity
  8
M0
 62
    74
100
AcDbText
 10
293.88299
 20
210.940582
 40
4.8
  1
３０
 41
0.611111
  7
STANDARD
100
AcDbText
  0
TEXT
  5
9D
100
AcDbEntity
  8
M0
 62
    74
100
AcDbText
 10
293.88299
 20
194.940578
 40
4.8
  1
２０
 41
0.611111
  7
STANDARD
100
AcDbText
  0
TEXT
  5
9E
100
AcDbEntity
  8
M0
 62
    74
100
AcDbText
 10
293.88299
 20
178.940586
 40
4.8
  1
１０
 41
0.611111
  7
STANDARD
100
AcDbText
  0
TEXT
  5
9F
100
AcDbEntity
  8
M0
 62
    74
100
AcDbText
 10
297.082987
 20
162.94058
 40
4.8
  1
０
 41
0.611111
  7
STANDARD
100
AcDbText
  0
TEXT
  5
A0
100
AcDbEntity
  8
M0
 62
    74
100
AcDbText
 10
300.283001
 20
157.178571
 40
4.8
  1
０
 41
0.611111
  7
STANDARD
100
AcDbText
  0
TEXT
  5
A1
100
AcDbEntity
  8
M0
 62
    74
100
AcDbText
 10
332.282969
 20
157.178571
 40
4.8
  1
２０
 41
0.611111
  7
STANDARD
100
AcDbText
  0
TEXT
  5
A2
100
AcDbEntity
  8
M0
 62
    74
100
AcDbText
 10
364.282999
 20
157.178571
 40
4.8
  1
４０
 41
0.611111
  7
STANDARD
100
AcDbText
  0
TEXT
  5
A3
100
AcDbEntity
  8
M0
 62
    74
100
AcDbText
 10
326.668537
 20
149.855504
 40
5.376
  1
揚水量（Ｌ／分）
 41
0.611111
  7
STANDARD
100
AcDbText
  0
TEXT
  5
A4
100
AcDbEntity
  8
M0
 62
    74
100
AcDbText
 10
316.282999
 20
157.178571
 40
4.8
  1
１０
 41
0.611111
  7
STANDARD
100
AcDbText
  0
TEXT
  5
A5
100
AcDbEntity
  8
M0
 62
    74
100
AcDbText
 10
348.283001
 20
157.178571
 40
4.8
  1
３０
 41
0.611111
  7
STANDARD
100
AcDbText
  0
TEXT
  5
A6
100
AcDbEntity
  8
M0
 62
    74
100
AcDbText
 10
293.88299
 20
226.940582
 40
4.8
  1
４０
 41
0.611111
  7
STANDARD
100
AcDbText
  0
TEXT
  5
A7
100
AcDbEntity
  8
M0
 62
    74
100
AcDbText
 10
293.88299
 20
242.940582
 40
4.8
  1
５０
 41
0.611111
  7
STANDARD
100
AcDbText
  0
LINE
  5
A8
100
AcDbEntity
  8
M0
 62
    74
100
AcDbLine
 10
335.403195
 20
229.220613
 11
335.403195
 21
234.258065
  0
LINE
  5
A9
100
AcDbEntity
  8
M0
 62
    74
100
AcDbLine
 10
351.403195
 20
213.220613
 11
351.403195
 21
245.220613
  0
LINE
  5
AA
100
AcDbEntity
  8
M0
 62
    74
100
AcDbLine
 10
367.403195
 20
213.220613
 11
367.403195
 21
253.345624
  0
LINE
  5
AB
100
AcDbEntity
  8
M0
 62
    74
100
AcDbLine
 10
119.784655
 20
32.996959
 11
191.784655
 21
32.996959
  0
LINE
  5
AC
100
AcDbEntity
  8
M0
 62
    74
100
AcDbLine
 10
119.784655
 20
128.996959
 11
119.784655
 21
32.996959
  0
LINE
  5
AD
100
AcDbEntity
  8
M0
 62
    74
100
AcDbLine
 10
151.784655
 20
32.996959
 11
151.784655
 21
69.942204
  0
LINE
  5
AE
100
AcDbEntity
  8
M0
 62
    74
100
AcDbLine
 10
183.784655
 20
32.996959
 11
183.784655
 21
128.996959
  0
LINE
  5
AF
100
AcDbEntity
  8
M0
 62
    74
100
AcDbLine
 10
119.784655
 20
48.996959
 11
191.784655
 21
48.996959
  0
LINE
  5
B0
100
AcDbEntity
  8
M0
 62
    74
100
AcDbLine
 10
119.784655
 20
64.996959
 11
191.784655
 21
64.996959
  0
LINE
  5
B1
100
AcDbEntity
  8
M0
 62
    74
100
AcDbLine
 10
135.784655
 20
32.996959
 11
135.784655
 21
112.996959
  0
LINE
  5
B2
100
AcDbEntity
  8
M0
 62
    74
100
AcDbLine
 10
167.784655
 20
32.996959
 11
167.784655
 21
69.942204
  0
LINE
  5
B3
100
AcDbEntity
  8
M0
 62
    74
100
AcDbLine
 10
119.784655
 20
96.996959
 11
191.784655
 21
96.996959
  0
LINE
  5
B4
100
AcDbEntity
  8
M0
 62
    74
100
AcDbLine
 10
119.784655
 20
80.996959
 11
191.784655
 21
80.996959
  0
LINE
  5
B5
100
AcDbEntity
  8
M0
 62
    74
100
AcDbLine
 10
119.784655
 20
112.996959
 11
191.784655
 21
112.996959
  0
ARC
  5
B6
100
AcDbEntity
  8
M0
 62
    74
100
AcDbCircle
 10
104.228832
 20
61.275458
 40
5.376
100
AcDbArc
 50
52.58592
 51
127.41408
  0
ARC
  5
B7
100
AcDbEntity
  8
M0
 62
    74
100
AcDbCircle
 10
104.228832
 20
64.649428
 40
5.376
100
AcDbArc
 50
232.58592
 51
307.41408
  0
TEXT
  5
B8
100
AcDbEntity
  8
M0
 62
    74
100
AcDbText
 10
101.988851
 20
77.343726
 40
3.584
  1
全
 41
1.25
  7
STANDARD
100
AcDbText
  0
TEXT
  5
B9
100
AcDbEntity
  8
M0
 62
    74
100
AcDbText
 10
101.988851
 20
73.401326
 40
3.584
  1
揚
 41
1.25
  7
STANDARD
100
AcDbText
  0
TEXT
  5
BA
100
AcDbEntity
  8
M0
 62
    74
100
AcDbText
 10
101.988851
 20
69.458927
 40
3.584
  1
程
 41
1.25
  7
STANDARD
100
AcDbText
  0
TEXT
  5
BB
100
AcDbEntity
  8
M0
 62
    74
100
AcDbText
 10
101.988851
 20
65.516527
 40
3.584
  1
　
 41
1.25
  7
STANDARD
100
AcDbText
  0
TEXT
  5
BC
100
AcDbEntity
  8
M0
 62
    74
100
AcDbText
 10
101.988851
 20
61.574127
 40
3.584
  1
ｍ
 41
1.25
  7
STANDARD
100
AcDbText
  0
TEXT
  5
BD
100
AcDbEntity
  8
M0
 62
    74
100
AcDbText
 10
110.264468
 20
78.716926
 40
4.8
  1
３０
 41
0.611111
  7
STANDARD
100
AcDbText
  0
TEXT
  5
BE
100
AcDbEntity
  8
M0
 62
    74
100
AcDbText
 10
110.264468
 20
62.716926
 40
4.8
  1
２０
 41
0.611111
  7
STANDARD
100
AcDbText
  0
TEXT
  5
BF
100
AcDbEntity
  8
M0
 62
    74
100
AcDbText
 10
110.264468
 20
46.716934
 40
4.8
  1
１０
 41
0.611111
  7
STANDARD
100
AcDbText
  0
TEXT
  5
C0
100
AcDbEntity
  8
M0
 62
    74
100
AcDbText
 10
113.464449
 20
30.716918
 40
4.8
  1
０
 41
0.611111
  7
STANDARD
100
AcDbText
  0
TEXT
  5
C1
100
AcDbEntity
  8
M0
 62
    74
100
AcDbText
 10
116.664462
 20
24.95491
 40
4.8
  1
０
 41
0.611111
  7
STANDARD
100
AcDbText
  0
TEXT
  5
C2
100
AcDbEntity
  8
M0
 62
    74
100
AcDbText
 10
148.664431
 20
24.95491
 40
4.8
  1
２０
 41
0.611111
  7
STANDARD
100
AcDbText
  0
TEXT
  5
C3
100
AcDbEntity
  8
M0
 62
    74
100
AcDbText
 10
180.664462
 20
24.95491
 40
4.8
  1
４０
 41
0.611111
  7
STANDARD
100
AcDbText
  0
TEXT
  5
C4
100
AcDbEntity
  8
M0
 62
    74
100
AcDbText
 10
143.049999
 20
17.631851
 40
5.376
  1
揚水量（Ｌ／分）
 41
0.611111
  7
STANDARD
100
AcDbText
  0
TEXT
  5
C5
100
AcDbEntity
  8
M0
 62
    74
100
AcDbText
 10
132.664462
 20
24.95491
 40
4.8
  1
１０
 41
0.611111
  7
STANDARD
100
AcDbText
  0
TEXT
  5
C6
100
AcDbEntity
  8
M0
 62
    74
100
AcDbText
 10
164.664462
 20
24.95491
 40
4.8
  1
３０
 41
0.611111
  7
STANDARD
100
AcDbText
  0
TEXT
  5
C7
100
AcDbEntity
  8
M0
 62
    74
100
AcDbText
 10
110.264468
 20
94.716934
 40
4.8
  1
４０
 41
0.611111
  7
STANDARD
100
AcDbText
  0
TEXT
  5
C8
100
AcDbEntity
  8
M0
 62
    74
100
AcDbText
 10
110.264468
 20
110.71693
 40
4.8
  1
５０
 41
0.611111
  7
STANDARD
100
AcDbText
  0
LINE
  5
C9
100
AcDbEntity
  8
M0
 62
    74
100
AcDbLine
 10
367.403195
 20
165.220613
 11
367.403195
 21
213.220613
  0
LINE
  5
CA
100
AcDbEntity
  8
M0
 62
    74
100
AcDbLine
 10
351.403195
 20
165.220613
 11
351.403195
 21
213.220613
  0
LINE
  5
CB
100
AcDbEntity
  8
M0
 62
    74
100
AcDbLine
 10
335.403195
 20
165.220613
 11
335.403195
 21
213.220613
  0
LINE
  5
CC
100
AcDbEntity
  8
M0
 62
    74
100
AcDbLine
 10
319.403195
 20
165.220613
 11
319.403195
 21
234.258065
  0
LINE
  5
CD
100
AcDbEntity
  8
M0
 62
    74
100
AcDbLine
 10
191.784655
 20
128.996959
 11
119.784655
 21
128.996959
  0
TEXT
  5
CE
100
AcDbEntity
  8
M0
 62
    74
100
AcDbText
 10
110.264468
 20
126.71693
 40
4.8
  1
６０
 41
0.611111
  7
STANDARD
100
AcDbText
  0
LINE
  5
CF
100
AcDbEntity
  8
M0
 62
    74
100
AcDbLine
 10
151.784655
 20
121.152445
 11
151.784655
 21
128.996959
  0
LINE
  5
D0
100
AcDbEntity
  8
M0
 62
    74
100
AcDbLine
 10
351.403195
 20
245.220613
 11
351.403195
 21
253.303953
  0
LINE
  5
D1
100
AcDbEntity
  8
M0
 62
    74
100
AcDbLine
 10
135.784655
 20
112.996959
 11
135.784655
 21
128.996959
  0
TEXT
  5
D2
100
AcDbEntity
  8
M0
 62
    74
100
AcDbText
 10
116.809015
 20
11.508087
 40
4.05
  1
※破線部域では６０ｋＰａの圧力変動があります。
 41
0.777778
  7
STANDARD
100
AcDbText
  0
TEXT
  5
D3
100
AcDbEntity
  8
M0
 62
    74
100
AcDbText
 10
300.427559
 20
143.731742
 40
4.05
  1
※破線部域では６０ｋＰａの圧力変動があります。
 41
0.777778
  7
STANDARD
100
AcDbText
  0
LINE
  5
D4
100
AcDbEntity
  8
M0
 62
    74
100
AcDbLine
 10
167.784655
 20
77.582926
 11
167.784655
 21
128.996959
  0
LINE
  5
D5
100
AcDbEntity
  8
M0
 62
    74
100
AcDbLine
 10
151.784655
 20
77.582926
 11
151.784655
 21
112.996959
  0
LINE
  5
D6
100
AcDbEntity
  8
M0
 62
    74
100
AcDbLine
 10
335.403195
 20
242.452197
 11
335.403195
 21
253.262283
  0
LINE
  5
D7
100
AcDbEntity
  8
M0
 62
    74
100
AcDbLine
 10
319.403195
 20
242.452197
 11
319.403195
 21
253.220613
  0
LINE
  5
D8
100
AcDbEntity
  8
M0
 62
     4
100
AcDbLine
 10
217.331126
 20
218.693137
 11
217.331126
 21
194.624045
  0
ARC
  5
D9
100
AcDbEntity
  8
M0
 62
     4
100
AcDbCircle
 10
215.331126
 20
218.693137
 40
2.0
100
AcDbArc
 50
0.0
 51
49.642602
  0
LINE
  5
DA
100
AcDbEntity
  8
M0
 62
     4
100
AcDbLine
 10
184.000312
 20
247.94221
 11
216.626233
 21
220.217177
  0
ARC
  5
DB
100
AcDbEntity
  8
M0
 62
     4
100
AcDbCircle
 10
201.533487
 20
230.41817
 40
2.0
100
AcDbArc
 50
49.642602
 51
90.0
  0
LINE
  5
DC
100
AcDbEntity
  8
M0
  6
DASHED
 62
     4
100
AcDbLine
 10
172.531126
 20
232.41817
 11
201.533487
 21
232.41817
  0
ARC
  5
DD
100
AcDbEntity
  8
M0
 62
     4
100
AcDbCircle
 10
182.705205
 20
246.41817
 40
2.0
100
AcDbArc
 50
49.642602
 51
90.0
  0
LINE
  5
DE
100
AcDbEntity
  8
M0
  6
DASHED
 62
     4
100
AcDbLine
 10
172.531126
 20
248.41817
 11
182.705205
 21
248.41817
  0
LINE
  5
DF
100
AcDbEntity
  8
M0
 62
     5
100
AcDbLine
 10
113.331126
 20
208.41692
 11
113.331126
 21
184.41817
  0
ARC
  5
E0
100
AcDbEntity
  8
M0
 62
     5
100
AcDbCircle
 10
111.331126
 20
208.41692
 40
2.0
100
AcDbArc
 50
0.0
 51
51.340192
  0
LINE
  5
E1
100
AcDbEntity
  8
M0
 62
     5
100
AcDbLine
 10
77.900696
 20
237.722514
 11
112.580516
 21
209.978658
  0
LINE
  5
E2
100
AcDbEntity
  8
M0
  6
DASHED
 62
     5
100
AcDbLine
 10
52.531126
 20
222.81817
 11
94.777221
 21
222.81817
  0
ARC
  5
E3
100
AcDbEntity
  8
M0
 62
     5
100
AcDbCircle
 10
94.777221
 20
217.81817
 40
5.0
100
AcDbArc
 50
51.340192
 51
90.0
  0
ARC
  5
E4
100
AcDbEntity
  8
M0
 62
     5
100
AcDbCircle
 10
74.777221
 20
233.81817
 40
5.0
100
AcDbArc
 50
51.340192
 51
90.0
  0
LINE
  5
E5
100
AcDbEntity
  8
M0
  6
DASHED
 62
     5
100
AcDbLine
 10
52.531126
 20
238.81817
 11
74.777221
 21
238.81817
  0
LINE
  5
E6
100
AcDbEntity
  8
M0
 62
     2
100
AcDbLine
 10
319.403195
 20
220.710625
 11
319.403195
 21
203.620613
  0
ARC
  5
E7
100
AcDbEntity
  8
M0
 62
     2
100
AcDbCircle
 10
317.403195
 20
220.710625
 40
2.0
100
AcDbArc
 50
0.0
 51
28.61046
  0
LINE
  5
E8
100
AcDbEntity
  8
M0
 62
     2
100
AcDbLine
 10
308.626265
 20
240.978318
 11
319.158986
 21
221.66833
  0
ARC
  5
E9
100
AcDbEntity
  8
M0
 62
     2
100
AcDbCircle
 10
306.870474
 20
240.020613
 40
2.0
100
AcDbArc
 50
28.61046
 51
90.0
  0
LINE
  5
EA
100
AcDbEntity
  8
M0
  6
DASHED
 62
     2
100
AcDbLine
 10
306.870474
 20
242.020613
 11
303.403195
 21
242.020613
  0
LINE
  5
EB
100
AcDbEntity
  8
M0
 62
     4
100
AcDbLine
 10
147.27061
 20
71.396959
 11
147.27061
 21
95.330292
  0
ARC
  5
EC
100
AcDbEntity
  8
M0
 62
     4
100
AcDbCircle
 10
142.27061
 20
95.330292
 40
5.0
100
AcDbArc
 50
0.0
 51
36.869898
  0
ARC
  5
ED
100
AcDbEntity
  8
M0
 62
     4
100
AcDbCircle
 10
134.784655
 20
107.796959
 40
2.0
100
AcDbArc
 50
36.869898
 51
90.0
  0
LINE
  5
EE
100
AcDbEntity
  8
M0
  6
DASHED
 62
     4
100
AcDbLine
 10
119.784655
 20
109.796959
 11
134.784655
 21
109.796959
  0
LINE
  5
EF
100
AcDbEntity
  8
M0
 62
     4
100
AcDbLine
 10
146.27061
 20
98.330292
 11
136.384655
 21
108.996959
  0
LINE
  5
F0
100
AcDbEntity
  8
M0
 62
    34
100
AcDbLine
 10
172.531126
 20
165.21817
 11
260.531126
 21
165.21817
  0
LINE
  5
F1
100
AcDbEntity
  8
M0
 62
    34
100
AcDbLine
 10
172.531126
 20
253.21817
 11
172.531126
 21
165.21817
  0
LINE
  5
F2
100
AcDbEntity
  8
M0
 62
    34
100
AcDbLine
 10
172.531126
 20
181.21817
 11
260.531126
 21
181.21817
  0
LINE
  5
F3
100
AcDbEntity
  8
M0
 62
    34
100
AcDbLine
 10
172.531126
 20
197.21817
 11
260.531126
 21
197.21817
  0
LINE
  5
F4
100
AcDbEntity
  8
M0
 62
    34
100
AcDbLine
 10
204.531126
 20
213.21817
 11
204.531126
 21
235.487607
  0
LINE
  5
F5
100
AcDbEntity
  8
M0
 62
    34
100
AcDbLine
 10
172.531126
 20
245.21817
 11
260.531126
 21
245.21817
  0
LINE
  5
F6
100
AcDbEntity
  8
M0
 62
    34
100
AcDbLine
 10
236.531126
 20
213.21817
 11
236.531126
 21
216.2865
  0
LINE
  5
F7
100
AcDbEntity
  8
M0
 62
    34
100
AcDbLine
 10
188.531126
 20
165.21817
 11
188.531126
 21
253.21817
  0
LINE
  5
F8
100
AcDbEntity
  8
M0
 62
    34
100
AcDbLine
 10
204.531126
 20
165.21817
 11
204.531126
 21
213.21817
  0
LINE
  5
F9
100
AcDbEntity
  8
M0
 62
    34
100
AcDbLine
 10
220.531126
 20
165.21817
 11
220.531126
 21
216.684747
  0
LINE
  5
FA
100
AcDbEntity
  8
M0
 62
    34
100
AcDbLine
 10
236.531126
 20
165.21817
 11
236.531126
 21
213.21817
  0
ARC
  5
FB
100
AcDbEntity
  8
M0
 62
    34
100
AcDbCircle
 10
157.197178
 20
195.357044
 40
5.376
100
AcDbArc
 50
52.58592
 51
127.41408
  0
ARC
  5
FC
100
AcDbEntity
  8
M0
 62
    34
100
AcDbCircle
 10
157.197178
 20
198.731014
 40
5.376
100
AcDbArc
 50
232.58592
 51
307.41408
  0
TEXT
  5
FD
100
AcDbEntity
  8
M0
 62
    34
100
AcDbText
 10
154.957178
 20
211.425307
 40
3.584
  1
全
 41
1.25
  7
STANDARD
100
AcDbText
  0
TEXT
  5
FE
100
AcDbEntity
  8
M0
 62
    34
100
AcDbText
 10
154.957178
 20
207.482908
 40
3.584
  1
揚
 41
1.25
  7
STANDARD
100
AcDbText
  0
TEXT
  5
FF
100
AcDbEntity
  8
M0
 62
    34
100
AcDbText
 10
154.957178
 20
203.540508
 40
3.584
  1
程
 41
1.25
  7
STANDARD
100
AcDbText
  0
TEXT
  5
100
100
AcDbEntity
  8
M0
 62
    34
100
AcDbText
 10
154.957178
 20
199.598108
 40
3.584
  1
　
 41
1.25
  7
STANDARD
100
AcDbText
  0
TEXT
  5
101
100
AcDbEntity
  8
M0
 62
    34
100
AcDbText
 10
154.957178
 20
195.655708
 40
3.584
  1
ｍ
 41
1.25
  7
STANDARD
100
AcDbText
  0
TEXT
  5
102
100
AcDbEntity
  8
M0
 62
    34
100
AcDbText
 10
163.010924
 20
210.938137
 40
4.8
  1
３０
 41
0.611111
  7
STANDARD
100
AcDbText
  0
TEXT
  5
103
100
AcDbEntity
  8
M0
 62
    34
100
AcDbText
 10
163.010924
 20
194.938137
 40
4.8
  1
２０
 41
0.611111
  7
STANDARD
100
AcDbText
  0
TEXT
  5
104
100
AcDbEntity
  8
M0
 62
    34
100
AcDbText
 10
163.010924
 20
178.93814
 40
4.8
  1
１０
 41
0.611111
  7
STANDARD
100
AcDbText
  0
TEXT
  5
105
100
AcDbEntity
  8
M0
 62
    34
100
AcDbText
 10
166.210921
 20
162.938133
 40
4.8
  1
０
 41
0.611111
  7
STANDARD
100
AcDbText
  0
TEXT
  5
106
100
AcDbEntity
  8
M0
 62
    34
100
AcDbText
 10
169.410917
 20
157.176124
 40
4.8
  1
０
 41
0.611111
  7
STANDARD
100
AcDbText
  0
TEXT
  5
107
100
AcDbEntity
  8
M0
 62
    34
100
AcDbText
 10
201.410918
 20
157.176124
 40
4.8
  1
２０
 41
0.611111
  7
STANDARD
100
AcDbText
  0
TEXT
  5
108
100
AcDbEntity
  8
M0
 62
    34
100
AcDbText
 10
233.410916
 20
157.176124
 40
4.8
  1
４０
 41
0.611111
  7
STANDARD
100
AcDbText
  0
TEXT
  5
109
100
AcDbEntity
  8
M0
 62
    34
100
AcDbText
 10
185.410918
 20
157.176124
 40
4.8
  1
１０
 41
0.611111
  7
STANDARD
100
AcDbText
  0
TEXT
  5
10A
100
AcDbEntity
  8
M0
 62
    34
100
AcDbText
 10
217.410916
 20
157.176124
 40
4.8
  1
３０
 41
0.611111
  7
STANDARD
100
AcDbText
  0
TEXT
  5
10B
100
AcDbEntity
  8
M0
 62
    34
100
AcDbText
 10
249.41092
 20
157.176124
 40
4.8
  1
５０
 41
0.611111
  7
STANDARD
100
AcDbText
  0
TEXT
  5
10C
100
AcDbEntity
  8
M0
 62
    34
100
AcDbText
 10
163.010924
 20
226.93814
 40
4.8
  1
４０
 41
0.611111
  7
STANDARD
100
AcDbText
  0
TEXT
  5
10D
100
AcDbEntity
  8
M0
 62
    34
100
AcDbText
 10
163.010924
 20
242.93814
 40
4.8
  1
５０
 41
0.611111
  7
STANDARD
100
AcDbText
  0
LINE
  5
10E
100
AcDbEntity
  8
M0
 62
    34
100
AcDbLine
 10
252.531126
 20
165.21817
 11
252.531126
 21
253.21817
  0
LINE
  5
10F
100
AcDbEntity
  8
M0
 62
    34
100
AcDbLine
 10
220.531126
 20
245.21817
 11
220.531126
 21
253.21817
  0
LINE
  5
110
100
AcDbEntity
  8
M0
 62
    34
100
AcDbLine
 10
236.531126
 20
245.21817
 11
236.531126
 21
253.21817
  0
LINE
  5
111
100
AcDbEntity
  8
M0
 62
    34
100
AcDbLine
 10
172.531126
 20
229.21817
 11
260.531126
 21
229.21817
  0
LINE
  5
112
100
AcDbEntity
  8
M0
 62
    34
100
AcDbLine
 10
172.531126
 20
213.21817
 11
260.531126
 21
213.21817
  0
TEXT
  5
113
100
AcDbEntity
  8
M0
 62
    34
100
AcDbText
 10
169.555489
 20
143.729299
 40
4.05
  1
※破線部域では６０ｋＰａの圧力変動があります。
 41
0.777778
  7
STANDARD
100
AcDbText
  0
TEXT
  5
114
100
AcDbEntity
  8
M0
 62
    34
100
AcDbText
 10
202.160789
 20
149.769035
 40
5.376
  1
揚水量（Ｌ／分）
 41
0.611111
  7
STANDARD
100
AcDbText
  0
LINE
  5
115
100
AcDbEntity
  8
M0
 62
    34
100
AcDbLine
 10
204.531126
 20
245.21817
 11
204.531126
 21
253.21817
  0
LINE
  5
116
100
AcDbEntity
  8
M0
 62
    34
100
AcDbLine
 10
220.531126
 20
224.64969
 11
220.531126
 21
235.741095
  0
LINE
  5
117
100
AcDbEntity
  8
M0
 62
    34
100
AcDbLine
 10
236.531126
 20
224.749252
 11
236.531126
 21
235.741095
  0
ENDSEC
  0
SECTION
  2
OBJECTS
  0
DICTIONARY
  5
C
100
AcDbDictionary
  3
ACAD_GROUP
350
D
  3
ACAD_MLINESTYLE
350
E
  0
DICTIONARY
  5
D
102
{ACAD_REACTORS
330
C
102
}
100
AcDbDictionary
  0
DICTIONARY
  5
E
102
{ACAD_REACTORS
330
C
102
}
100
AcDbDictionary
  3
STANDARD
350
13
  0
MLINESTYLE
  5
13
102
{ACAD_REACTORS
330
E
102
}
100
AcDbMlineStyle
  2
STANDARD
 70
     0
  3

 62
     0
 51
90.0
 52
90.0
 71
     2
 49
0.5
 62
   256
  6
BYLAYER
 49
-0.5
 62
   256
  6
BYLAYER
  0
ENDSEC
  0
EOF
