  0
SECTION
  2
HEADER
  9
$ACADVER
  1
AC1012
  9
$INSBASE
 10
0.0
 20
0.0
  9
$VIEWCTR
 10
7.531722
 20
4.5
  9
$VIEWSIZE
 40
9.0
  9
$SNAPMODE
 70
     0
  9
$SNAPUNIT
 10
1.0
 20
1.0
  9
$SNAPBASE
 10
0.0
 20
0.0
  9
$SNAPANG
 50
0.0
  9
$SNAPSTYLE
 70
     0
  9
$SNAPISOPAIR
 70
     0
  9
$GRIDMODE
 70
     0
  9
$GRIDUNIT
 10
0.0
 20
0.0
  9
$ORTHOMODE
 70
     0
  9
$REGENMODE
 70
     1
  9
$FILLMODE
 70
     1
  9
$QTEXTMODE
 70
     0
  9
$DRAGMODE
 70
     2
  9
$LTSCALE
 40
1.0
  9
$OSMODE
 70
     0
  9
$ATTMODE
 70
     1
  9
$TEXTSIZE
 40
0.2
  9
$TRACEWID
 40
0.05
  9
$TEXTSTYLE
  7
STANDARD
  9
$CELTYPE
  6
BYLAYER
  9
$CECOLOR
 62
   256
  9
$DIMSCALE
 40
1.0
  9
$DIMASZ
 40
0.18
  9
$DIMEXO
 40
0.0625
  9
$DIMDLI
 40
0.38
  9
$DIMRND
 40
0.0
  9
$DIMDLE
 40
0.0
  9
$DIMEXE
 40
0.18
  9
$DIMTP
 40
0.0
  9
$DIMTM
 40
0.0
  9
$DIMTXT
 40
0.18
  9
$DIMCEN
 40
0.09
  9
$DIMTSZ
 40
0.0
  9
$DIMTOL
 70
     0
  9
$DIMLIM
 70
     0
  9
$DIMTIH
 70
     1
  9
$DIMTOH
 70
     1
  9
$DIMSE1
 70
     0
  9
$DIMSE2
 70
     0
  9
$DIMTAD
 70
     0
  9
$DIMZIN
 70
     0
  9
$DIMBLK
  1

  9
$LUNITS
 70
     2
  9
$LUPREC
 70
     4
  9
$AXISMODE
 70
     0
  9
$AXISUNIT
 10
0.0
 20
0.0
  9
$SKETCHINC
 40
0.1
  9
$FILLETRAD
 40
0.0
  9
$AUNITS
 70
     0
  9
$AUPREC
 70
     0
  9
$MENU
  1
ACAD
  9
$ELEVATION
 40
0.0
  9
$THICKNESS
 40
0.0
  9
$VIEWDIR
 10
0.0
 20
0.0
 30
1.0
  9
$LIMCHECK
 70
     0
  9
$BLIPMODE
 70
     1
  9
$CHAMFERA
 40
0.0
  9
$CHAMFERB
 40
0.0
  9
$FASTZOOM
 70
     1
  9
$SKPOLY
 70
     0
  9
$TDCREATE
 40
0000000.0000000000
  9
$TDUPDATE
 40
0000000.0000000000
  9
$TDINDWG
 40
0.0000000000
  9
$TDUSRTIMER
 40
0.0000000000
  9
$USRTIMER
 70
     1
  9
$ANGBASE
 50
0.0
  9
$ANGDIR
 70
     0
  9
$PDMODE
 70
     0
  9
$PDSIZE
 40
0.0
  9
$PLINEWID
 40
0.0
  9
$COORDS
 70
     0
  9
$USERI1
 70
     0
  9
$USERI2
 70
     0
  9
$USERI3
 70
     0
  9
$USERI4
 70
     0
  9
$USERI5
 70
     0
  9
$USERR1
 40
0.0
  9
$USERR2
 40
0.0
  9
$USERR3
 40
0.0
  9
$USERR4
 40
0.0
  9
$USERR5
 40
0.0
  9
$CLAYER
  8
M80
  9
$EXTMIN
 10
0.0
 20
0.0
  9
$EXTMAX
 10
420.0
 20
297.0
  9
$LIMMIN
 10
0.0
 20
0.0
  9
$LIMMAX
 10
420.0
 20
297.0
  9
$HANDSEED
  5
1C7
  0
ENDSEC
  0
SECTION
  2
CLASSES
  0
ENDSEC
  0
SECTION
  2
TABLES
  0
TABLE
  2
VPORT
  5
8
100
AcDbSymbolTable
 70
     2
  0
VPORT
  5
14
100
AcDbSymbolTableRecord
100
AcDbViewportTableRecord
  2
*ACTIVE
 70
     0
 10
0.0
 20
0.0
 11
1.0
 21
1.0
 12
484.0
 22
297.0
 13
0.0
 23
0.0
 14
1.0
 24
1.0
 15
0.0
 25
0.0
 16
0.0
 26
0.0
 36
1.0
 17
0.0
 27
0.0
 37
0.0
 40
594.0
 41
2.0
 42
50.0
 43
0.0
 44
0.0
 50
0.0
 51
0.0
 71
     0
 72
   100
 73
     1
 74
     1
 75
     0
 76
     0
 77
     0
 78
     0
  0
ENDTAB
  0
TABLE
  2
LTYPE
  5
5
100
AcDbSymbolTable
 70
     5
  0
LTYPE
  5
15
100
AcDbSymbolTableRecord
100
AcDbLinetypeTableRecord
  2
BYBLOCK
 70
     0
  3

 72
    65
 73
     0
 40
0.0
  0
LTYPE
  5
16
100
AcDbSymbolTableRecord
100
AcDbLinetypeTableRecord
  2
BYLAYER
 70
     0
  3

 72
    65
 73
     0
 40
0.0
  0
LTYPE
  5
17
100
AcDbSymbolTableRecord
100
AcDbLinetypeTableRecord
  2
CONTINUOUS
 70
    64
  3
Solid line
 72
    65
 73
     0
 40
0.0
  0
LTYPE
  5
18
100
AcDbSymbolTableRecord
100
AcDbLinetypeTableRecord
  2
DASHED
 70
    64
  3
__ __ __ __ __ __ __ __ __ __ __ __ __ __ __ __
 72
    65
 73
     2
 40
0.75
 49
0.5
 74
     0
 49
-0.25
 74
     0
  0
LTYPE
  5
19
100
AcDbSymbolTableRecord
100
AcDbLinetypeTableRecord
  2
DASHDOT
 70
    64
  3
__ . __ . __ . __ . __ . __ . __ . __ . __ . __
 72
    65
 73
     4
 40
1.0
 49
0.5
 74
     0
 49
-0.25
 74
     0
 49
0.0
 74
     0
 49
-0.25
 74
     0
  0
LTYPE
  5
1A
100
AcDbSymbolTableRecord
100
AcDbLinetypeTableRecord
  2
DIVIDE
 70
    64
  3
____ . . ____ . . ____ . . ____ . . ____ . . __
 72
    65
 73
     6
 40
1.25
 49
0.5
 74
     0
 49
-0.25
 74
     0
 49
0.0
 74
     0
 49
-0.25
 74
     0
 49
0.0
 74
     0
 49
-0.25
 74
     0
  0
LTYPE
  5
1B
100
AcDbSymbolTableRecord
100
AcDbLinetypeTableRecord
  2
DOT
 70
    64
  3
. . . . . . . . . . . . . . . . . . . . . . . .
 72
    65
 73
     2
 40
0.25
 49
0.0
 74
     0
 49
-0.25
 74
     0
  0
ENDTAB
  0
TABLE
  2
LAYER
  5
2
100
AcDbSymbolTable
 70
   102
  0
LAYER
  5
F
100
AcDbSymbolTableRecord
100
AcDbLayerTableRecord
  2
0
 70
     0
 62
     7
  6
CONTINUOUS
  0
LAYER
  5
1C
100
AcDbSymbolTableRecord
100
AcDbLayerTableRecord
  2
DEFPOINTS
 70
     0
 62
     7
  6
CONTINUOUS
  0
LAYER
  5
1D
100
AcDbSymbolTableRecord
100
AcDbLayerTableRecord
  2
M0
 70
     0
 62
     3
  6
CONTINUOUS
  0
LAYER
  5
1E
100
AcDbSymbolTableRecord
100
AcDbLayerTableRecord
  2
DD0
 70
     0
 62
     4
  6
CONTINUOUS
  0
ENDTAB
  0
TABLE
  2
STYLE
  5
3
100
AcDbSymbolTable
 70
     2
  0
STYLE
  5
10
100
AcDbSymbolTableRecord
100
AcDbTextStyleTableRecord
  2
STANDARD
 70
     0
 40
0.0
 41
1.0
 50
0.0
 71
     0
 42
0.2
  3
txt
  4
BIGFONT
  0
ENDTAB
  0
TABLE
  2
VIEW
  5
6
100
AcDbSymbolTable
 70
     0
  0
ENDTAB
  0
TABLE
  2
UCS
  5
7
100
AcDbSymbolTable
 70
     0
  0
ENDTAB
  0
TABLE
  2
APPID
  5
9
100
AcDbSymbolTable
 70
     1
  0
APPID
  5
11
100
AcDbSymbolTableRecord
100
AcDbRegAppTableRecord
  2
ACAD
 70
     0
  0
ENDTAB
  0
TABLE
  2
DIMSTYLE
  5
A
100
AcDbSymbolTable
 70
     2
  0
DIMSTYLE
105
25
100
AcDbSymbolTableRecord
100
AcDbDimStyleTableRecord
  2
STANDARD
 70
     0
  3

  4

  5

  6
_OPEN
  7
_OPEN
 40
1.0
 41
3.0
 42
0.0
 43
8.0
 44
1.5
 45
0.0
 46
0.0
 47
0.0
 48
0.0
140
3.5
141
0.09
142
0.0
143
0.03937
144
1.0
145
0.0
146
1.0
147
1.0
 71
     0
 72
     0
 73
     0
 74
     0
 75
     0
 76
     0
 77
     3
 78
     8
170
     0
171
     2
172
     0
173
     1
174
     0
175
     0
176
     0
177
     0
178
     0
270
     2
271
     2
272
     4
273
     2
274
     2
340
10
275
     0
280
     0
281
     0
282
     0
283
     1
284
     0
285
     0
286
     0
287
     3
288
     0
  0
DIMSTYLE
105
26
100
AcDbSymbolTableRecord
100
AcDbDimStyleTableRecord
  2
LEADSTYL
 70
     0
  3

  4

  5

  6
_OPEN
  7
_OPEN
 40
1.0
 41
3.0
 42
0.0625
 43
0.38
 44
0.18
 45
0.0
 46
0.0
 47
0.0
 48
0.0
140
3.2
141
0.09
142
0.0
143
25.4
144
1.0
145
0.0
146
1.0
147
1.0
 71
     0
 72
     0
 73
     1
 74
     1
 75
     0
 76
     0
 77
     0
 78
     0
170
     0
171
     2
172
     0
173
     1
174
     0
175
     0
176
     0
177
     0
178
     0
270
     2
271
     4
272
     4
273
     2
274
     2
340
10
275
     0
280
     0
281
     0
282
     0
283
     1
284
     0
285
     0
286
     0
287
     3
288
     0
  0
ENDTAB
  0
TABLE
  2
BLOCK_RECORD
  5
1
100
AcDbSymbolTable
 70
    23
  0
BLOCK_RECORD
  5
1F
100
AcDbSymbolTableRecord
100
AcDbBlockTableRecord
  2
*MODEL_SPACE
  0
BLOCK_RECORD
  5
22
100
AcDbSymbolTableRecord
100
AcDbBlockTableRecord
  2
*PAPER_SPACE
  0
BLOCK_RECORD
  5
27
100
AcDbSymbolTableRecord
100
AcDbBlockTableRecord
  2
_NONE
  0
BLOCK_RECORD
  5
2B
100
AcDbSymbolTableRecord
100
AcDbBlockTableRecord
  2
_OPEN
  0
BLOCK_RECORD
  5
31
100
AcDbSymbolTableRecord
100
AcDbBlockTableRecord
  2
_CLOSED
  0
BLOCK_RECORD
  5
38
100
AcDbSymbolTableRecord
100
AcDbBlockTableRecord
  2
_ORIGIN
  0
BLOCK_RECORD
  5
3D
100
AcDbSymbolTableRecord
100
AcDbBlockTableRecord
  2
_DOT
  0
BLOCK_RECORD
  5
45
100
AcDbSymbolTableRecord
100
AcDbBlockTableRecord
  2
_OBLIQUE
  0
BLOCK_RECORD
  5
4B
100
AcDbSymbolTableRecord
100
AcDbBlockTableRecord
  2
LEAD0
  0
BLOCK_RECORD
  5
52
100
AcDbSymbolTableRecord
100
AcDbBlockTableRecord
  2
LEAD1
  0
BLOCK_RECORD
  5
59
100
AcDbSymbolTableRecord
100
AcDbBlockTableRecord
  2
LEAD2
  0
BLOCK_RECORD
  5
60
100
AcDbSymbolTableRecord
100
AcDbBlockTableRecord
  2
LEAD3
  0
BLOCK_RECORD
  5
67
100
AcDbSymbolTableRecord
100
AcDbBlockTableRecord
  2
LEAD4
  0
BLOCK_RECORD
  5
6E
100
AcDbSymbolTableRecord
100
AcDbBlockTableRecord
  2
LEAD5
  0
BLOCK_RECORD
  5
75
100
AcDbSymbolTableRecord
100
AcDbBlockTableRecord
  2
LEAD6
  0
BLOCK_RECORD
  5
7C
100
AcDbSymbolTableRecord
100
AcDbBlockTableRecord
  2
LEAD7
  0
BLOCK_RECORD
  5
83
100
AcDbSymbolTableRecord
100
AcDbBlockTableRecord
  2
LEAD8
  0
BLOCK_RECORD
  5
8A
100
AcDbSymbolTableRecord
100
AcDbBlockTableRecord
  2
LEAD9
  0
BLOCK_RECORD
  5
91
100
AcDbSymbolTableRecord
100
AcDbBlockTableRecord
  2
LEAD10
  0
BLOCK_RECORD
  5
96
100
AcDbSymbolTableRecord
100
AcDbBlockTableRecord
  2
DIMS0
  0
BLOCK_RECORD
  5
9E
100
AcDbSymbolTableRecord
100
AcDbBlockTableRecord
  2
DIMS1
  0
BLOCK_RECORD
  5
A6
100
AcDbSymbolTableRecord
100
AcDbBlockTableRecord
  2
DIMS2
  0
BLOCK_RECORD
  5
AE
100
AcDbSymbolTableRecord
100
AcDbBlockTableRecord
  2
DIMS3
  0
BLOCK_RECORD
  5
B6
100
AcDbSymbolTableRecord
100
AcDbBlockTableRecord
  2
DIMS4
  0
BLOCK_RECORD
  5
C0
100
AcDbSymbolTableRecord
100
AcDbBlockTableRecord
  2
LEAD11
  0
ENDTAB
  0
ENDSEC
  0
SECTION
  2
BLOCKS
  0
BLOCK
  5
20
100
AcDbEntity
  8
0
100
AcDbBlockBegin
  2
*MODEL_SPACE
 70
     0
 10
0.0
 20
0.0
 30
0.0
  3
*MODEL_SPACE
  1

  0
ENDBLK
  5
21
100
AcDbEntity
  8
0
100
AcDbBlockEnd
  0
BLOCK
  5
23
100
AcDbEntity
 67
     1
  8
0
100
AcDbBlockBegin
  2
*PAPER_SPACE
 70
     0
 10
0.0
 20
0.0
 30
0.0
  3
*PAPER_SPACE
  1

  0
ENDBLK
  5
24
100
AcDbEntity
 67
     1
  8
0
100
AcDbBlockEnd
  0
BLOCK
  5
28
100
AcDbEntity
  8
0
100
AcDbBlockBegin
  2
_NONE
 70
     0
 10
0.0
 20
0.0
  0
CIRCLE
  5
29
100
AcDbEntity
  8
0
 62
     0
100
AcDbCircle
 10
0.0
 20
0.0
 40
0.25
  0
ENDBLK
  5
2A
100
AcDbEntity
  8
0
100
AcDbBlockEnd
  0
BLOCK
  5
2C
100
AcDbEntity
  8
0
100
AcDbBlockBegin
  2
_OPEN
 70
     0
 10
0.0
 20
0.0
  0
LINE
  5
2D
100
AcDbEntity
  8
0
 62
     0
100
AcDbLine
 10
-0.965926
 20
0.258819
 11
0.0
 21
0.0
  0
LINE
  5
2E
100
AcDbEntity
  8
0
 62
     0
100
AcDbLine
 10
0.0
 20
0.0
 11
-0.965926
 21
-0.258819
  0
LINE
  5
2F
100
AcDbEntity
  8
0
 62
     0
100
AcDbLine
 10
0.0
 20
0.0
 11
-1.0
 21
0.0
  0
ENDBLK
  5
30
100
AcDbEntity
  8
0
100
AcDbBlockEnd
  0
BLOCK
  5
32
100
AcDbEntity
  8
0
100
AcDbBlockBegin
  2
_CLOSED
 70
     0
 10
0.0
 20
0.0
  0
LINE
  5
33
100
AcDbEntity
  8
0
 62
     0
100
AcDbLine
 10
-0.965926
 20
0.258819
 11
0.0
 21
0.0
  0
LINE
  5
34
100
AcDbEntity
  8
0
 62
     0
100
AcDbLine
 10
0.0
 20
0.0
 11
-0.965926
 21
-0.258819
  0
LINE
  5
35
100
AcDbEntity
  8
0
 62
     0
100
AcDbLine
 10
-0.965926
 20
0.258819
 11
-0.965926
 21
-0.258819
  0
LINE
  5
36
100
AcDbEntity
  8
0
 62
     0
100
AcDbLine
 10
0.0
 20
0.0
 11
-1.0
 21
0.0
  0
ENDBLK
  5
37
100
AcDbEntity
  8
0
100
AcDbBlockEnd
  0
BLOCK
  5
39
100
AcDbEntity
  8
0
100
AcDbBlockBegin
  2
_ORIGIN
 70
     0
 10
0.0
 20
0.0
  0
CIRCLE
  5
3A
100
AcDbEntity
  8
0
 62
     0
100
AcDbCircle
 10
0.0
 20
0.0
 40
0.5
  0
LINE
  5
3B
100
AcDbEntity
  8
0
 62
     0
100
AcDbLine
 10
0.0
 20
0.0
 11
-1.0
 21
0.0
  0
ENDBLK
  5
3C
100
AcDbEntity
  8
0
100
AcDbBlockEnd
  0
BLOCK
  5
3E
100
AcDbEntity
  8
0
100
AcDbBlockBegin
  2
_DOT
 70
     0
 10
0.0
 20
0.0
  0
POLYLINE
  5
3F
100
AcDbEntity
  8
0
 62
     0
100
AcDb2dPolyline
 66
     1
 70
     1
 40
0.5
 41
0.5
  0
VERTEX
  5
40
100
AcDbEntity
  8
0
 62
     0
100
AcDbVertex
100
AcDb2dVertex
 10
-0.25
 20
0.0
 42
1.0
  0
VERTEX
  5
41
100
AcDbEntity
  8
0
 62
     0
100
AcDbVertex
100
AcDb2dVertex
 10
0.25
 20
0.0
 42
1.0
  0
SEQEND
  5
42
100
AcDbEntity
  8
0
 62
     0
  0
LINE
  5
43
100
AcDbEntity
  8
0
 62
     0
100
AcDbLine
 10
-0.5
 20
0.0
 11
-1.0
 21
0.0
  0
ENDBLK
  5
44
100
AcDbEntity
  8
0
100
AcDbBlockEnd
  0
BLOCK
  5
46
100
AcDbEntity
  8
0
100
AcDbBlockBegin
  2
_OBLIQUE
 70
     0
 10
0.0
 20
0.0
  0
LINE
  5
47
100
AcDbEntity
  8
0
 62
     0
100
AcDbLine
 10
-0.353553
 20
-0.353553
 11
0.353553
 21
0.353553
  0
ENDBLK
  5
48
100
AcDbEntity
  8
0
100
AcDbBlockEnd
  0
BLOCK
  5
4C
100
AcDbEntity
  8
DD0
100
AcDbBlockBegin
  2
LEAD0
 70
     0
 10
0.0
 20
0.0
  0
CIRCLE
  5
4D
100
AcDbEntity
  8
DD0
100
AcDbCircle
 10
195.217606
 20
213.551636
 40
2.0
  0
TEXT
  5
4E
100
AcDbEntity
  8
DD0
100
AcDbText
 10
194.250939
 20
212.211636
 40
2.68
  1
１
 41
0.721393
  7
STANDARD
100
AcDbText
  0
ENDBLK
  5
4F
100
AcDbEntity
  8
DD0
100
AcDbBlockEnd
  0
BLOCK
  5
53
100
AcDbEntity
  8
DD0
100
AcDbBlockBegin
  2
LEAD1
 70
     0
 10
0.0
 20
0.0
  0
CIRCLE
  5
54
100
AcDbEntity
  8
DD0
100
AcDbCircle
 10
287.836304
 20
195.130234
 40
2.0
  0
TEXT
  5
55
100
AcDbEntity
  8
DD0
100
AcDbText
 10
286.869637
 20
193.790234
 40
2.68
  1
３
 41
0.721393
  7
STANDARD
100
AcDbText
  0
ENDBLK
  5
56
100
AcDbEntity
  8
DD0
100
AcDbBlockEnd
  0
BLOCK
  5
5A
100
AcDbEntity
  8
DD0
100
AcDbBlockBegin
  2
LEAD2
 70
     0
 10
0.0
 20
0.0
  0
CIRCLE
  5
5B
100
AcDbEntity
  8
DD0
100
AcDbCircle
 10
298.003601
 20
195.130234
 40
2.0
  0
TEXT
  5
5C
100
AcDbEntity
  8
DD0
100
AcDbText
 10
297.036934
 20
193.790234
 40
2.68
  1
１
 41
0.721393
  7
STANDARD
100
AcDbText
  0
ENDBLK
  5
5D
100
AcDbEntity
  8
DD0
100
AcDbBlockEnd
  0
BLOCK
  5
61
100
AcDbEntity
  8
DD0
100
AcDbBlockBegin
  2
LEAD3
 70
     0
 10
0.0
 20
0.0
  0
CIRCLE
  5
62
100
AcDbEntity
  8
DD0
100
AcDbCircle
 10
101.23111
 20
203.364792
 40
2.0
  0
TEXT
  5
63
100
AcDbEntity
  8
DD0
100
AcDbText
 10
100.264443
 20
202.024792
 40
2.68
  1
１
 41
0.721393
  7
STANDARD
100
AcDbText
  0
ENDBLK
  5
64
100
AcDbEntity
  8
DD0
100
AcDbBlockEnd
  0
BLOCK
  5
68
100
AcDbEntity
  8
DD0
100
AcDbBlockBegin
  2
LEAD4
 70
     0
 10
0.0
 20
0.0
  0
CIRCLE
  5
69
100
AcDbEntity
  8
DD0
100
AcDbCircle
 10
116.543114
 20
215.674438
 40
2.0
  0
TEXT
  5
6A
100
AcDbEntity
  8
DD0
100
AcDbText
 10
115.576447
 20
214.334438
 40
2.68
  1
２
 41
0.721393
  7
STANDARD
100
AcDbText
  0
ENDBLK
  5
6B
100
AcDbEntity
  8
DD0
100
AcDbBlockEnd
  0
BLOCK
  5
6F
100
AcDbEntity
  8
DD0
100
AcDbBlockBegin
  2
LEAD5
 70
     0
 10
0.0
 20
0.0
  0
CIRCLE
  5
70
100
AcDbEntity
  8
DD0
100
AcDbCircle
 10
213.337982
 20
213.551636
 40
2.0
  0
TEXT
  5
71
100
AcDbEntity
  8
DD0
100
AcDbText
 10
212.371315
 20
212.211636
 40
2.68
  1
２
 41
0.721393
  7
STANDARD
100
AcDbText
  0
ENDBLK
  5
72
100
AcDbEntity
  8
DD0
100
AcDbBlockEnd
  0
BLOCK
  5
76
100
AcDbEntity
  8
DD0
100
AcDbBlockBegin
  2
LEAD6
 70
     0
 10
0.0
 20
0.0
  0
CIRCLE
  5
77
100
AcDbEntity
  8
DD0
100
AcDbCircle
 10
311.904114
 20
195.130234
 40
2.0
  0
TEXT
  5
78
100
AcDbEntity
  8
DD0
100
AcDbText
 10
310.937447
 20
193.790234
 40
2.68
  1
２
 41
0.721393
  7
STANDARD
100
AcDbText
  0
ENDBLK
  5
79
100
AcDbEntity
  8
DD0
100
AcDbBlockEnd
  0
BLOCK
  5
7D
100
AcDbEntity
  8
DD0
100
AcDbBlockBegin
  2
LEAD7
 70
     0
 10
0.0
 20
0.0
  0
CIRCLE
  5
7E
100
AcDbEntity
  8
DD0
100
AcDbCircle
 10
61.082115
 20
86.994972
 40
2.0
  0
TEXT
  5
7F
100
AcDbEntity
  8
DD0
100
AcDbText
 10
60.115448
 20
85.654972
 40
2.68
  1
１
 41
0.721393
  7
STANDARD
100
AcDbText
  0
ENDBLK
  5
80
100
AcDbEntity
  8
DD0
100
AcDbBlockEnd
  0
BLOCK
  5
84
100
AcDbEntity
  8
DD0
100
AcDbBlockBegin
  2
LEAD8
 70
     0
 10
0.0
 20
0.0
  0
CIRCLE
  5
85
100
AcDbEntity
  8
DD0
100
AcDbCircle
 10
75.614944
 20
86.994972
 40
2.0
  0
TEXT
  5
86
100
AcDbEntity
  8
DD0
100
AcDbText
 10
74.648278
 20
85.654972
 40
2.68
  1
２
 41
0.721393
  7
STANDARD
100
AcDbText
  0
ENDBLK
  5
87
100
AcDbEntity
  8
DD0
100
AcDbBlockEnd
  0
BLOCK
  5
8B
100
AcDbEntity
  8
DD0
100
AcDbBlockBegin
  2
LEAD9
 70
     0
 10
0.0
 20
0.0
  0
CIRCLE
  5
8C
100
AcDbEntity
  8
DD0
100
AcDbCircle
 10
168.134643
 20
87.120766
 40
2.0
  0
TEXT
  5
8D
100
AcDbEntity
  8
DD0
100
AcDbText
 10
167.167977
 20
85.780766
 40
2.68
  1
１
 41
0.721393
  7
STANDARD
100
AcDbText
  0
ENDBLK
  5
8E
100
AcDbEntity
  8
DD0
100
AcDbBlockEnd
  0
BLOCK
  5
92
100
AcDbEntity
  8
DD0
100
AcDbBlockBegin
  2
LEAD10
 70
     0
 10
0.0
 20
0.0
  0
CIRCLE
  5
93
100
AcDbEntity
  8
DD0
100
AcDbCircle
 10
183.213913
 20
87.120766
 40
2.0
  0
TEXT
  5
94
100
AcDbEntity
  8
DD0
100
AcDbText
 10
182.247246
 20
85.780766
 40
2.68
  1
２
 41
0.721393
  7
STANDARD
100
AcDbText
  0
ENDBLK
  5
95
100
AcDbEntity
  8
DD0
100
AcDbBlockEnd
  0
BLOCK
  5
97
100
AcDbEntity
  8
DD0
100
AcDbBlockBegin
  2
DIMS0
 70
     0
 10
0.0
 20
0.0
  0
LINE
  5
98
100
AcDbEntity
  8
DD0
100
AcDbLine
 10
39.552593
 20
261.029968
 11
41.552593
 21
265.029968
  0
LINE
  5
99
100
AcDbEntity
  8
DD0
100
AcDbLine
 10
41.552593
 20
265.029968
 11
43.552593
 21
261.029968
  0
LINE
  5
9A
100
AcDbEntity
  8
DD0
100
AcDbLine
 10
43.552593
 20
261.029968
 11
39.552593
 21
261.029968
  0
TEXT
  5
9B
100
AcDbEntity
  8
DD0
100
AcDbText
 10
40.835927
 20
261.34997
 40
1.8
  1
Ａ
 41
0.796296
  7
STANDARD
100
AcDbText
  0
ENDBLK
  5
9C
100
AcDbEntity
  8
DD0
100
AcDbBlockEnd
  0
BLOCK
  5
9F
100
AcDbEntity
  8
DD0
100
AcDbBlockBegin
  2
DIMS1
 70
     0
 10
0.0
 20
0.0
  0
LINE
  5
A0
100
AcDbEntity
  8
DD0
100
AcDbLine
 10
38.217068
 20
127.607513
 11
40.217068
 21
131.607513
  0
LINE
  5
A1
100
AcDbEntity
  8
DD0
100
AcDbLine
 10
40.217068
 20
131.607513
 11
42.217068
 21
127.607513
  0
LINE
  5
A2
100
AcDbEntity
  8
DD0
100
AcDbLine
 10
42.217068
 20
127.607513
 11
38.217068
 21
127.607513
  0
TEXT
  5
A3
100
AcDbEntity
  8
DD0
100
AcDbText
 10
39.500401
 20
127.927515
 40
1.8
  1
Ａ
 41
0.796296
  7
STANDARD
100
AcDbText
  0
ENDBLK
  5
A4
100
AcDbEntity
  8
DD0
100
AcDbBlockEnd
  0
BLOCK
  5
A7
100
AcDbEntity
  8
DD0
100
AcDbBlockBegin
  2
DIMS2
 70
     0
 10
0.0
 20
0.0
  0
LINE
  5
A8
100
AcDbEntity
  8
DD0
100
AcDbLine
 10
152.323715
 20
130.116852
 11
154.323715
 21
134.116852
  0
LINE
  5
A9
100
AcDbEntity
  8
DD0
100
AcDbLine
 10
154.323715
 20
134.116852
 11
156.323715
 21
130.116852
  0
LINE
  5
AA
100
AcDbEntity
  8
DD0
100
AcDbLine
 10
156.323715
 20
130.116852
 11
152.323715
 21
130.116852
  0
TEXT
  5
AB
100
AcDbEntity
  8
DD0
100
AcDbText
 10
153.607049
 20
130.436853
 40
1.8
  1
Ａ
 41
0.796296
  7
STANDARD
100
AcDbText
  0
ENDBLK
  5
AC
100
AcDbEntity
  8
DD0
100
AcDbBlockEnd
  0
BLOCK
  5
AF
100
AcDbEntity
  8
DD0
100
AcDbBlockBegin
  2
DIMS3
 70
     0
 10
0.0
 20
0.0
  0
LINE
  5
B0
100
AcDbEntity
  8
DD0
100
AcDbLine
 10
150.95784
 20
262.347076
 11
152.95784
 21
266.347076
  0
LINE
  5
B1
100
AcDbEntity
  8
DD0
100
AcDbLine
 10
152.95784
 20
266.347076
 11
154.95784
 21
262.347076
  0
LINE
  5
B2
100
AcDbEntity
  8
DD0
100
AcDbLine
 10
154.95784
 20
262.347076
 11
150.95784
 21
262.347076
  0
TEXT
  5
B3
100
AcDbEntity
  8
DD0
100
AcDbText
 10
152.241173
 20
262.667078
 40
1.8
  1
Ａ
 41
0.796296
  7
STANDARD
100
AcDbText
  0
ENDBLK
  5
B4
100
AcDbEntity
  8
DD0
100
AcDbBlockEnd
  0
BLOCK
  5
B7
100
AcDbEntity
  8
DD0
100
AcDbBlockBegin
  2
DIMS4
 70
     0
 10
0.0
 20
0.0
  0
LINE
  5
B8
100
AcDbEntity
  8
DD0
100
AcDbLine
 10
264.72522
 20
239.464386
 11
266.72522
 21
243.464386
  0
LINE
  5
B9
100
AcDbEntity
  8
DD0
100
AcDbLine
 10
266.72522
 20
243.464386
 11
268.72522
 21
239.464386
  0
LINE
  5
BA
100
AcDbEntity
  8
DD0
100
AcDbLine
 10
268.72522
 20
239.464386
 11
264.72522
 21
239.464386
  0
TEXT
  5
BB
100
AcDbEntity
  8
DD0
100
AcDbText
 10
266.008553
 20
239.784387
 40
1.8
  1
Ａ
 41
0.796296
  7
STANDARD
100
AcDbText
  0
ENDBLK
  5
BC
100
AcDbEntity
  8
DD0
100
AcDbBlockEnd
  0
BLOCK
  5
C1
100
AcDbEntity
  8
DD0
100
AcDbBlockBegin
  2
LEAD11
 70
     0
 10
0.0
 20
0.0
  0
CIRCLE
  5
C2
100
AcDbEntity
  8
DD0
100
AcDbCircle
 10
184.851761
 20
213.169052
 40
2.0
  0
TEXT
  5
C3
100
AcDbEntity
  8
DD0
100
AcDbText
 10
183.885094
 20
211.829052
 40
2.68
  1
３
 41
0.721393
  7
STANDARD
100
AcDbText
  0
ENDBLK
  5
C4
100
AcDbEntity
  8
DD0
100
AcDbBlockEnd
  0
ENDSEC
  0
SECTION
  2
ENTITIES
  0
LEADER
  5
49
100
AcDbEntity
  8
DD0
100
AcDbLeader
  3
LEADSTYL
 76
     2
 10
201.10907
 20
217.651962
 10
196.859161
 20
214.694122
212
196.859161
222
214.694122
340
4A
 77
     4
  0
INSERT
  5
4A
100
AcDbEntity
  8
DD0
100
AcDbBlockReference
  2
LEAD0
 10
0.0
 20
0.0
  0
LEADER
  5
50
100
AcDbEntity
  8
DD0
100
AcDbLeader
  3
LEADSTYL
 76
     2
 10
295.853943
 20
200.959183
 10
289.453979
 20
196.306305
212
289.453979
222
196.306305
340
51
 77
     4
  0
INSERT
  5
51
100
AcDbEntity
  8
DD0
100
AcDbBlockReference
  2
LEAD1
 10
0.0
 20
0.0
  0
LEADER
  5
57
100
AcDbEntity
  8
DD0
100
AcDbLeader
  3
LEADSTYL
 76
     2
 10
303.053925
 20
201.546539
 10
299.240601
 20
196.701813
212
299.240601
222
196.701813
340
58
 77
     4
  0
INSERT
  5
58
100
AcDbEntity
  8
DD0
100
AcDbBlockReference
  2
LEAD2
 10
0.0
 20
0.0
  0
LEADER
  5
5E
100
AcDbEntity
  8
DD0
100
AcDbLeader
  3
LEADSTYL
 76
     2
 10
107.509071
 20
208.487335
 10
102.780716
 20
204.629196
212
102.780716
222
204.629196
340
5F
 77
     4
  0
INSERT
  5
5F
100
AcDbEntity
  8
DD0
100
AcDbBlockReference
  2
LEAD3
 10
0.0
 20
0.0
  0
LEADER
  5
65
100
AcDbEntity
  8
DD0
100
AcDbLeader
  3
LEADSTYL
 76
     2
 10
108.949074
 20
212.944687
 10
114.661018
 20
214.997894
212
114.661018
222
214.997894
340
66
 77
     4
  0
INSERT
  5
66
100
AcDbEntity
  8
DD0
100
AcDbBlockReference
  2
LEAD4
 10
0.0
 20
0.0
  0
LEADER
  5
6C
100
AcDbEntity
  8
DD0
100
AcDbLeader
  3
LEADSTYL
 76
     2
 10
208.309067
 20
218.424896
 10
211.901718
 20
214.943451
212
211.901718
222
214.943451
340
6D
 77
     4
  0
INSERT
  5
6D
100
AcDbEntity
  8
DD0
100
AcDbBlockReference
  2
LEAD5
 10
0.0
 20
0.0
  0
LEADER
  5
73
100
AcDbEntity
  8
DD0
100
AcDbLeader
  3
LEADSTYL
 76
     2
 10
305.933929
 20
201.643616
 10
310.552704
 20
196.604584
212
310.552704
222
196.604584
340
74
 77
     4
  0
INSERT
  5
74
100
AcDbEntity
  8
DD0
100
AcDbBlockReference
  2
LEAD6
 10
0.0
 20
0.0
  0
LEADER
  5
7A
100
AcDbEntity
  8
DD0
100
AcDbLeader
  3
LEADSTYL
 76
     2
 10
68.632248
 20
90.496185
 10
62.896523
 20
87.836365
212
62.896523
222
87.836365
340
7B
 77
     4
  0
INSERT
  5
7B
100
AcDbEntity
  8
DD0
100
AcDbBlockReference
  2
LEAD7
 10
0.0
 20
0.0
  0
LEADER
  5
81
100
AcDbEntity
  8
DD0
100
AcDbLeader
  3
LEADSTYL
 76
     2
 10
70.07225
 20
93.672722
 10
74.337585
 20
88.533913
212
74.337585
222
88.533913
340
82
 77
     4
  0
INSERT
  5
82
100
AcDbEntity
  8
DD0
100
AcDbBlockReference
  2
LEAD8
 10
0.0
 20
0.0
  0
LEADER
  5
88
100
AcDbEntity
  8
DD0
100
AcDbLeader
  3
LEADSTYL
 76
     2
 10
174.312241
 20
92.763763
 10
169.611313
 20
88.469643
212
169.611313
222
88.469643
340
89
 77
     4
  0
INSERT
  5
89
100
AcDbEntity
  8
DD0
100
AcDbBlockReference
  2
LEAD9
 10
0.0
 20
0.0
  0
LEADER
  5
8F
100
AcDbEntity
  8
DD0
100
AcDbLeader
  3
LEADSTYL
 76
     2
 10
175.752243
 20
97.767937
 10
182.066101
 20
88.758606
212
182.066101
222
88.758606
340
90
 77
     4
  0
INSERT
  5
90
100
AcDbEntity
  8
DD0
100
AcDbBlockReference
  2
LEAD10
 10
0.0
 20
0.0
  0
INSERT
  5
9D
100
AcDbEntity
  8
DD0
100
AcDbBlockReference
  2
DIMS0
 10
0.0
 20
0.0
  0
INSERT
  5
A5
100
AcDbEntity
  8
DD0
100
AcDbBlockReference
  2
DIMS1
 10
0.0
 20
0.0
  0
INSERT
  5
AD
100
AcDbEntity
  8
DD0
100
AcDbBlockReference
  2
DIMS2
 10
0.0
 20
0.0
  0
INSERT
  5
B5
100
AcDbEntity
  8
DD0
100
AcDbBlockReference
  2
DIMS3
 10
0.0
 20
0.0
  0
INSERT
  5
BD
100
AcDbEntity
  8
DD0
100
AcDbBlockReference
  2
DIMS4
 10
0.0
 20
0.0
  0
LEADER
  5
BE
100
AcDbEntity
  8
DD0
100
AcDbLeader
  3
LEADSTYL
 76
     2
 10
192.46907
 20
218.248642
 10
186.515717
 20
214.278656
212
186.515717
222
214.278656
340
BF
 77
     4
  0
INSERT
  5
BF
100
AcDbEntity
  8
DD0
100
AcDbBlockReference
  2
LEAD11
 10
0.0
 20
0.0
  0
ARC
  5
C5
100
AcDbEntity
  8
M0
100
AcDbCircle
 10
-314.576671
 20
261.699649
 40
20.0
100
AcDbArc
 50
262.874984
 51
437.905243
  0
LINE
  5
C6
100
AcDbEntity
  8
M0
 62
    74
100
AcDbLine
 10
280.013933
 20
161.694009
 11
344.813933
 21
161.694009
  0
LINE
  5
C7
100
AcDbEntity
  8
M0
 62
    74
100
AcDbLine
 10
280.013933
 20
240.894009
 11
280.013933
 21
161.694009
  0
LINE
  5
C8
100
AcDbEntity
  8
M0
 62
    74
100
AcDbLine
 10
280.013933
 20
176.094009
 11
344.813933
 21
176.094009
  0
LINE
  5
C9
100
AcDbEntity
  8
M0
 62
    74
100
AcDbLine
 10
280.013933
 20
190.494009
 11
344.813933
 21
190.494009
  0
LINE
  5
CA
100
AcDbEntity
  8
M0
 62
    74
100
AcDbLine
 10
308.813933
 20
204.894009
 11
308.813933
 21
219.294009
  0
LINE
  5
CB
100
AcDbEntity
  8
M0
 62
    74
100
AcDbLine
 10
280.013933
 20
219.294009
 11
344.813933
 21
219.294009
  0
LINE
  5
CC
100
AcDbEntity
  8
M0
 62
    74
100
AcDbLine
 10
280.013933
 20
204.894009
 11
344.813933
 21
204.894009
  0
LINE
  5
CD
100
AcDbEntity
  8
M0
 62
    74
100
AcDbLine
 10
280.013933
 20
233.694009
 11
344.813933
 21
233.694009
  0
ARC
  5
CE
100
AcDbEntity
  8
M0
 62
    74
100
AcDbCircle
 10
266.013692
 20
187.144658
 40
4.8384
100
AcDbArc
 50
52.58592
 51
127.41408
  0
ARC
  5
CF
100
AcDbEntity
  8
M0
 62
    74
100
AcDbCircle
 10
266.013692
 20
190.181231
 40
4.8384
100
AcDbArc
 50
232.58592
 51
307.41408
  0
TEXT
  5
D0
100
AcDbEntity
  8
M0
 62
    74
100
AcDbText
 10
263.997696
 20
201.606102
 40
3.2256
  1
全
 41
1.25
  7
STANDARD
100
AcDbText
  0
TEXT
  5
D1
100
AcDbEntity
  8
M0
 62
    74
100
AcDbText
 10
263.997696
 20
198.057942
 40
3.2256
  1
揚
 41
1.25
  7
STANDARD
100
AcDbText
  0
TEXT
  5
D2
100
AcDbEntity
  8
M0
 62
    74
100
AcDbText
 10
263.997696
 20
194.509783
 40
3.2256
  1
程
 41
1.25
  7
STANDARD
100
AcDbText
  0
TEXT
  5
D3
100
AcDbEntity
  8
M0
 62
    74
100
AcDbText
 10
263.997696
 20
190.961623
 40
3.2256
  1
　
 41
1.25
  7
STANDARD
100
AcDbText
  0
TEXT
  5
D4
100
AcDbEntity
  8
M0
 62
    74
100
AcDbText
 10
263.997696
 20
187.413463
 40
3.2256
  1
ｍ
 41
1.25
  7
STANDARD
100
AcDbText
  0
TEXT
  5
D5
100
AcDbEntity
  8
M0
 62
    74
100
AcDbText
 10
271.44575
 20
202.841979
 40
4.32
  1
３０
 41
0.611111
  7
STANDARD
100
AcDbText
  0
TEXT
  5
D6
100
AcDbEntity
  8
M0
 62
    74
100
AcDbText
 10
271.44575
 20
188.441977
 40
4.32
  1
２０
 41
0.611111
  7
STANDARD
100
AcDbText
  0
TEXT
  5
D7
100
AcDbEntity
  8
M0
 62
    74
100
AcDbText
 10
271.44575
 20
174.041983
 40
4.32
  1
１０
 41
0.611111
  7
STANDARD
100
AcDbText
  0
TEXT
  5
D8
100
AcDbEntity
  8
M0
 62
    74
100
AcDbText
 10
274.325747
 20
159.641978
 40
4.32
  1
０
 41
0.611111
  7
STANDARD
100
AcDbText
  0
TEXT
  5
D9
100
AcDbEntity
  8
M0
 62
    74
100
AcDbText
 10
277.205759
 20
154.456172
 40
4.32
  1
０
 41
0.611111
  7
STANDARD
100
AcDbText
  0
TEXT
  5
DA
100
AcDbEntity
  8
M0
 62
    74
100
AcDbText
 10
306.00573
 20
154.456172
 40
4.32
  1
２０
 41
0.611111
  7
STANDARD
100
AcDbText
  0
TEXT
  5
DB
100
AcDbEntity
  8
M0
 62
    74
100
AcDbText
 10
334.805758
 20
154.456172
 40
4.32
  1
４０
 41
0.611111
  7
STANDARD
100
AcDbText
  0
TEXT
  5
DC
100
AcDbEntity
  8
M0
 62
    74
100
AcDbText
 10
300.952741
 20
147.86541
 40
4.8384
  1
揚水量（Ｌ／分）
 41
0.611111
  7
STANDARD
100
AcDbText
  0
TEXT
  5
DD
100
AcDbEntity
  8
M0
 62
    74
100
AcDbText
 10
291.605757
 20
154.456172
 40
4.32
  1
１０
 41
0.611111
  7
STANDARD
100
AcDbText
  0
TEXT
  5
DE
100
AcDbEntity
  8
M0
 62
    74
100
AcDbText
 10
320.405758
 20
154.456172
 40
4.32
  1
３０
 41
0.611111
  7
STANDARD
100
AcDbText
  0
TEXT
  5
DF
100
AcDbEntity
  8
M0
 62
    74
100
AcDbText
 10
271.44575
 20
217.24198
 40
4.32
  1
４０
 41
0.611111
  7
STANDARD
100
AcDbText
  0
TEXT
  5
E0
100
AcDbEntity
  8
M0
 62
    74
100
AcDbText
 10
271.44575
 20
231.641982
 40
4.32
  1
５０
 41
0.611111
  7
STANDARD
100
AcDbText
  0
LINE
  5
E1
100
AcDbEntity
  8
M0
 62
    74
100
AcDbLine
 10
308.813933
 20
219.294009
 11
308.813933
 21
240.931512
  0
LINE
  5
E2
100
AcDbEntity
  8
M0
 62
    74
100
AcDbLine
 10
323.213933
 20
204.894009
 11
323.213933
 21
221.955246
  0
LINE
  5
E3
100
AcDbEntity
  8
M0
 62
    74
100
AcDbLine
 10
337.613933
 20
204.894009
 11
337.613933
 21
241.006518
  0
LINE
  5
E4
100
AcDbEntity
  8
M0
 62
    74
100
AcDbLine
 10
54.232247
 20
37.69272
 11
119.032247
 21
37.69272
  0
LINE
  5
E5
100
AcDbEntity
  8
M0
 62
    74
100
AcDbLine
 10
54.232247
 20
124.09272
 11
54.232247
 21
37.69272
  0
LINE
  5
E6
100
AcDbEntity
  8
M0
 62
    74
100
AcDbLine
 10
83.032247
 20
37.69272
 11
83.032247
 21
80.89272
  0
LINE
  5
E7
100
AcDbEntity
  8
M0
 62
    74
100
AcDbLine
 10
111.832247
 20
37.69272
 11
111.832247
 21
124.09272
  0
LINE
  5
E8
100
AcDbEntity
  8
M0
 62
    74
100
AcDbLine
 10
54.232247
 20
52.09272
 11
119.032247
 21
52.09272
  0
LINE
  5
E9
100
AcDbEntity
  8
M0
 62
    74
100
AcDbLine
 10
54.232247
 20
66.49272
 11
119.032247
 21
66.49272
  0
LINE
  5
EA
100
AcDbEntity
  8
M0
 62
    74
100
AcDbLine
 10
83.032247
 20
80.89272
 11
83.032247
 21
95.29272
  0
LINE
  5
EB
100
AcDbEntity
  8
M0
 62
    74
100
AcDbLine
 10
68.632247
 20
37.69272
 11
68.632247
 21
79.615392
  0
LINE
  5
EC
100
AcDbEntity
  8
M0
 62
    74
100
AcDbLine
 10
97.432247
 20
37.69272
 11
97.432247
 21
124.09272
  0
LINE
  5
ED
100
AcDbEntity
  8
M0
 62
    74
100
AcDbLine
 10
54.232247
 20
95.29272
 11
119.032247
 21
95.29272
  0
LINE
  5
EE
100
AcDbEntity
  8
M0
 62
    74
100
AcDbLine
 10
54.232247
 20
80.89272
 11
119.032247
 21
80.89272
  0
LINE
  5
EF
100
AcDbEntity
  8
M0
 62
    74
100
AcDbLine
 10
54.232247
 20
109.69272
 11
119.032247
 21
109.69272
  0
LINE
  5
F0
100
AcDbEntity
  8
M0
 62
    74
100
AcDbLine
 10
83.032247
 20
95.29272
 11
83.032247
 21
100.347497
  0
ARC
  5
F1
100
AcDbEntity
  8
M0
 62
    74
100
AcDbCircle
 10
40.232007
 20
63.143369
 40
4.8384
100
AcDbArc
 50
52.58592
 51
127.41408
  0
ARC
  5
F2
100
AcDbEntity
  8
M0
 62
    74
100
AcDbCircle
 10
40.232007
 20
66.179942
 40
4.8384
100
AcDbArc
 50
232.58592
 51
307.41408
  0
TEXT
  5
F3
100
AcDbEntity
  8
M0
 62
    74
100
AcDbText
 10
38.216022
 20
77.604813
 40
3.2256
  1
全
 41
1.25
  7
STANDARD
100
AcDbText
  0
TEXT
  5
F4
100
AcDbEntity
  8
M0
 62
    74
100
AcDbText
 10
38.216022
 20
74.056653
 40
3.2256
  1
揚
 41
1.25
  7
STANDARD
100
AcDbText
  0
TEXT
  5
F5
100
AcDbEntity
  8
M0
 62
    74
100
AcDbText
 10
38.216022
 20
70.508493
 40
3.2256
  1
程
 41
1.25
  7
STANDARD
100
AcDbText
  0
TEXT
  5
F6
100
AcDbEntity
  8
M0
 62
    74
100
AcDbText
 10
38.216022
 20
66.960334
 40
3.2256
  1
　
 41
1.25
  7
STANDARD
100
AcDbText
  0
TEXT
  5
F7
100
AcDbEntity
  8
M0
 62
    74
100
AcDbText
 10
38.216022
 20
63.412174
 40
3.2256
  1
ｍ
 41
1.25
  7
STANDARD
100
AcDbText
  0
TEXT
  5
F8
100
AcDbEntity
  8
M0
 62
    74
100
AcDbText
 10
45.664065
 20
78.840689
 40
4.32
  1
３０
 41
0.611111
  7
STANDARD
100
AcDbText
  0
TEXT
  5
F9
100
AcDbEntity
  8
M0
 62
    74
100
AcDbText
 10
45.664065
 20
64.440688
 40
4.32
  1
２０
 41
0.611111
  7
STANDARD
100
AcDbText
  0
TEXT
  5
FA
100
AcDbEntity
  8
M0
 62
    74
100
AcDbText
 10
45.664065
 20
50.040694
 40
4.32
  1
１０
 41
0.611111
  7
STANDARD
100
AcDbText
  0
TEXT
  5
FB
100
AcDbEntity
  8
M0
 62
    74
100
AcDbText
 10
48.54407
 20
35.640692
 40
4.32
  1
０
 41
0.611111
  7
STANDARD
100
AcDbText
  0
TEXT
  5
FC
100
AcDbEntity
  8
M0
 62
    74
100
AcDbText
 10
51.42409
 20
30.454871
 40
4.32
  1
０
 41
0.611111
  7
STANDARD
100
AcDbText
  0
TEXT
  5
FD
100
AcDbEntity
  8
M0
 62
    74
100
AcDbText
 10
80.224047
 20
30.454871
 40
4.32
  1
２０
 41
0.611111
  7
STANDARD
100
AcDbText
  0
TEXT
  5
FE
100
AcDbEntity
  8
M0
 62
    74
100
AcDbText
 10
109.024081
 20
30.454871
 40
4.32
  1
４０
 41
0.611111
  7
STANDARD
100
AcDbText
  0
TEXT
  5
FF
100
AcDbEntity
  8
M0
 62
    74
100
AcDbText
 10
75.171049
 20
23.864127
 40
4.8384
  1
揚水量（Ｌ／分）
 41
0.611111
  7
STANDARD
100
AcDbText
  0
TEXT
  5
100
100
AcDbEntity
  8
M0
 62
    74
100
AcDbText
 10
65.824084
 20
30.454871
 40
4.32
  1
１０
 41
0.611111
  7
STANDARD
100
AcDbText
  0
TEXT
  5
101
100
AcDbEntity
  8
M0
 62
    74
100
AcDbText
 10
94.624071
 20
30.454871
 40
4.32
  1
３０
 41
0.611111
  7
STANDARD
100
AcDbText
  0
TEXT
  5
102
100
AcDbEntity
  8
M0
 62
    74
100
AcDbText
 10
45.664065
 20
93.240698
 40
4.32
  1
４０
 41
0.611111
  7
STANDARD
100
AcDbText
  0
TEXT
  5
103
100
AcDbEntity
  8
M0
 62
    74
100
AcDbText
 10
45.664065
 20
107.640692
 40
4.32
  1
５０
 41
0.611111
  7
STANDARD
100
AcDbText
  0
LINE
  5
104
100
AcDbEntity
  8
M0
 62
    74
100
AcDbLine
 10
337.613933
 20
161.694009
 11
337.613933
 21
204.894009
  0
LINE
  5
105
100
AcDbEntity
  8
M0
 62
    74
100
AcDbLine
 10
323.213933
 20
161.694009
 11
323.213933
 21
204.894009
  0
LINE
  5
106
100
AcDbEntity
  8
M0
 62
    74
100
AcDbLine
 10
308.813933
 20
161.694009
 11
308.813933
 21
204.894009
  0
LINE
  5
107
100
AcDbEntity
  8
M0
 62
    74
100
AcDbLine
 10
294.413933
 20
161.694009
 11
294.413933
 21
240.894009
  0
LINE
  5
108
100
AcDbEntity
  8
M0
 62
    74
100
AcDbLine
 10
119.032247
 20
124.09272
 11
54.232247
 21
124.09272
  0
TEXT
  5
109
100
AcDbEntity
  8
M0
 62
    74
100
AcDbText
 10
45.664065
 20
122.040694
 40
4.32
  1
６０
 41
0.611111
  7
STANDARD
100
AcDbText
  0
LINE
  5
10A
100
AcDbEntity
  8
M0
 62
    74
100
AcDbLine
 10
83.032247
 20
109.69272
 11
83.032247
 21
124.09272
  0
LINE
  5
10B
100
AcDbEntity
  8
M0
 62
    74
100
AcDbLine
 10
323.213933
 20
231.625619
 11
323.213933
 21
240.969015
  0
LINE
  5
10C
100
AcDbEntity
  8
M0
 62
    74
100
AcDbLine
 10
308.813933
 20
214.938394
 11
308.813933
 21
219.294009
  0
LINE
  5
10D
100
AcDbEntity
  8
M0
 62
    74
100
AcDbLine
 10
164.232247
 20
37.69272
 11
229.032247
 21
37.69272
  0
LINE
  5
10E
100
AcDbEntity
  8
M0
 62
    74
100
AcDbLine
 10
164.232247
 20
124.09272
 11
164.232247
 21
37.69272
  0
LINE
  5
10F
100
AcDbEntity
  8
M0
 62
    74
100
AcDbLine
 10
193.032247
 20
37.69272
 11
193.032247
 21
80.89272
  0
LINE
  5
110
100
AcDbEntity
  8
M0
 62
    74
100
AcDbLine
 10
221.832247
 20
37.69272
 11
221.832247
 21
124.09272
  0
LINE
  5
111
100
AcDbEntity
  8
M0
 62
    74
100
AcDbLine
 10
164.232247
 20
52.09272
 11
229.032247
 21
52.09272
  0
LINE
  5
112
100
AcDbEntity
  8
M0
 62
    74
100
AcDbLine
 10
164.232247
 20
66.49272
 11
229.032247
 21
66.49272
  0
LINE
  5
113
100
AcDbEntity
  8
M0
 62
    74
100
AcDbLine
 10
193.032247
 20
80.89272
 11
193.032247
 21
95.29272
  0
LINE
  5
114
100
AcDbEntity
  8
M0
 62
    74
100
AcDbLine
 10
178.632247
 20
37.69272
 11
178.632247
 21
124.09272
  0
LINE
  5
115
100
AcDbEntity
  8
M0
 62
    74
100
AcDbLine
 10
207.432247
 20
37.69272
 11
207.432247
 21
124.09272
  0
LINE
  5
116
100
AcDbEntity
  8
M0
 62
    74
100
AcDbLine
 10
164.232247
 20
95.29272
 11
229.032247
 21
95.29272
  0
LINE
  5
117
100
AcDbEntity
  8
M0
 62
    74
100
AcDbLine
 10
164.232247
 20
80.89272
 11
229.032247
 21
80.89272
  0
LINE
  5
118
100
AcDbEntity
  8
M0
 62
    74
100
AcDbLine
 10
164.232247
 20
109.69272
 11
229.032247
 21
109.69272
  0
LINE
  5
119
100
AcDbEntity
  8
M0
 62
    74
100
AcDbLine
 10
193.032247
 20
95.29272
 11
193.032247
 21
100.347497
  0
LINE
  5
11A
100
AcDbEntity
  8
M0
 62
    74
100
AcDbLine
 10
229.032247
 20
124.09272
 11
164.232247
 21
124.09272
  0
LINE
  5
11B
100
AcDbEntity
  8
M0
 62
    74
100
AcDbLine
 10
193.032247
 20
109.69272
 11
193.032247
 21
124.09272
  0
ARC
  5
11C
100
AcDbEntity
  8
M0
 62
    74
100
AcDbCircle
 10
150.232007
 20
63.143369
 40
4.8384
100
AcDbArc
 50
52.58592
 51
127.41408
  0
ARC
  5
11D
100
AcDbEntity
  8
M0
 62
    74
100
AcDbCircle
 10
150.232007
 20
66.179942
 40
4.8384
100
AcDbArc
 50
232.58592
 51
307.41408
  0
TEXT
  5
11E
100
AcDbEntity
  8
M0
 62
    74
100
AcDbText
 10
148.216007
 20
77.604813
 40
3.2256
  1
全
 41
1.25
  7
STANDARD
100
AcDbText
  0
TEXT
  5
11F
100
AcDbEntity
  8
M0
 62
    74
100
AcDbText
 10
148.216007
 20
74.056653
 40
3.2256
  1
揚
 41
1.25
  7
STANDARD
100
AcDbText
  0
TEXT
  5
120
100
AcDbEntity
  8
M0
 62
    74
100
AcDbText
 10
148.216007
 20
70.508493
 40
3.2256
  1
程
 41
1.25
  7
STANDARD
100
AcDbText
  0
TEXT
  5
121
100
AcDbEntity
  8
M0
 62
    74
100
AcDbText
 10
148.216007
 20
66.960334
 40
3.2256
  1
　
 41
1.25
  7
STANDARD
100
AcDbText
  0
TEXT
  5
122
100
AcDbEntity
  8
M0
 62
    74
100
AcDbText
 10
148.216007
 20
63.412174
 40
3.2256
  1
ｍ
 41
1.25
  7
STANDARD
100
AcDbText
  0
TEXT
  5
123
100
AcDbEntity
  8
M0
 62
    74
100
AcDbText
 10
155.664065
 20
78.840689
 40
4.32
  1
３０
 41
0.611111
  7
STANDARD
100
AcDbText
  0
TEXT
  5
124
100
AcDbEntity
  8
M0
 62
    74
100
AcDbText
 10
155.664065
 20
64.440688
 40
4.32
  1
２０
 41
0.611111
  7
STANDARD
100
AcDbText
  0
TEXT
  5
125
100
AcDbEntity
  8
M0
 62
    74
100
AcDbText
 10
155.664065
 20
50.040694
 40
4.32
  1
１０
 41
0.611111
  7
STANDARD
100
AcDbText
  0
TEXT
  5
126
100
AcDbEntity
  8
M0
 62
    74
100
AcDbText
 10
158.54407
 20
35.640692
 40
4.32
  1
０
 41
0.611111
  7
STANDARD
100
AcDbText
  0
TEXT
  5
127
100
AcDbEntity
  8
M0
 62
    74
100
AcDbText
 10
161.42409
 20
30.454871
 40
4.32
  1
０
 41
0.611111
  7
STANDARD
100
AcDbText
  0
TEXT
  5
128
100
AcDbEntity
  8
M0
 62
    74
100
AcDbText
 10
190.224047
 20
30.454871
 40
4.32
  1
２０
 41
0.611111
  7
STANDARD
100
AcDbText
  0
TEXT
  5
129
100
AcDbEntity
  8
M0
 62
    74
100
AcDbText
 10
219.024073
 20
30.454871
 40
4.32
  1
４０
 41
0.611111
  7
STANDARD
100
AcDbText
  0
TEXT
  5
12A
100
AcDbEntity
  8
M0
 62
    74
100
AcDbText
 10
185.171049
 20
23.864127
 40
4.8384
  1
揚水量（Ｌ／分）
 41
0.611111
  7
STANDARD
100
AcDbText
  0
TEXT
  5
12B
100
AcDbEntity
  8
M0
 62
    74
100
AcDbText
 10
175.824084
 20
30.454871
 40
4.32
  1
１０
 41
0.611111
  7
STANDARD
100
AcDbText
  0
TEXT
  5
12C
100
AcDbEntity
  8
M0
 62
    74
100
AcDbText
 10
204.624071
 20
30.454871
 40
4.32
  1
３０
 41
0.611111
  7
STANDARD
100
AcDbText
  0
TEXT
  5
12D
100
AcDbEntity
  8
M0
 62
    74
100
AcDbText
 10
155.664065
 20
93.240698
 40
4.32
  1
４０
 41
0.611111
  7
STANDARD
100
AcDbText
  0
TEXT
  5
12E
100
AcDbEntity
  8
M0
 62
    74
100
AcDbText
 10
155.664065
 20
107.640692
 40
4.32
  1
５０
 41
0.611111
  7
STANDARD
100
AcDbText
  0
TEXT
  5
12F
100
AcDbEntity
  8
M0
 62
    74
100
AcDbText
 10
155.664065
 20
122.040694
 40
4.32
  1
６０
 41
0.611111
  7
STANDARD
100
AcDbText
  0
LINE
  5
130
100
AcDbEntity
  8
M0
 62
    74
100
AcDbLine
 10
68.632247
 20
104.403049
 11
68.632247
 21
124.09272
  0
LINE
  5
131
100
AcDbEntity
  8
M0
 62
    34
100
AcDbLine
 10
162.229071
 20
181.691809
 11
241.429071
 21
181.691809
  0
LINE
  5
132
100
AcDbEntity
  8
M0
 62
    34
100
AcDbLine
 10
162.229071
 20
260.891809
 11
162.229071
 21
181.691809
  0
LINE
  5
133
100
AcDbEntity
  8
M0
 62
    34
100
AcDbLine
 10
162.229071
 20
196.091809
 11
241.429071
 21
196.091809
  0
LINE
  5
134
100
AcDbEntity
  8
M0
 62
    34
100
AcDbLine
 10
162.229071
 20
210.491809
 11
241.429071
 21
210.491809
  0
LINE
  5
135
100
AcDbEntity
  8
M0
 62
    34
100
AcDbLine
 10
191.029071
 20
224.891809
 11
191.029071
 21
260.891809
  0
LINE
  5
136
100
AcDbEntity
  8
M0
 62
    34
100
AcDbLine
 10
162.229071
 20
253.691809
 11
241.429071
 21
253.691809
  0
LINE
  5
137
100
AcDbEntity
  8
M0
 62
    34
100
AcDbLine
 10
219.829071
 20
224.891809
 11
219.829071
 21
245.162442
  0
LINE
  5
138
100
AcDbEntity
  8
M0
 62
    34
100
AcDbLine
 10
201.109071
 20
228.346685
 11
201.109071
 21
206.957253
  0
LINE
  5
139
100
AcDbEntity
  8
M0
 62
    34
100
AcDbLine
 10
176.629071
 20
181.691809
 11
176.629071
 21
260.891809
  0
LINE
  5
13A
100
AcDbEntity
  8
M0
 62
    34
100
AcDbLine
 10
191.029071
 20
181.691809
 11
191.029071
 21
224.891809
  0
LINE
  5
13B
100
AcDbEntity
  8
M0
 62
    34
100
AcDbLine
 10
205.429071
 20
181.691809
 11
205.429071
 21
224.891809
  0
LINE
  5
13C
100
AcDbEntity
  8
M0
 62
    34
100
AcDbLine
 10
219.829071
 20
181.691809
 11
219.829071
 21
224.891809
  0
ARC
  5
13D
100
AcDbEntity
  8
M0
 62
    34
100
AcDbCircle
 10
148.428518
 20
208.816796
 40
4.8384
100
AcDbArc
 50
52.58592
 51
127.41408
  0
ARC
  5
13E
100
AcDbEntity
  8
M0
 62
    34
100
AcDbCircle
 10
148.428518
 20
211.85337
 40
4.8384
100
AcDbArc
 50
232.58592
 51
307.41408
  0
TEXT
  5
13F
100
AcDbEntity
  8
M0
 62
    34
100
AcDbText
 10
146.412518
 20
223.278233
 40
3.2256
  1
全
 41
1.25
  7
STANDARD
100
AcDbText
  0
TEXT
  5
140
100
AcDbEntity
  8
M0
 62
    34
100
AcDbText
 10
146.412518
 20
219.730073
 40
3.2256
  1
揚
 41
1.25
  7
STANDARD
100
AcDbText
  0
TEXT
  5
141
100
AcDbEntity
  8
M0
 62
    34
100
AcDbText
 10
146.412518
 20
216.181913
 40
3.2256
  1
程
 41
1.25
  7
STANDARD
100
AcDbText
  0
TEXT
  5
142
100
AcDbEntity
  8
M0
 62
    34
100
AcDbText
 10
146.412518
 20
212.633753
 40
3.2256
  1
　
 41
1.25
  7
STANDARD
100
AcDbText
  0
TEXT
  5
143
100
AcDbEntity
  8
M0
 62
    34
100
AcDbText
 10
146.412518
 20
209.085594
 40
3.2256
  1
ｍ
 41
1.25
  7
STANDARD
100
AcDbText
  0
TEXT
  5
144
100
AcDbEntity
  8
M0
 62
    34
100
AcDbText
 10
153.660889
 20
222.839781
 40
4.32
  1
３０
 41
0.611111
  7
STANDARD
100
AcDbText
  0
TEXT
  5
145
100
AcDbEntity
  8
M0
 62
    34
100
AcDbText
 10
153.660889
 20
208.43978
 40
4.32
  1
２０
 41
0.611111
  7
STANDARD
100
AcDbText
  0
TEXT
  5
146
100
AcDbEntity
  8
M0
 62
    34
100
AcDbText
 10
153.660889
 20
194.039782
 40
4.32
  1
１０
 41
0.611111
  7
STANDARD
100
AcDbText
  0
TEXT
  5
147
100
AcDbEntity
  8
M0
 62
    34
100
AcDbText
 10
156.540886
 20
179.639776
 40
4.32
  1
０
 41
0.611111
  7
STANDARD
100
AcDbText
  0
TEXT
  5
148
100
AcDbEntity
  8
M0
 62
    34
100
AcDbText
 10
159.420883
 20
174.453968
 40
4.32
  1
０
 41
0.611111
  7
STANDARD
100
AcDbText
  0
TEXT
  5
149
100
AcDbEntity
  8
M0
 62
    34
100
AcDbText
 10
188.220884
 20
174.453968
 40
4.32
  1
２０
 41
0.611111
  7
STANDARD
100
AcDbText
  0
TEXT
  5
14A
100
AcDbEntity
  8
M0
 62
    34
100
AcDbText
 10
217.020881
 20
174.453968
 40
4.32
  1
４０
 41
0.611111
  7
STANDARD
100
AcDbText
  0
TEXT
  5
14B
100
AcDbEntity
  8
M0
 62
    34
100
AcDbText
 10
173.820884
 20
174.453968
 40
4.32
  1
１０
 41
0.611111
  7
STANDARD
100
AcDbText
  0
TEXT
  5
14C
100
AcDbEntity
  8
M0
 62
    34
100
AcDbText
 10
202.620884
 20
174.453968
 40
4.32
  1
３０
 41
0.611111
  7
STANDARD
100
AcDbText
  0
TEXT
  5
14D
100
AcDbEntity
  8
M0
 62
    34
100
AcDbText
 10
231.420887
 20
174.453968
 40
4.32
  1
５０
 41
0.611111
  7
STANDARD
100
AcDbText
  0
TEXT
  5
14E
100
AcDbEntity
  8
M0
 62
    34
100
AcDbText
 10
153.660889
 20
237.239783
 40
4.32
  1
４０
 41
0.611111
  7
STANDARD
100
AcDbText
  0
TEXT
  5
14F
100
AcDbEntity
  8
M0
 62
    34
100
AcDbText
 10
153.660889
 20
251.639784
 40
4.32
  1
５０
 41
0.611111
  7
STANDARD
100
AcDbText
  0
LINE
  5
150
100
AcDbEntity
  8
M0
 62
    34
100
AcDbLine
 10
234.229071
 20
181.691809
 11
234.229071
 21
260.891809
  0
LINE
  5
151
100
AcDbEntity
  8
M0
 62
    34
100
AcDbLine
 10
205.429071
 20
253.691809
 11
205.429071
 21
260.891809
  0
LINE
  5
152
100
AcDbEntity
  8
M0
 62
    34
100
AcDbLine
 10
219.829071
 20
253.691809
 11
219.829071
 21
260.891809
  0
LINE
  5
153
100
AcDbEntity
  8
M0
 62
    34
100
AcDbLine
 10
162.229071
 20
239.291809
 11
241.429071
 21
239.291809
  0
LINE
  5
154
100
AcDbEntity
  8
M0
 62
    34
100
AcDbLine
 10
162.229071
 20
224.891809
 11
241.429071
 21
224.891809
  0
LINE
  5
155
100
AcDbEntity
  8
M0
 62
    34
100
AcDbLine
 10
205.429071
 20
221.796673
 11
205.429071
 21
245.162442
  0
ARC
  5
156
100
AcDbEntity
  8
M0
 62
    34
100
AcDbCircle
 10
199.309071
 20
228.346685
 40
1.8
100
AcDbArc
 50
0.0
 51
51.340192
  0
LINE
  5
157
100
AcDbEntity
  8
M0
 62
    34
100
AcDbLine
 10
194.402116
 20
234.577373
 11
200.433522
 21
229.752248
  0
LINE
  5
158
100
AcDbEntity
  8
M0
  6
DASHED
 62
    34
100
AcDbLine
 10
162.229071
 20
234.971809
 11
206.509071
 21
234.971809
  0
ARC
  5
159
100
AcDbEntity
  8
M0
 62
    34
100
AcDbCircle
 10
193.277665
 20
233.171809
 40
1.8
100
AcDbArc
 50
51.340192
 51
90.0
  0
LINE
  5
15A
100
AcDbEntity
  8
M0
 62
    34
100
AcDbLine
 10
191.029071
 20
221.230375
 11
191.029071
 21
224.891809
  0
LINE
  5
15B
100
AcDbEntity
  8
M0
 62
    34
100
AcDbLine
 10
191.749071
 20
225.431809
 11
179.509071
 21
234.611809
  0
ARC
  5
15C
100
AcDbEntity
  8
M0
 62
    34
100
AcDbCircle
 10
178.429071
 20
233.171809
 40
1.8
100
AcDbArc
 50
53.130102
 51
90.0
  0
LINE
  5
15D
100
AcDbEntity
  8
M0
 62
    34
100
AcDbLine
 10
192.469071
 20
223.991809
 11
192.469071
 21
207.02696
  0
ARC
  5
15E
100
AcDbEntity
  8
M0
 62
    34
100
AcDbCircle
 10
190.669071
 20
223.991809
 40
1.8
100
AcDbArc
 50
0.0
 51
53.130102
  0
ARC
  5
15F
100
AcDbEntity
  8
M0
 62
    34
100
AcDbCircle
 10
206.509071
 20
233.171809
 40
1.8
100
AcDbArc
 50
0.0
 51
90.0
  0
LINE
  5
160
100
AcDbEntity
  8
M0
 62
    34
100
AcDbLine
 10
208.309071
 20
233.171809
 11
208.309071
 21
206.859943
  0
LINE
  5
161
100
AcDbEntity
  8
M0
100
AcDbLine
 10
54.229071
 20
181.691809
 11
133.429071
 21
181.691809
  0
LINE
  5
162
100
AcDbEntity
  8
M0
100
AcDbLine
 10
54.229071
 20
260.891809
 11
54.229071
 21
181.691809
  0
LINE
  5
163
100
AcDbEntity
  8
M0
100
AcDbLine
 10
83.029071
 20
181.691809
 11
83.029071
 21
224.891809
  0
LINE
  5
164
100
AcDbEntity
  8
M0
100
AcDbLine
 10
111.829071
 20
181.691809
 11
111.829071
 21
224.891809
  0
LINE
  5
165
100
AcDbEntity
  8
M0
100
AcDbLine
 10
54.229071
 20
196.091809
 11
133.429071
 21
196.091809
  0
LINE
  5
166
100
AcDbEntity
  8
M0
100
AcDbLine
 10
54.229071
 20
210.491809
 11
133.429071
 21
210.491809
  0
LINE
  5
167
100
AcDbEntity
  8
M0
100
AcDbLine
 10
83.029071
 20
224.891809
 11
83.029071
 21
230.156453
  0
LINE
  5
168
100
AcDbEntity
  8
M0
100
AcDbLine
 10
68.629071
 20
181.691809
 11
68.629071
 21
230.156453
  0
LINE
  5
169
100
AcDbEntity
  8
M0
100
AcDbLine
 10
97.429071
 20
181.691809
 11
97.429071
 21
230.651809
  0
LINE
  5
16A
100
AcDbEntity
  8
M0
100
AcDbLine
 10
126.229071
 20
181.691809
 11
126.229071
 21
260.891809
  0
LINE
  5
16B
100
AcDbEntity
  8
M0
100
AcDbLine
 10
54.229071
 20
239.291809
 11
133.429071
 21
239.291809
  0
LINE
  5
16C
100
AcDbEntity
  8
M0
100
AcDbLine
 10
54.229071
 20
253.691809
 11
133.429071
 21
253.691809
  0
LINE
  5
16D
100
AcDbEntity
  8
M0
100
AcDbLine
 10
111.829071
 20
224.891809
 11
111.829071
 21
260.891809
  0
LINE
  5
16E
100
AcDbEntity
  8
M0
100
AcDbLine
 10
54.229071
 20
224.891809
 11
133.429071
 21
224.891809
  0
LINE
  5
16F
100
AcDbEntity
  8
M0
100
AcDbLine
 10
68.629071
 20
230.651809
 11
68.629071
 21
260.891809
  0
LINE
  5
170
100
AcDbEntity
  8
M0
100
AcDbLine
 10
83.029071
 20
230.651809
 11
83.029071
 21
243.115823
  0
LINE
  5
171
100
AcDbEntity
  8
M0
100
AcDbLine
 10
97.429071
 20
230.651809
 11
97.429071
 21
243.115823
  0
ARC
  5
172
100
AcDbEntity
  8
M0
100
AcDbCircle
 10
40.428518
 20
208.816796
 40
4.8384
100
AcDbArc
 50
52.58592
 51
127.41408
  0
ARC
  5
173
100
AcDbEntity
  8
M0
100
AcDbCircle
 10
40.428518
 20
211.85337
 40
4.8384
100
AcDbArc
 50
232.58592
 51
307.41408
  0
TEXT
  5
174
100
AcDbEntity
  8
M0
100
AcDbText
 10
38.412516
 20
223.278233
 40
3.2256
  1
全
 41
1.25
  7
STANDARD
100
AcDbText
  0
TEXT
  5
175
100
AcDbEntity
  8
M0
100
AcDbText
 10
38.412516
 20
219.730073
 40
3.2256
  1
揚
 41
1.25
  7
STANDARD
100
AcDbText
  0
TEXT
  5
176
100
AcDbEntity
  8
M0
100
AcDbText
 10
38.412516
 20
216.181913
 40
3.2256
  1
程
 41
1.25
  7
STANDARD
100
AcDbText
  0
TEXT
  5
177
100
AcDbEntity
  8
M0
100
AcDbText
 10
38.412516
 20
212.633753
 40
3.2256
  1
　
 41
1.25
  7
STANDARD
100
AcDbText
  0
TEXT
  5
178
100
AcDbEntity
  8
M0
100
AcDbText
 10
38.412516
 20
209.085594
 40
3.2256
  1
ｍ
 41
1.25
  7
STANDARD
100
AcDbText
  0
TEXT
  5
179
100
AcDbEntity
  8
M0
100
AcDbText
 10
45.660889
 20
222.839781
 40
4.32
  1
３０
 41
0.611111
  7
STANDARD
100
AcDbText
  0
TEXT
  5
17A
100
AcDbEntity
  8
M0
100
AcDbText
 10
45.660889
 20
208.43978
 40
4.32
  1
２０
 41
0.611111
  7
STANDARD
100
AcDbText
  0
TEXT
  5
17B
100
AcDbEntity
  8
M0
100
AcDbText
 10
45.660889
 20
194.039782
 40
4.32
  1
１０
 41
0.611111
  7
STANDARD
100
AcDbText
  0
TEXT
  5
17C
100
AcDbEntity
  8
M0
100
AcDbText
 10
48.540887
 20
179.639776
 40
4.32
  1
０
 41
0.611111
  7
STANDARD
100
AcDbText
  0
TEXT
  5
17D
100
AcDbEntity
  8
M0
100
AcDbText
 10
51.420886
 20
174.453968
 40
4.32
  1
０
 41
0.611111
  7
STANDARD
100
AcDbText
  0
TEXT
  5
17E
100
AcDbEntity
  8
M0
100
AcDbText
 10
80.220888
 20
174.453968
 40
4.32
  1
２０
 41
0.611111
  7
STANDARD
100
AcDbText
  0
TEXT
  5
17F
100
AcDbEntity
  8
M0
100
AcDbText
 10
109.02089
 20
174.453968
 40
4.32
  1
４０
 41
0.611111
  7
STANDARD
100
AcDbText
  0
TEXT
  5
180
100
AcDbEntity
  8
M0
100
AcDbText
 10
80.895764
 20
167.787588
 40
4.8384
  1
揚水量（Ｌ／分）
 41
0.611111
  7
STANDARD
100
AcDbText
  0
TEXT
  5
181
100
AcDbEntity
  8
M0
100
AcDbText
 10
65.820887
 20
174.453968
 40
4.32
  1
１０
 41
0.611111
  7
STANDARD
100
AcDbText
  0
TEXT
  5
182
100
AcDbEntity
  8
M0
100
AcDbText
 10
94.62089
 20
174.453968
 40
4.32
  1
３０
 41
0.611111
  7
STANDARD
100
AcDbText
  0
TEXT
  5
183
100
AcDbEntity
  8
M0
100
AcDbText
 10
123.420884
 20
174.453968
 40
4.32
  1
５０
 41
0.611111
  7
STANDARD
100
AcDbText
  0
TEXT
  5
184
100
AcDbEntity
  8
M0
100
AcDbText
 10
45.660889
 20
237.239783
 40
4.32
  1
４０
 41
0.611111
  7
STANDARD
100
AcDbText
  0
TEXT
  5
185
100
AcDbEntity
  8
M0
100
AcDbText
 10
45.660889
 20
251.639784
 40
4.32
  1
５０
 41
0.611111
  7
STANDARD
100
AcDbText
  0
LINE
  5
186
100
AcDbEntity
  8
M0
100
AcDbLine
 10
97.429071
 20
253.691809
 11
97.429071
 21
260.891809
  0
LINE
  5
187
100
AcDbEntity
  8
M0
100
AcDbLine
 10
83.029071
 20
253.691809
 11
83.029071
 21
260.891809
  0
LINE
  5
188
100
AcDbEntity
  8
M0
 62
     4
100
AcDbLine
 10
26.421831
 20
274.82336
 11
47.467798
 21
274.82336
  0
LINE
  5
189
100
AcDbEntity
  8
M0
 62
     4
100
AcDbLine
 10
47.467798
 20
283.402097
 11
26.421831
 21
283.402097
  0
LINE
  5
18A
100
AcDbEntity
  8
M0
 62
     4
100
AcDbLine
 10
26.421831
 20
283.402097
 11
26.421831
 21
274.82336
  0
LINE
  5
18B
100
AcDbEntity
  8
M0
 62
     4
100
AcDbLine
 10
47.467798
 20
283.402097
 11
47.467798
 21
274.82336
  0
TEXT
  5
18C
100
AcDbEntity
  8
M0
 62
     4
100
AcDbText
 10
28.619405
 20
276.636503
 40
4.86
  1
揚水性能
 41
0.740741
  7
STANDARD
100
AcDbText
  0
TEXT
  5
18D
100
AcDbEntity
  8
M0
 62
     4
100
AcDbText
 10
79.555301
 20
245.665002
 40
4.32
  1
吸上高さ１２ｍ時
 41
0.590278
  7
STANDARD
100
AcDbText
  0
TEXT
  5
18E
100
AcDbEntity
  8
M0
 62
     4
100
AcDbText
 10
72.558475
 20
102.153625
 40
4.32
  1
吸上高さ３０ｍ時
 41
0.590278
  7
STANDARD
100
AcDbText
  0
TEXT
  5
18F
100
AcDbEntity
  8
M0
 62
     4
100
AcDbText
 10
269.178366
 20
141.807006
 40
4.05
  1
※破線部域では６０ｋＰａの圧力変動があります。
 41
0.777778
  7
STANDARD
100
AcDbText
  0
TEXT
  5
190
100
AcDbEntity
  8
M0
 62
     4
100
AcDbText
 10
159.75407
 20
161.807006
 40
4.05
  1
※破線部域では６０ｋＰａの圧力変動があります。
 41
0.777778
  7
STANDARD
100
AcDbText
  0
TEXT
  5
191
100
AcDbEntity
  8
M0
 62
     4
100
AcDbText
 10
51.754072
 20
161.807006
 40
4.05
  1
※破線部域では６０ｋＰａの圧力変動があります。
 41
0.777778
  7
STANDARD
100
AcDbText
  0
TEXT
  5
192
100
AcDbEntity
  8
M0
 62
     4
100
AcDbText
 10
42.709074
 20
17.604629
 40
4.05
  1
※破線部域では６０ｋＰａの圧力変動があります。
 41
0.777778
  7
STANDARD
100
AcDbText
  0
TEXT
  5
193
100
AcDbEntity
  8
M0
 62
     4
100
AcDbText
 10
196.555303
 20
247.052713
 40
4.32
  1
吸上高さ１８ｍ時
 41
0.590278
  7
STANDARD
100
AcDbText
  0
TEXT
  5
194
100
AcDbEntity
  8
M0
 62
     4
100
AcDbText
 10
310.778926
 20
225.528812
 40
4.32
  1
吸上高さ２４ｍ時
 41
0.590278
  7
STANDARD
100
AcDbText
  0
TEXT
  5
195
100
AcDbEntity
  8
M0
 62
     4
100
AcDbText
 10
182.558475
 20
102.153625
 40
4.32
  1
吸上高さ３５ｍ時
 41
0.590278
  7
STANDARD
100
AcDbText
  0
TEXT
  5
196
100
AcDbEntity
  8
M0
 62
     4
100
AcDbText
 10
152.709066
 20
17.604629
 40
4.05
  1
※破線部域では６０ｋＰａの圧力変動があります。
 41
0.777778
  7
STANDARD
100
AcDbText
  0
TEXT
  5
197
100
AcDbEntity
  8
M0
 62
     4
100
AcDbText
 10
51.971014
 20
277.833801
 40
4.05
  1
〟　ＤＭ－Ｐ６００Ｖ　＋　深井戸専用ジェット（Ｊ７５－２４Ｖ）使用時
 41
0.555556
  7
STANDARD
100
AcDbText
  0
TEXT
  5
198
100
AcDbEntity
  8
M0
 62
     4
100
AcDbText
 10
51.971014
 20
272.833799
 40
4.05
  1
№　ＤＭ－Ｋ７５０Ｖ　＋　深井戸専用ジェット（Ｊ７５－２４Ｖ）使用時
 41
0.555556
  7
STANDARD
100
AcDbText
  0
TEXT
  5
199
100
AcDbEntity
  8
M0
 62
     4
100
AcDbText
 10
162.854071
 20
277.651454
 40
4.05
  1
〟　ＤＭ－Ｐ６００Ｖ　＋　深井戸専用ジェット（Ｊ７５－２４Ｖ）使用時
 41
0.555556
  7
STANDARD
100
AcDbText
  0
TEXT
  5
19A
100
AcDbEntity
  8
M0
 62
     4
100
AcDbText
 10
162.854071
 20
272.651454
 40
4.05
  1
№　ＤＭ－Ｋ７５０Ｖ　＋　深井戸専用ジェット（Ｊ７５－２４Ｖ）使用時
 41
0.555556
  7
STANDARD
100
AcDbText
  0
TEXT
  5
19B
100
AcDbEntity
  8
M0
 62
     4
100
AcDbText
 10
162.854071
 20
265.643234
 40
4.05
  1
　　ＤＭ－Ｐ６００Ｖ　＋　深井戸用シングルジェット（Ｊ４０－２４ＳＶ）使用時
 41
0.555556
  7
STANDARD
100
AcDbText
  0
TEXT
  5
19C
100
AcDbEntity
  8
M0
 62
     4
100
AcDbText
 10
162.854071
 20
260.643234
 40
4.05
  1
　　ＤＭ－Ｋ７５０Ｖ　＋　深井戸用シングルジェット（Ｊ４０－２４ＳＶ）使用時
 41
0.555556
  7
STANDARD
100
AcDbText
  0
TEXT
  5
19D
100
AcDbEntity
  8
M0
 62
     4
100
AcDbText
 10
162.854071
 20
263.643234
 40
4.05
  1
㏍
 41
0.555556
  7
STANDARD
100
AcDbText
  0
TEXT
  5
19E
100
AcDbEntity
  8
M0
 62
     4
100
AcDbText
 10
280.638929
 20
257.653655
 40
4.05
  1
〟　ＤＭ－Ｐ６００Ｖ　＋　深井戸専用ジェット（Ｊ７５－２４Ｖ）使用時
 41
0.555556
  7
STANDARD
100
AcDbText
  0
TEXT
  5
19F
100
AcDbEntity
  8
M0
 62
     4
100
AcDbText
 10
280.638929
 20
252.653654
 40
4.05
  1
№　ＤＭ－Ｋ７５０Ｖ　＋　深井戸専用ジェット（Ｊ７５－２４Ｖ）使用時
 41
0.555556
  7
STANDARD
100
AcDbText
  0
TEXT
  5
1A0
100
AcDbEntity
  8
M0
 62
     4
100
AcDbText
 10
280.638929
 20
245.645433
 40
4.05
  1
　　ＤＭ－Ｐ６００Ｖ　＋　深井戸用シングルジェット（Ｊ４０－２４ＳＶ）使用時
 41
0.555556
  7
STANDARD
100
AcDbText
  0
TEXT
  5
1A1
100
AcDbEntity
  8
M0
 62
     4
100
AcDbText
 10
280.638929
 20
240.645433
 40
4.05
  1
　　ＤＭ－Ｋ７５０Ｖ　＋　深井戸用シングルジェット（Ｊ４０－２４ＳＶ）使用時
 41
0.555556
  7
STANDARD
100
AcDbText
  0
TEXT
  5
1A2
100
AcDbEntity
  8
M0
 62
     4
100
AcDbText
 10
280.638929
 20
243.645433
 40
4.05
  1
㏍
 41
0.555556
  7
STANDARD
100
AcDbText
  0
TEXT
  5
1A3
100
AcDbEntity
  8
M0
 62
     4
100
AcDbText
 10
51.974188
 20
138.23471
 40
4.05
  1
〟　ＤＭ－Ｐ６００Ｖ　＋　深井戸専用ジェット（Ｊ７５－３５Ｖ）使用時
 41
0.555556
  7
STANDARD
100
AcDbText
  0
TEXT
  5
1A4
100
AcDbEntity
  8
M0
 62
     4
100
AcDbText
 10
51.974188
 20
133.23471
 40
4.05
  1
№　ＤＭ－Ｋ７５０Ｖ　＋　深井戸専用ジェット（Ｊ７５－３５Ｖ）使用時
 41
0.555556
  7
STANDARD
100
AcDbText
  0
TEXT
  5
1A5
100
AcDbEntity
  8
M0
 62
     4
100
AcDbText
 10
161.974188
 20
138.23471
 40
4.05
  1
〟　ＤＭ－Ｐ６００Ｖ　＋　深井戸専用ジェット（Ｊ７５－３５Ｖ）使用時
 41
0.555556
  7
STANDARD
100
AcDbText
  0
TEXT
  5
1A6
100
AcDbEntity
  8
M0
 62
     4
100
AcDbText
 10
161.974188
 20
133.23471
 40
4.05
  1
№　ＤＭ－Ｋ７５０Ｖ　＋　深井戸専用ジェット（Ｊ７５－３５Ｖ）使用時
 41
0.555556
  7
STANDARD
100
AcDbText
  0
TEXT
  5
1A7
100
AcDbEntity
  8
M0
 62
     4
100
AcDbText
 10
188.895769
 20
167.787589
 40
4.8384
  1
揚水量（Ｌ／分）
 41
0.611111
  7
STANDARD
100
AcDbText
  0
LINE
  5
1A8
100
AcDbEntity
  8
M0
  6
DASHED
100
AcDbLine
 10
54.229071
 20
226.331809
 11
107.149071
 21
226.331809
  0
ARC
  5
1A9
100
AcDbEntity
  8
M0
100
AcDbCircle
 10
103.573746
 20
224.531809
 40
1.8
100
AcDbArc
 50
31.449638
 51
90.0
  0
LINE
  5
1AA
100
AcDbEntity
  8
M0
100
AcDbLine
 10
105.109325
 20
225.470957
 11
107.509071
 21
221.547189
  0
LINE
  5
1AB
100
AcDbEntity
  8
M0
100
AcDbLine
 10
107.509071
 20
201.17679
 11
107.509071
 21
221.547189
  0
LINE
  5
1AC
100
AcDbEntity
  8
M0
  6
DASHED
100
AcDbLine
 10
280.013933
 20
223.614009
 11
304.133933
 21
223.614009
  0
ARC
  5
1AD
100
AcDbEntity
  8
M0
100
AcDbCircle
 10
295.010858
 20
221.814009
 40
1.8
100
AcDbArc
 50
39.805571
 51
90.0
  0
LINE
  5
1AE
100
AcDbEntity
  8
M0
100
AcDbLine
 10
296.393656
 20
222.966341
 11
302.636731
 21
215.474651
  0
ARC
  5
1AF
100
AcDbEntity
  8
M0
100
AcDbCircle
 10
301.253933
 20
214.322319
 40
1.8
100
AcDbArc
 50
0.0
 51
39.805571
  0
LINE
  5
1B0
100
AcDbEntity
  8
M0
100
AcDbLine
 10
295.853933
 20
211.635019
 11
295.853933
 21
197.490252
  0
LINE
  5
1B1
100
AcDbEntity
  8
M0
100
AcDbLine
 10
303.053933
 20
197.546206
 11
303.053933
 21
214.322319
  0
LINE
  5
1B2
100
AcDbEntity
  8
M0
  6
DASHED
100
AcDbLine
 10
54.232247
 20
108.25272
 11
68.272247
 21
108.25272
  0
LINE
  5
1B3
100
AcDbEntity
  8
M0
100
AcDbLine
 10
64.852247
 20
107.53272
 11
68.272247
 21
102.97272
  0
ARC
  5
1B4
100
AcDbEntity
  8
M0
100
AcDbCircle
 10
63.412247
 20
106.45272
 40
1.8
100
AcDbArc
 50
36.869898
 51
90.0
  0
ARC
  5
1B5
100
AcDbEntity
  8
M0
100
AcDbCircle
 10
66.832247
 20
101.89272
 40
1.8
100
AcDbArc
 50
0.0
 51
36.869898
  0
LINE
  5
1B6
100
AcDbEntity
  8
M0
100
AcDbLine
 10
68.632247
 20
101.89272
 11
68.632247
 21
80.89272
  0
LINE
  5
1B7
100
AcDbEntity
  8
M0
100
AcDbLine
 10
174.312247
 20
88.09272
 11
174.312247
 21
110.23184
  0
LINE
  5
1B8
100
AcDbEntity
  8
M0
100
AcDbLine
 10
173.806569
 20
113.898626
 11
174.312247
 21
110.23184
  0
ARC
  5
1B9
100
AcDbEntity
  8
M0
100
AcDbCircle
 10
172.023445
 20
113.65272
 40
1.8
100
AcDbArc
 50
7.852007
 51
90.0
  0
LINE
  5
1BA
100
AcDbEntity
  8
M0
  6
DASHED
100
AcDbLine
 10
164.232247
 20
115.45272
 11
174.514297
 21
115.45272
  0
ARC
  5
1BB
100
AcDbEntity
  8
M0
100
AcDbCircle
 10
107.149071
 20
224.531809
 40
1.8
100
AcDbArc
 50
0.0
 51
90.0
  0
LINE
  5
1BC
100
AcDbEntity
  8
M0
100
AcDbLine
 10
108.949071
 20
201.357567
 11
108.949071
 21
224.531809
  0
LINE
  5
1BD
100
AcDbEntity
  8
M0
100
AcDbLine
 10
305.933933
 20
197.5257
 11
305.933933
 21
221.814009
  0
ARC
  5
1BE
100
AcDbEntity
  8
M0
100
AcDbCircle
 10
304.133933
 20
221.814009
 40
1.8
100
AcDbArc
 50
0.0
 51
90.0
  0
ARC
  5
1BF
100
AcDbEntity
  8
M0
100
AcDbCircle
 10
68.272247
 20
106.45272
 40
1.8
100
AcDbArc
 50
0.0
 51
90.0
  0
LINE
  5
1C0
100
AcDbEntity
  8
M0
100
AcDbLine
 10
70.072247
 20
80.89272
 11
70.072247
 21
106.45272
  0
LINE
  5
1C1
100
AcDbEntity
  8
M0
100
AcDbLine
 10
175.752247
 20
113.74272
 11
175.752247
 21
88.09272
  0
ARC
  5
1C2
100
AcDbEntity
  8
M0
100
AcDbCircle
 10
173.952247
 20
113.74272
 40
1.8
100
AcDbArc
 50
0.0
 51
71.805128
  0
LINE
  5
1C3
100
AcDbEntity
  8
M0
100
AcDbLine
 10
290.081969
 20
222.675942
 11
295.634145
 21
212.496953
  0
ARC
  5
1C4
100
AcDbEntity
  8
M0
100
AcDbCircle
 10
294.053933
 20
211.635019
 40
1.8
100
AcDbArc
 50
0.0
 51
28.61046
  0
ARC
  5
1C5
100
AcDbEntity
  8
M0
100
AcDbCircle
 10
288.501757
 20
221.814009
 40
1.8
100
AcDbArc
 50
28.61046
 51
90.0
  0
ENDSEC
  0
SECTION
  2
OBJECTS
  0
DICTIONARY
  5
C
100
AcDbDictionary
  3
ACAD_GROUP
350
D
  3
ACAD_MLINESTYLE
350
E
  0
DICTIONARY
  5
D
102
{ACAD_REACTORS
330
C
102
}
100
AcDbDictionary
  0
DICTIONARY
  5
E
102
{ACAD_REACTORS
330
C
102
}
100
AcDbDictionary
  3
STANDARD
350
13
  0
MLINESTYLE
  5
13
102
{ACAD_REACTORS
330
E
102
}
100
AcDbMlineStyle
  2
STANDARD
 70
     0
  3

 62
     0
 51
90.0
 52
90.0
 71
     2
 49
0.5
 62
   256
  6
BYLAYER
 49
-0.5
 62
   256
  6
BYLAYER
  0
ENDSEC
  0
EOF
