  0
SECTION
  2
HEADER
  9
$ACADVER
  1
AC1012
  9
$INSBASE
 10
0.0
 20
0.0
  9
$VIEWCTR
 10
7.531722
 20
4.5
  9
$VIEWSIZE
 40
9.0
  9
$SNAPMODE
 70
     0
  9
$SNAPUNIT
 10
1.0
 20
1.0
  9
$SNAPBASE
 10
0.0
 20
0.0
  9
$SNAPANG
 50
0.0
  9
$SNAPSTYLE
 70
     0
  9
$SNAPISOPAIR
 70
     0
  9
$GRIDMODE
 70
     0
  9
$GRIDUNIT
 10
0.0
 20
0.0
  9
$ORTHOMODE
 70
     0
  9
$REGENMODE
 70
     1
  9
$FILLMODE
 70
     1
  9
$QTEXTMODE
 70
     0
  9
$DRAGMODE
 70
     2
  9
$LTSCALE
 40
1.0
  9
$OSMODE
 70
     0
  9
$ATTMODE
 70
     1
  9
$TEXTSIZE
 40
0.2
  9
$TRACEWID
 40
0.05
  9
$TEXTSTYLE
  7
STANDARD
  9
$CELTYPE
  6
BYLAYER
  9
$CECOLOR
 62
   256
  9
$DIMSCALE
 40
1.0
  9
$DIMASZ
 40
0.18
  9
$DIMEXO
 40
0.0625
  9
$DIMDLI
 40
0.38
  9
$DIMRND
 40
0.0
  9
$DIMDLE
 40
0.0
  9
$DIMEXE
 40
0.18
  9
$DIMTP
 40
0.0
  9
$DIMTM
 40
0.0
  9
$DIMTXT
 40
0.18
  9
$DIMCEN
 40
0.09
  9
$DIMTSZ
 40
0.0
  9
$DIMTOL
 70
     0
  9
$DIMLIM
 70
     0
  9
$DIMTIH
 70
     1
  9
$DIMTOH
 70
     1
  9
$DIMSE1
 70
     0
  9
$DIMSE2
 70
     0
  9
$DIMTAD
 70
     0
  9
$DIMZIN
 70
     0
  9
$DIMBLK
  1

  9
$LUNITS
 70
     2
  9
$LUPREC
 70
     4
  9
$AXISMODE
 70
     0
  9
$AXISUNIT
 10
0.0
 20
0.0
  9
$SKETCHINC
 40
0.1
  9
$FILLETRAD
 40
0.0
  9
$AUNITS
 70
     0
  9
$AUPREC
 70
     0
  9
$MENU
  1
ACAD
  9
$ELEVATION
 40
0.0
  9
$THICKNESS
 40
0.0
  9
$VIEWDIR
 10
0.0
 20
0.0
 30
1.0
  9
$LIMCHECK
 70
     0
  9
$BLIPMODE
 70
     1
  9
$CHAMFERA
 40
0.0
  9
$CHAMFERB
 40
0.0
  9
$FASTZOOM
 70
     1
  9
$SKPOLY
 70
     0
  9
$TDCREATE
 40
0000000.0000000000
  9
$TDUPDATE
 40
0000000.0000000000
  9
$TDINDWG
 40
0.0000000000
  9
$TDUSRTIMER
 40
0.0000000000
  9
$USRTIMER
 70
     1
  9
$ANGBASE
 50
0.0
  9
$ANGDIR
 70
     0
  9
$PDMODE
 70
     0
  9
$PDSIZE
 40
0.0
  9
$PLINEWID
 40
0.0
  9
$COORDS
 70
     0
  9
$USERI1
 70
     0
  9
$USERI2
 70
     0
  9
$USERI3
 70
     0
  9
$USERI4
 70
     0
  9
$USERI5
 70
     0
  9
$USERR1
 40
0.0
  9
$USERR2
 40
0.0
  9
$USERR3
 40
0.0
  9
$USERR4
 40
0.0
  9
$USERR5
 40
0.0
  9
$CLAYER
  8
M0
  9
$EXTMIN
 10
0.0
 20
0.0
  9
$EXTMAX
 10
420.0
 20
297.0
  9
$LIMMIN
 10
0.0
 20
0.0
  9
$LIMMAX
 10
420.0
 20
297.0
  9
$HANDSEED
  5
1D7
  0
ENDSEC
  0
SECTION
  2
CLASSES
  0
ENDSEC
  0
SECTION
  2
TABLES
  0
TABLE
  2
VPORT
  5
8
100
AcDbSymbolTable
 70
     2
  0
VPORT
  5
14
100
AcDbSymbolTableRecord
100
AcDbViewportTableRecord
  2
*ACTIVE
 70
     0
 10
0.0
 20
0.0
 11
1.0
 21
1.0
 12
484.0
 22
297.0
 13
0.0
 23
0.0
 14
1.0
 24
1.0
 15
0.0
 25
0.0
 16
0.0
 26
0.0
 36
1.0
 17
0.0
 27
0.0
 37
0.0
 40
594.0
 41
2.0
 42
50.0
 43
0.0
 44
0.0
 50
0.0
 51
0.0
 71
     0
 72
   100
 73
     1
 74
     1
 75
     0
 76
     0
 77
     0
 78
     0
  0
ENDTAB
  0
TABLE
  2
LTYPE
  5
5
100
AcDbSymbolTable
 70
     5
  0
LTYPE
  5
15
100
AcDbSymbolTableRecord
100
AcDbLinetypeTableRecord
  2
BYBLOCK
 70
     0
  3

 72
    65
 73
     0
 40
0.0
  0
LTYPE
  5
16
100
AcDbSymbolTableRecord
100
AcDbLinetypeTableRecord
  2
BYLAYER
 70
     0
  3

 72
    65
 73
     0
 40
0.0
  0
LTYPE
  5
17
100
AcDbSymbolTableRecord
100
AcDbLinetypeTableRecord
  2
CONTINUOUS
 70
    64
  3
Solid line
 72
    65
 73
     0
 40
0.0
  0
LTYPE
  5
18
100
AcDbSymbolTableRecord
100
AcDbLinetypeTableRecord
  2
DASHED
 70
    64
  3
__ __ __ __ __ __ __ __ __ __ __ __ __ __ __ __
 72
    65
 73
     2
 40
0.75
 49
0.5
 74
     0
 49
-0.25
 74
     0
  0
LTYPE
  5
19
100
AcDbSymbolTableRecord
100
AcDbLinetypeTableRecord
  2
DASHDOT
 70
    64
  3
__ . __ . __ . __ . __ . __ . __ . __ . __ . __
 72
    65
 73
     4
 40
1.0
 49
0.5
 74
     0
 49
-0.25
 74
     0
 49
0.0
 74
     0
 49
-0.25
 74
     0
  0
LTYPE
  5
1A
100
AcDbSymbolTableRecord
100
AcDbLinetypeTableRecord
  2
DIVIDE
 70
    64
  3
____ . . ____ . . ____ . . ____ . . ____ . . __
 72
    65
 73
     6
 40
1.25
 49
0.5
 74
     0
 49
-0.25
 74
     0
 49
0.0
 74
     0
 49
-0.25
 74
     0
 49
0.0
 74
     0
 49
-0.25
 74
     0
  0
LTYPE
  5
1B
100
AcDbSymbolTableRecord
100
AcDbLinetypeTableRecord
  2
DOT
 70
    64
  3
. . . . . . . . . . . . . . . . . . . . . . . .
 72
    65
 73
     2
 40
0.25
 49
0.0
 74
     0
 49
-0.25
 74
     0
  0
ENDTAB
  0
TABLE
  2
LAYER
  5
2
100
AcDbSymbolTable
 70
   102
  0
LAYER
  5
F
100
AcDbSymbolTableRecord
100
AcDbLayerTableRecord
  2
0
 70
     0
 62
     7
  6
CONTINUOUS
  0
LAYER
  5
1C
100
AcDbSymbolTableRecord
100
AcDbLayerTableRecord
  2
DEFPOINTS
 70
     0
 62
     7
  6
CONTINUOUS
  0
LAYER
  5
1D
100
AcDbSymbolTableRecord
100
AcDbLayerTableRecord
  2
M0
 70
     0
 62
     3
  6
CONTINUOUS
  0
LAYER
  5
1E
100
AcDbSymbolTableRecord
100
AcDbLayerTableRecord
  2
DD0
 70
     0
 62
     4
  6
CONTINUOUS
  0
ENDTAB
  0
TABLE
  2
STYLE
  5
3
100
AcDbSymbolTable
 70
     2
  0
STYLE
  5
10
100
AcDbSymbolTableRecord
100
AcDbTextStyleTableRecord
  2
STANDARD
 70
     0
 40
0.0
 41
1.0
 50
0.0
 71
     0
 42
0.2
  3
txt
  4
BIGFONT
  0
ENDTAB
  0
TABLE
  2
VIEW
  5
6
100
AcDbSymbolTable
 70
     0
  0
ENDTAB
  0
TABLE
  2
UCS
  5
7
100
AcDbSymbolTable
 70
     0
  0
ENDTAB
  0
TABLE
  2
APPID
  5
9
100
AcDbSymbolTable
 70
     1
  0
APPID
  5
11
100
AcDbSymbolTableRecord
100
AcDbRegAppTableRecord
  2
ACAD
 70
     0
  0
ENDTAB
  0
TABLE
  2
DIMSTYLE
  5
A
100
AcDbSymbolTable
 70
     2
  0
DIMSTYLE
105
25
100
AcDbSymbolTableRecord
100
AcDbDimStyleTableRecord
  2
STANDARD
 70
     0
  3

  4

  5

  6
_OPEN
  7
_OPEN
 40
1.0
 41
3.0
 42
0.0
 43
8.0
 44
1.5
 45
0.0
 46
0.0
 47
0.0
 48
0.0
140
3.5
141
0.09
142
0.0
143
0.03937
144
1.0
145
0.0
146
1.0
147
1.0
 71
     0
 72
     0
 73
     0
 74
     0
 75
     0
 76
     0
 77
     3
 78
     8
170
     0
171
     2
172
     0
173
     1
174
     0
175
     0
176
     0
177
     0
178
     0
270
     2
271
     2
272
     4
273
     2
274
     2
340
10
275
     0
280
     0
281
     0
282
     0
283
     1
284
     0
285
     0
286
     0
287
     3
288
     0
  0
DIMSTYLE
105
26
100
AcDbSymbolTableRecord
100
AcDbDimStyleTableRecord
  2
LEADSTYL
 70
     0
  3

  4

  5

  6
_OPEN
  7
_OPEN
 40
1.0
 41
3.0
 42
0.0625
 43
0.38
 44
0.18
 45
0.0
 46
0.0
 47
0.0
 48
0.0
140
3.2
141
0.09
142
0.0
143
25.4
144
1.0
145
0.0
146
1.0
147
1.0
 71
     0
 72
     0
 73
     1
 74
     1
 75
     0
 76
     0
 77
     0
 78
     0
170
     0
171
     2
172
     0
173
     1
174
     0
175
     0
176
     0
177
     0
178
     0
270
     2
271
     4
272
     4
273
     2
274
     2
340
10
275
     0
280
     0
281
     0
282
     0
283
     1
284
     0
285
     0
286
     0
287
     3
288
     0
  0
ENDTAB
  0
TABLE
  2
BLOCK_RECORD
  5
1
100
AcDbSymbolTable
 70
    21
  0
BLOCK_RECORD
  5
1F
100
AcDbSymbolTableRecord
100
AcDbBlockTableRecord
  2
*MODEL_SPACE
  0
BLOCK_RECORD
  5
22
100
AcDbSymbolTableRecord
100
AcDbBlockTableRecord
  2
*PAPER_SPACE
  0
BLOCK_RECORD
  5
27
100
AcDbSymbolTableRecord
100
AcDbBlockTableRecord
  2
_NONE
  0
BLOCK_RECORD
  5
2B
100
AcDbSymbolTableRecord
100
AcDbBlockTableRecord
  2
_OPEN
  0
BLOCK_RECORD
  5
31
100
AcDbSymbolTableRecord
100
AcDbBlockTableRecord
  2
_CLOSED
  0
BLOCK_RECORD
  5
38
100
AcDbSymbolTableRecord
100
AcDbBlockTableRecord
  2
_ORIGIN
  0
BLOCK_RECORD
  5
3D
100
AcDbSymbolTableRecord
100
AcDbBlockTableRecord
  2
_DOT
  0
BLOCK_RECORD
  5
45
100
AcDbSymbolTableRecord
100
AcDbBlockTableRecord
  2
_OBLIQUE
  0
BLOCK_RECORD
  5
4B
100
AcDbSymbolTableRecord
100
AcDbBlockTableRecord
  2
LEAD0
  0
BLOCK_RECORD
  5
52
100
AcDbSymbolTableRecord
100
AcDbBlockTableRecord
  2
LEAD1
  0
BLOCK_RECORD
  5
59
100
AcDbSymbolTableRecord
100
AcDbBlockTableRecord
  2
LEAD2
  0
BLOCK_RECORD
  5
60
100
AcDbSymbolTableRecord
100
AcDbBlockTableRecord
  2
LEAD3
  0
BLOCK_RECORD
  5
67
100
AcDbSymbolTableRecord
100
AcDbBlockTableRecord
  2
DIMS0
  0
BLOCK_RECORD
  5
6E
100
AcDbSymbolTableRecord
100
AcDbBlockTableRecord
  2
LEAD4
  0
BLOCK_RECORD
  5
77
100
AcDbSymbolTableRecord
100
AcDbBlockTableRecord
  2
DIMS1
  0
BLOCK_RECORD
  5
81
100
AcDbSymbolTableRecord
100
AcDbBlockTableRecord
  2
DIMS2
  0
BLOCK_RECORD
  5
88
100
AcDbSymbolTableRecord
100
AcDbBlockTableRecord
  2
LEAD5
  0
BLOCK_RECORD
  5
8E
100
AcDbSymbolTableRecord
100
AcDbBlockTableRecord
  2
DIMS3
  0
BLOCK_RECORD
  5
98
100
AcDbSymbolTableRecord
100
AcDbBlockTableRecord
  2
LEAD6
  0
BLOCK_RECORD
  5
A1
100
AcDbSymbolTableRecord
100
AcDbBlockTableRecord
  2
LEAD7
  0
BLOCK_RECORD
  5
A8
100
AcDbSymbolTableRecord
100
AcDbBlockTableRecord
  2
LEAD8
  0
BLOCK_RECORD
  5
AF
100
AcDbSymbolTableRecord
100
AcDbBlockTableRecord
  2
LEAD9
  0
BLOCK_RECORD
  5
B8
100
AcDbSymbolTableRecord
100
AcDbBlockTableRecord
  2
LEAD10
  0
ENDTAB
  0
ENDSEC
  0
SECTION
  2
BLOCKS
  0
BLOCK
  5
20
100
AcDbEntity
  8
0
100
AcDbBlockBegin
  2
*MODEL_SPACE
 70
     0
 10
0.0
 20
0.0
 30
0.0
  3
*MODEL_SPACE
  1

  0
ENDBLK
  5
21
100
AcDbEntity
  8
0
100
AcDbBlockEnd
  0
BLOCK
  5
23
100
AcDbEntity
 67
     1
  8
0
100
AcDbBlockBegin
  2
*PAPER_SPACE
 70
     0
 10
0.0
 20
0.0
 30
0.0
  3
*PAPER_SPACE
  1

  0
ENDBLK
  5
24
100
AcDbEntity
 67
     1
  8
0
100
AcDbBlockEnd
  0
BLOCK
  5
28
100
AcDbEntity
  8
0
100
AcDbBlockBegin
  2
_NONE
 70
     0
 10
0.0
 20
0.0
  0
CIRCLE
  5
29
100
AcDbEntity
  8
0
 62
     0
100
AcDbCircle
 10
0.0
 20
0.0
 40
0.25
  0
ENDBLK
  5
2A
100
AcDbEntity
  8
0
100
AcDbBlockEnd
  0
BLOCK
  5
2C
100
AcDbEntity
  8
0
100
AcDbBlockBegin
  2
_OPEN
 70
     0
 10
0.0
 20
0.0
  0
LINE
  5
2D
100
AcDbEntity
  8
0
 62
     0
100
AcDbLine
 10
-0.965926
 20
0.258819
 11
0.0
 21
0.0
  0
LINE
  5
2E
100
AcDbEntity
  8
0
 62
     0
100
AcDbLine
 10
0.0
 20
0.0
 11
-0.965926
 21
-0.258819
  0
LINE
  5
2F
100
AcDbEntity
  8
0
 62
     0
100
AcDbLine
 10
0.0
 20
0.0
 11
-1.0
 21
0.0
  0
ENDBLK
  5
30
100
AcDbEntity
  8
0
100
AcDbBlockEnd
  0
BLOCK
  5
32
100
AcDbEntity
  8
0
100
AcDbBlockBegin
  2
_CLOSED
 70
     0
 10
0.0
 20
0.0
  0
LINE
  5
33
100
AcDbEntity
  8
0
 62
     0
100
AcDbLine
 10
-0.965926
 20
0.258819
 11
0.0
 21
0.0
  0
LINE
  5
34
100
AcDbEntity
  8
0
 62
     0
100
AcDbLine
 10
0.0
 20
0.0
 11
-0.965926
 21
-0.258819
  0
LINE
  5
35
100
AcDbEntity
  8
0
 62
     0
100
AcDbLine
 10
-0.965926
 20
0.258819
 11
-0.965926
 21
-0.258819
  0
LINE
  5
36
100
AcDbEntity
  8
0
 62
     0
100
AcDbLine
 10
0.0
 20
0.0
 11
-1.0
 21
0.0
  0
ENDBLK
  5
37
100
AcDbEntity
  8
0
100
AcDbBlockEnd
  0
BLOCK
  5
39
100
AcDbEntity
  8
0
100
AcDbBlockBegin
  2
_ORIGIN
 70
     0
 10
0.0
 20
0.0
  0
CIRCLE
  5
3A
100
AcDbEntity
  8
0
 62
     0
100
AcDbCircle
 10
0.0
 20
0.0
 40
0.5
  0
LINE
  5
3B
100
AcDbEntity
  8
0
 62
     0
100
AcDbLine
 10
0.0
 20
0.0
 11
-1.0
 21
0.0
  0
ENDBLK
  5
3C
100
AcDbEntity
  8
0
100
AcDbBlockEnd
  0
BLOCK
  5
3E
100
AcDbEntity
  8
0
100
AcDbBlockBegin
  2
_DOT
 70
     0
 10
0.0
 20
0.0
  0
POLYLINE
  5
3F
100
AcDbEntity
  8
0
 62
     0
100
AcDb2dPolyline
 66
     1
 70
     1
 40
0.5
 41
0.5
  0
VERTEX
  5
40
100
AcDbEntity
  8
0
 62
     0
100
AcDbVertex
100
AcDb2dVertex
 10
-0.25
 20
0.0
 42
1.0
  0
VERTEX
  5
41
100
AcDbEntity
  8
0
 62
     0
100
AcDbVertex
100
AcDb2dVertex
 10
0.25
 20
0.0
 42
1.0
  0
SEQEND
  5
42
100
AcDbEntity
  8
0
 62
     0
  0
LINE
  5
43
100
AcDbEntity
  8
0
 62
     0
100
AcDbLine
 10
-0.5
 20
0.0
 11
-1.0
 21
0.0
  0
ENDBLK
  5
44
100
AcDbEntity
  8
0
100
AcDbBlockEnd
  0
BLOCK
  5
46
100
AcDbEntity
  8
0
100
AcDbBlockBegin
  2
_OBLIQUE
 70
     0
 10
0.0
 20
0.0
  0
LINE
  5
47
100
AcDbEntity
  8
0
 62
     0
100
AcDbLine
 10
-0.353553
 20
-0.353553
 11
0.353553
 21
0.353553
  0
ENDBLK
  5
48
100
AcDbEntity
  8
0
100
AcDbBlockEnd
  0
BLOCK
  5
4C
100
AcDbEntity
  8
DD0
100
AcDbBlockBegin
  2
LEAD0
 70
     0
 10
0.0
 20
0.0
  0
CIRCLE
  5
4D
100
AcDbEntity
  8
DD0
100
AcDbCircle
 10
304.559845
 20
192.089157
 40
2.0
  0
TEXT
  5
4E
100
AcDbEntity
  8
DD0
100
AcDbText
 10
303.593178
 20
190.749157
 40
2.68
  1
１
 41
0.721393
  7
STANDARD
100
AcDbText
  0
ENDBLK
  5
4F
100
AcDbEntity
  8
DD0
100
AcDbBlockEnd
  0
BLOCK
  5
53
100
AcDbEntity
  8
DD0
100
AcDbBlockBegin
  2
LEAD1
 70
     0
 10
0.0
 20
0.0
  0
CIRCLE
  5
54
100
AcDbEntity
  8
DD0
100
AcDbCircle
 10
69.078361
 20
86.173592
 40
2.0
  0
TEXT
  5
55
100
AcDbEntity
  8
DD0
100
AcDbText
 10
68.111695
 20
84.833592
 40
2.68
  1
１
 41
0.721393
  7
STANDARD
100
AcDbText
  0
ENDBLK
  5
56
100
AcDbEntity
  8
DD0
100
AcDbBlockEnd
  0
BLOCK
  5
5A
100
AcDbEntity
  8
DD0
100
AcDbBlockBegin
  2
LEAD2
 70
     0
 10
0.0
 20
0.0
  0
CIRCLE
  5
5B
100
AcDbEntity
  8
DD0
100
AcDbCircle
 10
189.770142
 20
85.454529
 40
2.0
  0
TEXT
  5
5C
100
AcDbEntity
  8
DD0
100
AcDbText
 10
188.803475
 20
84.114529
 40
2.68
  1
２
 41
0.721393
  7
STANDARD
100
AcDbText
  0
ENDBLK
  5
5D
100
AcDbEntity
  8
DD0
100
AcDbBlockEnd
  0
BLOCK
  5
61
100
AcDbEntity
  8
DD0
100
AcDbBlockBegin
  2
LEAD3
 70
     0
 10
0.0
 20
0.0
  0
CIRCLE
  5
62
100
AcDbEntity
  8
DD0
100
AcDbCircle
 10
317.020355
 20
190.83197
 40
2.0
  0
TEXT
  5
63
100
AcDbEntity
  8
DD0
100
AcDbText
 10
316.053688
 20
189.49197
 40
2.68
  1
２
 41
0.721393
  7
STANDARD
100
AcDbText
  0
ENDBLK
  5
64
100
AcDbEntity
  8
DD0
100
AcDbBlockEnd
  0
BLOCK
  5
68
100
AcDbEntity
  8
DD0
100
AcDbBlockBegin
  2
DIMS0
 70
     0
 10
0.0
 20
0.0
  0
TEXT
  5
69
100
AcDbEntity
  8
DD0
100
AcDbText
 10
90.201443
 20
227.724017
 40
3.5
  1
　
 50
321.340183
 41
0.833333
  7
STANDARD
100
AcDbText
  0
ENDBLK
  5
6A
100
AcDbEntity
  8
DD0
100
AcDbBlockEnd
  0
BLOCK
  5
6F
100
AcDbEntity
  8
DD0
100
AcDbBlockBegin
  2
LEAD4
 70
     0
 10
0.0
 20
0.0
  0
CIRCLE
  5
70
100
AcDbEntity
  8
DD0
100
AcDbCircle
 10
97.653358
 20
243.62767
 40
2.0
  0
TEXT
  5
71
100
AcDbEntity
  8
DD0
100
AcDbText
 10
96.686692
 20
242.28767
 40
2.68
  1
１
 41
0.721393
  7
STANDARD
100
AcDbText
  0
ENDBLK
  5
72
100
AcDbEntity
  8
DD0
100
AcDbBlockEnd
  0
BLOCK
  5
78
100
AcDbEntity
  8
DD0
100
AcDbBlockBegin
  2
DIMS1
 70
     0
 10
0.0
 20
0.0
  0
TEXT
  5
79
100
AcDbEntity
  8
DD0
100
AcDbText
 10
175.726889
 20
249.506151
 40
3.5
  1
　
 50
26.235211
 41
0.833333
  7
STANDARD
100
AcDbText
  0
ENDBLK
  5
7A
100
AcDbEntity
  8
DD0
100
AcDbBlockEnd
  0
BLOCK
  5
82
100
AcDbEntity
  8
DD0
100
AcDbBlockBegin
  2
DIMS2
 70
     0
 10
0.0
 20
0.0
  0
TEXT
  5
83
100
AcDbEntity
  8
DD0
100
AcDbText
 10
194.90137
 20
241.047303
 40
3.5
  1
　
 50
49.616533
 41
0.833333
  7
STANDARD
100
AcDbText
  0
ENDBLK
  5
84
100
AcDbEntity
  8
DD0
100
AcDbBlockEnd
  0
BLOCK
  5
89
100
AcDbEntity
  8
DD0
100
AcDbBlockBegin
  2
LEAD5
 70
     0
 10
0.0
 20
0.0
  0
CIRCLE
  5
8A
100
AcDbEntity
  8
DD0
100
AcDbCircle
 10
215.220673
 20
245.21431
 40
2.0
  0
TEXT
  5
8B
100
AcDbEntity
  8
DD0
100
AcDbText
 10
214.254006
 20
243.87431
 40
2.68
  1
２
 41
0.721393
  7
STANDARD
100
AcDbText
  0
ENDBLK
  5
8C
100
AcDbEntity
  8
DD0
100
AcDbBlockEnd
  0
BLOCK
  5
8F
100
AcDbEntity
  8
DD0
100
AcDbBlockBegin
  2
DIMS3
 70
     0
 10
0.0
 20
0.0
  0
TEXT
  5
90
100
AcDbEntity
  8
DD0
100
AcDbText
 10
95.010817
 20
204.122492
 40
3.5
  1
　
 50
60.457023
 41
0.833333
  7
STANDARD
100
AcDbText
  0
ENDBLK
  5
91
100
AcDbEntity
  8
DD0
100
AcDbBlockEnd
  0
BLOCK
  5
99
100
AcDbEntity
  8
DD0
100
AcDbBlockBegin
  2
LEAD6
 70
     0
 10
0.0
 20
0.0
  0
CIRCLE
  5
9A
100
AcDbEntity
  8
DD0
100
AcDbCircle
 10
118.670494
 20
243.543457
 40
2.0
  0
TEXT
  5
9B
100
AcDbEntity
  8
DD0
100
AcDbText
 10
117.703827
 20
242.203457
 40
2.68
  1
２
 41
0.721393
  7
STANDARD
100
AcDbText
  0
ENDBLK
  5
9C
100
AcDbEntity
  8
DD0
100
AcDbBlockEnd
  0
BLOCK
  5
A2
100
AcDbEntity
  8
DD0
100
AcDbBlockBegin
  2
LEAD7
 70
     0
 10
0.0
 20
0.0
  0
CIRCLE
  5
A3
100
AcDbEntity
  8
DD0
100
AcDbCircle
 10
174.197525
 20
88.336487
 40
2.0
  0
TEXT
  5
A4
100
AcDbEntity
  8
DD0
100
AcDbText
 10
173.230858
 20
86.996487
 40
2.68
  1
１
 41
0.721393
  7
STANDARD
100
AcDbText
  0
ENDBLK
  5
A5
100
AcDbEntity
  8
DD0
100
AcDbBlockEnd
  0
BLOCK
  5
A9
100
AcDbEntity
  8
DD0
100
AcDbBlockBegin
  2
LEAD8
 70
     0
 10
0.0
 20
0.0
  0
CIRCLE
  5
AA
100
AcDbEntity
  8
DD0
100
AcDbCircle
 10
290.132019
 20
191.046722
 40
2.0
  0
TEXT
  5
AB
100
AcDbEntity
  8
DD0
100
AcDbText
 10
289.165352
 20
189.706722
 40
2.68
  1
３
 41
0.721393
  7
STANDARD
100
AcDbText
  0
ENDBLK
  5
AC
100
AcDbEntity
  8
DD0
100
AcDbBlockEnd
  0
BLOCK
  5
B0
100
AcDbEntity
  8
DD0
100
AcDbBlockBegin
  2
LEAD9
 70
     0
 10
0.0
 20
0.0
  0
CIRCLE
  5
B1
100
AcDbEntity
  8
DD0
100
AcDbCircle
 10
202.313538
 20
245.21431
 40
2.0
  0
TEXT
  5
B2
100
AcDbEntity
  8
DD0
100
AcDbText
 10
201.346871
 20
243.87431
 40
2.68
  1
１
 41
0.721393
  7
STANDARD
100
AcDbText
  0
ENDBLK
  5
B3
100
AcDbEntity
  8
DD0
100
AcDbBlockEnd
  0
BLOCK
  5
B9
100
AcDbEntity
  8
DD0
100
AcDbBlockBegin
  2
LEAD10
 70
     0
 10
0.0
 20
0.0
  0
CIRCLE
  5
BA
100
AcDbEntity
  8
DD0
100
AcDbCircle
 10
83.611168
 20
84.295395
 40
2.0
  0
TEXT
  5
BB
100
AcDbEntity
  8
DD0
100
AcDbText
 10
82.644501
 20
82.955395
 40
2.68
  1
２
 41
0.721393
  7
STANDARD
100
AcDbText
  0
ENDBLK
  5
BC
100
AcDbEntity
  8
DD0
100
AcDbBlockEnd
  0
ENDSEC
  0
SECTION
  2
ENTITIES
  0
LEADER
  5
49
100
AcDbEntity
  8
DD0
100
AcDbLeader
  3
LEADSTYL
 76
     2
 10
309.610168
 20
198.505463
 10
305.796844
 20
193.660736
212
305.796844
222
193.660736
340
4A
 77
     4
  0
INSERT
  5
4A
100
AcDbEntity
  8
DD0
100
AcDbBlockReference
  2
LEAD0
 10
0.0
 20
0.0
  0
LEADER
  5
50
100
AcDbEntity
  8
DD0
100
AcDbLeader
  3
LEADSTYL
 76
     2
 10
76.628471
 20
89.674805
 10
70.892746
 20
87.014984
212
70.892746
222
87.014984
340
51
 77
     4
  0
INSERT
  5
51
100
AcDbEntity
  8
DD0
100
AcDbBlockReference
  2
LEAD1
 10
0.0
 20
0.0
  0
LEADER
  5
57
100
AcDbEntity
  8
DD0
100
AcDbLeader
  3
LEADSTYL
 76
     2
 10
182.308472
 20
96.1017
 10
188.62233
 20
87.092369
212
188.62233
222
87.092369
340
58
 77
     4
  0
INSERT
  5
58
100
AcDbEntity
  8
DD0
100
AcDbBlockReference
  2
LEAD2
 10
0.0
 20
0.0
  0
LEADER
  5
5E
100
AcDbEntity
  8
DD0
100
AcDbLeader
  3
LEADSTYL
 76
     2
 10
311.050171
 20
197.345352
 10
315.668945
 20
192.30632
212
315.668945
222
192.30632
340
5F
 77
     4
  0
INSERT
  5
5F
100
AcDbEntity
  8
DD0
100
AcDbBlockReference
  2
LEAD3
 10
0.0
 20
0.0
  0
LEADER
  5
65
100
AcDbEntity
  8
DD0
100
AcDbLeader
  3
LEADSTYL
 76
     2
 10
70.255699
 20
233.848297
 10
76.62896
 20
247.954437
340
66
 77
     4
  0
TEXT
  5
66
100
AcDbEntity
  8
DD0
100
AcDbText
 10
73.779073
 20
244.075447
 40
3.5
  1
　
 50
65.686155
 41
0.833333
  7
STANDARD
100
AcDbText
  0
INSERT
  5
6B
100
AcDbEntity
  8
DD0
100
AcDbBlockReference
  2
DIMS0
 10
0.0
 20
0.0
  0
LEADER
  5
6C
100
AcDbEntity
  8
DD0
100
AcDbLeader
  3
LEADSTYL
 76
     2
 10
85.820686
 20
229.947983
 10
96.344955
 20
242.115036
212
96.344955
222
242.115036
340
6D
 77
     4
  0
INSERT
  5
6D
100
AcDbEntity
  8
DD0
100
AcDbBlockReference
  2
LEAD4
 10
0.0
 20
0.0
  0
LEADER
  5
73
100
AcDbEntity
  8
DD0
100
AcDbLeader
  3
LEADSTYL
 76
     3
 10
91.351494
 20
219.448303
 10
95.574638
 20
202.431198
 10
68.95787
 20
202.431198
340
74
 77
     4
  0
TEXT
  5
74
100
AcDbEntity
  8
DD0
100
AcDbText
 10
70.249537
 20
203.431198
 40
3.5
  1
運転圧力：標準
 41
0.833333
  7
STANDARD
100
AcDbText
  0
LEADER
  5
75
100
AcDbEntity
  8
DD0
100
AcDbLeader
  3
LEADSTYL
 76
     2
 10
86.022575
 20
219.448303
 10
96.189629
 20
242.039719
340
76
 77
     4
  0
TEXT
  5
76
100
AcDbEntity
  8
DD0
100
AcDbText
 10
93.345446
 20
238.156542
 40
3.5
  1
　
 50
65.770316
 41
0.833333
  7
STANDARD
100
AcDbText
  0
INSERT
  5
7B
100
AcDbEntity
  8
DD0
100
AcDbBlockReference
  2
DIMS1
 10
0.0
 20
0.0
  0
LEADER
  5
7C
100
AcDbEntity
  8
DD0
100
AcDbLeader
  3
LEADSTYL
 76
     2
 10
172.071381
 20
246.808304
 10
181.234085
 20
250.586426
 77
     4
  0
LEADER
  5
7D
100
AcDbEntity
  8
DD0
100
AcDbLeader
  3
LEADSTYL
 76
     2
 10
207.833069
 20
224.320526
 10
213.927399
 20
243.72319
340
7E
 77
     4
  0
TEXT
  5
7E
100
AcDbEntity
  8
DD0
100
AcDbText
 10
211.562443
 20
239.530902
 40
3.5
  1
　
 50
72.562646
 41
0.833333
  7
STANDARD
100
AcDbText
  0
LEADER
  5
7F
100
AcDbEntity
  8
DD0
100
AcDbLeader
  3
LEADSTYL
 76
     3
 10
192.510712
 20
228.088303
 10
219.849792
 20
200.966232
 10
246.349792
 20
200.966232
340
80
 77
     4
  0
TEXT
  5
80
100
AcDbEntity
  8
DD0
100
AcDbText
 10
221.141459
 20
201.966232
 40
3.5
  1
運転圧力：標準
 41
0.833333
  7
STANDARD
100
AcDbText
  0
INSERT
  5
85
100
AcDbEntity
  8
DD0
100
AcDbBlockReference
  2
DIMS2
 10
0.0
 20
0.0
  0
LEADER
  5
86
100
AcDbEntity
  8
DD0
100
AcDbLeader
  3
LEADSTYL
 76
     2
 10
200.272964
 20
228.088303
 10
213.905533
 20
243.70752
212
213.905533
222
243.70752
340
87
 77
     4
  0
INSERT
  5
87
100
AcDbEntity
  8
DD0
100
AcDbBlockReference
  2
LEAD5
 10
0.0
 20
0.0
  0
LEADER
  5
8D
100
AcDbEntity
  8
DD0
100
AcDbLeader
  3
LEADSTYL
 76
     2
 10
184.479599
 20
228.088303
 10
200.683304
 20
244.055725
 77
     4
  0
INSERT
  5
92
100
AcDbEntity
  8
DD0
100
AcDbBlockReference
  2
DIMS3
 10
0.0
 20
0.0
  0
LEADER
  5
93
100
AcDbEntity
  8
DD0
100
AcDbLeader
  3
LEADSTYL
 76
     2
 10
107.393845
 20
219.448303
 10
117.381622
 20
242.024506
340
94
 77
     4
  0
TEXT
  5
94
100
AcDbEntity
  8
DD0
100
AcDbText
 10
114.562229
 20
238.123294
 40
3.5
  1
　
 50
66.13526
 41
0.833333
  7
STANDARD
100
AcDbText
  0
LEADER
  5
95
100
AcDbEntity
  8
DD0
100
AcDbLeader
  3
LEADSTYL
 76
     2
 10
105.548927
 20
219.448303
 10
95.574638
 20
202.431198
 77
     4
  0
LEADER
  5
96
100
AcDbEntity
  8
DD0
100
AcDbLeader
  3
LEADSTYL
 76
     2
 10
105.930359
 20
228.069504
 10
117.399269
 20
241.999451
212
117.399269
222
241.999451
340
97
 77
     4
  0
INSERT
  5
97
100
AcDbEntity
  8
DD0
100
AcDbBlockReference
  2
LEAD6
 10
0.0
 20
0.0
  0
LEADER
  5
9D
100
AcDbEntity
  8
DD0
100
AcDbLeader
  3
LEADSTYL
 76
     3
 10
65.302338
 20
238.168304
 10
76.430946
 20
247.985275
 10
99.430946
 20
247.985275
340
9E
 77
     4
  0
TEXT
  5
9E
100
AcDbEntity
  8
DD0
100
AcDbText
 10
77.722613
 20
248.985275
 40
3.5
  1
運転圧力：高
 41
0.833333
  7
STANDARD
100
AcDbText
  0
LEADER
  5
9F
100
AcDbEntity
  8
DD0
100
AcDbLeader
  3
LEADSTYL
 76
     2
 10
179.428467
 20
98.827339
 10
175.089981
 20
90.126328
212
175.089981
222
90.126328
340
A0
 77
     4
  0
INSERT
  5
A0
100
AcDbEntity
  8
DD0
100
AcDbBlockReference
  2
LEAD7
 10
0.0
 20
0.0
  0
LEADER
  5
A6
100
AcDbEntity
  8
DD0
100
AcDbLeader
  3
LEADSTYL
 76
     2
 10
298.149658
 20
196.875671
 10
291.749695
 20
192.222794
212
291.749695
222
192.222794
340
A7
 77
     4
  0
INSERT
  5
A7
100
AcDbEntity
  8
DD0
100
AcDbBlockReference
  2
LEAD8
 10
0.0
 20
0.0
  0
LEADER
  5
AD
100
AcDbEntity
  8
DD0
100
AcDbLeader
  3
LEADSTYL
 76
     2
 10
190.711578
 20
236.968948
 10
200.683304
 20
244.055725
212
200.683304
222
244.055725
340
AE
 77
     4
  0
INSERT
  5
AE
100
AcDbEntity
  8
DD0
100
AcDbBlockReference
  2
LEAD9
 10
0.0
 20
0.0
  0
LEADER
  5
B4
100
AcDbEntity
  8
DD0
100
AcDbLeader
  3
LEADSTYL
 76
     3
 10
174.368393
 20
242.488297
 10
181.234085
 20
250.586441
 10
204.234085
 20
250.586441
340
B5
 77
     4
  0
TEXT
  5
B5
100
AcDbEntity
  8
DD0
100
AcDbText
 10
182.525752
 20
251.586441
 40
3.5
  1
運転圧力：高
 41
0.833333
  7
STANDARD
100
AcDbText
  0
LEADER
  5
B6
100
AcDbEntity
  8
DD0
100
AcDbLeader
  3
LEADSTYL
 76
     2
 10
78.068474
 20
90.973145
 10
82.333809
 20
85.834335
212
82.333809
222
85.834335
340
B7
 77
     4
  0
INSERT
  5
B7
100
AcDbEntity
  8
DD0
100
AcDbBlockReference
  2
LEAD10
 10
0.0
 20
0.0
  0
TEXT
  5
BD
100
AcDbEntity
  8
M0
 62
     4
100
AcDbText
 10
119.700375
 20
229.979326
 40
4.32
  1
吸上高さ１２ｍ時
 41
0.590278
  7
STANDARD
100
AcDbText
  0
TEXT
  5
BE
100
AcDbEntity
  8
M0
 62
     4
100
AcDbText
 10
88.384702
 20
98.070115
 40
4.32
  1
吸上高さ３０ｍ時
 41
0.590278
  7
STANDARD
100
AcDbText
  0
TEXT
  5
BF
100
AcDbEntity
  8
M0
 62
     4
100
AcDbText
 10
212.576539
 20
232.756358
 40
4.32
  1
吸上高さ１８ｍ時
 41
0.590278
  7
STANDARD
100
AcDbText
  0
TEXT
  5
C0
100
AcDbEntity
  8
M0
 62
     4
100
AcDbText
 10
315.955151
 20
221.445302
 40
4.32
  1
吸上高さ２４ｍ時
 41
0.590278
  7
STANDARD
100
AcDbText
  0
TEXT
  5
C1
100
AcDbEntity
  8
M0
 62
     4
100
AcDbText
 10
186.2347
 20
98.070115
 40
4.32
  1
吸上高さ３５ｍ時
 41
0.590278
  7
STANDARD
100
AcDbText
  0
LINE
  5
C2
100
AcDbEntity
  8
M0
100
AcDbLine
 10
57.905296
 20
167.6083
 11
137.105296
 21
167.6083
  0
LINE
  5
C3
100
AcDbEntity
  8
M0
100
AcDbLine
 10
57.905296
 20
246.8083
 11
57.905296
 21
167.6083
  0
LINE
  5
C4
100
AcDbEntity
  8
M0
100
AcDbLine
 10
86.705296
 20
167.6083
 11
86.705296
 21
196.4083
  0
LINE
  5
C5
100
AcDbEntity
  8
M0
100
AcDbLine
 10
115.505296
 20
167.6083
 11
115.505296
 21
210.8083
  0
LINE
  5
C6
100
AcDbEntity
  8
M0
100
AcDbLine
 10
57.905296
 20
182.0083
 11
137.105296
 21
182.0083
  0
LINE
  5
C7
100
AcDbEntity
  8
M0
100
AcDbLine
 10
57.905296
 20
196.4083
 11
137.105296
 21
196.4083
  0
LINE
  5
C8
100
AcDbEntity
  8
M0
100
AcDbLine
 10
72.305296
 20
167.6083
 11
72.305296
 21
196.4083
  0
LINE
  5
C9
100
AcDbEntity
  8
M0
100
AcDbLine
 10
101.105296
 20
167.6083
 11
101.105296
 21
216.5683
  0
LINE
  5
CA
100
AcDbEntity
  8
M0
100
AcDbLine
 10
129.905296
 20
167.6083
 11
129.905296
 21
227.725753
  0
LINE
  5
CB
100
AcDbEntity
  8
M0
100
AcDbLine
 10
57.905296
 20
225.2083
 11
137.105296
 21
225.2083
  0
LINE
  5
CC
100
AcDbEntity
  8
M0
100
AcDbLine
 10
57.905296
 20
239.6083
 11
64.927282
 21
239.6083
  0
LINE
  5
CD
100
AcDbEntity
  8
M0
100
AcDbLine
 10
115.505296
 20
210.8083
 11
115.505296
 21
246.522752
  0
LINE
  5
CE
100
AcDbEntity
  8
M0
100
AcDbLine
 10
57.905296
 20
210.8083
 11
137.105296
 21
210.8083
  0
LINE
  5
CF
100
AcDbEntity
  8
M0
100
AcDbLine
 10
72.305296
 20
196.4083
 11
72.305296
 21
200.2631
  0
LINE
  5
D0
100
AcDbEntity
  8
M0
100
AcDbLine
 10
86.705296
 20
196.4083
 11
86.705296
 21
200.027117
  0
LINE
  5
D1
100
AcDbEntity
  8
M0
100
AcDbLine
 10
101.105296
 20
216.5683
 11
101.105296
 21
239.6083
  0
ARC
  5
D2
100
AcDbEntity
  8
M0
100
AcDbCircle
 10
44.104743
 20
194.733287
 40
4.8384
100
AcDbArc
 50
52.58592
 51
127.41408
  0
ARC
  5
D3
100
AcDbEntity
  8
M0
100
AcDbCircle
 10
44.104743
 20
197.76986
 40
4.8384
100
AcDbArc
 50
232.58592
 51
307.41408
  0
TEXT
  5
D4
100
AcDbEntity
  8
M0
100
AcDbText
 10
42.088741
 20
209.194723
 40
3.2256
  1
全
 41
1.25
  7
STANDARD
100
AcDbText
  0
TEXT
  5
D5
100
AcDbEntity
  8
M0
100
AcDbText
 10
42.088741
 20
205.646563
 40
3.2256
  1
揚
 41
1.25
  7
STANDARD
100
AcDbText
  0
TEXT
  5
D6
100
AcDbEntity
  8
M0
100
AcDbText
 10
42.088741
 20
202.098404
 40
3.2256
  1
程
 41
1.25
  7
STANDARD
100
AcDbText
  0
TEXT
  5
D7
100
AcDbEntity
  8
M0
100
AcDbText
 10
42.088741
 20
198.550244
 40
3.2256
  1
　
 41
1.25
  7
STANDARD
100
AcDbText
  0
TEXT
  5
D8
100
AcDbEntity
  8
M0
100
AcDbText
 10
42.088741
 20
195.002084
 40
3.2256
  1
ｍ
 41
1.25
  7
STANDARD
100
AcDbText
  0
TEXT
  5
D9
100
AcDbEntity
  8
M0
100
AcDbText
 10
49.337114
 20
208.756272
 40
4.32
  1
３０
 41
0.611111
  7
STANDARD
100
AcDbText
  0
TEXT
  5
DA
100
AcDbEntity
  8
M0
100
AcDbText
 10
49.337114
 20
194.35627
 40
4.32
  1
２０
 41
0.611111
  7
STANDARD
100
AcDbText
  0
TEXT
  5
DB
100
AcDbEntity
  8
M0
100
AcDbText
 10
49.337114
 20
179.956273
 40
4.32
  1
１０
 41
0.611111
  7
STANDARD
100
AcDbText
  0
TEXT
  5
DC
100
AcDbEntity
  8
M0
100
AcDbText
 10
52.217112
 20
165.556267
 40
4.32
  1
０
 41
0.611111
  7
STANDARD
100
AcDbText
  0
TEXT
  5
DD
100
AcDbEntity
  8
M0
100
AcDbText
 10
55.097111
 20
160.370459
 40
4.32
  1
０
 41
0.611111
  7
STANDARD
100
AcDbText
  0
TEXT
  5
DE
100
AcDbEntity
  8
M0
100
AcDbText
 10
83.897113
 20
160.370459
 40
4.32
  1
２０
 41
0.611111
  7
STANDARD
100
AcDbText
  0
TEXT
  5
DF
100
AcDbEntity
  8
M0
100
AcDbText
 10
112.697115
 20
160.370459
 40
4.32
  1
４０
 41
0.611111
  7
STANDARD
100
AcDbText
  0
TEXT
  5
E0
100
AcDbEntity
  8
M0
100
AcDbText
 10
84.571989
 20
153.704079
 40
4.8384
  1
揚水量（Ｌ／分）
 41
0.611111
  7
STANDARD
100
AcDbText
  0
TEXT
  5
E1
100
AcDbEntity
  8
M0
100
AcDbText
 10
69.497112
 20
160.370459
 40
4.32
  1
１０
 41
0.611111
  7
STANDARD
100
AcDbText
  0
TEXT
  5
E2
100
AcDbEntity
  8
M0
100
AcDbText
 10
98.297115
 20
160.370459
 40
4.32
  1
３０
 41
0.611111
  7
STANDARD
100
AcDbText
  0
TEXT
  5
E3
100
AcDbEntity
  8
M0
100
AcDbText
 10
127.097109
 20
160.370459
 40
4.32
  1
５０
 41
0.611111
  7
STANDARD
100
AcDbText
  0
TEXT
  5
E4
100
AcDbEntity
  8
M0
100
AcDbText
 10
49.337114
 20
223.156273
 40
4.32
  1
４０
 41
0.611111
  7
STANDARD
100
AcDbText
  0
TEXT
  5
E5
100
AcDbEntity
  8
M0
100
AcDbText
 10
49.337114
 20
237.556275
 40
4.32
  1
５０
 41
0.611111
  7
STANDARD
100
AcDbText
  0
LINE
  5
E6
100
AcDbEntity
  8
M0
100
AcDbLine
 10
101.105296
 20
239.6083
 11
101.105296
 21
246.337951
  0
LINE
  5
E7
100
AcDbEntity
  8
M0
100
AcDbLine
 10
86.705296
 20
239.6083
 11
86.705296
 21
246.8083
  0
TEXT
  5
E8
100
AcDbEntity
  8
M0
100
AcDbText
 10
54.929656
 20
146.119429
 40
4.05
  1
※破線部域では６０ｋＰａの圧力変動があります。
 41
0.777778
  7
STANDARD
100
AcDbText
  0
LINE
  5
E9
100
AcDbEntity
  8
M0
100
AcDbLine
 10
86.705296
 20
208.640485
 11
86.705296
 21
219.4483
  0
LINE
  5
EA
100
AcDbEntity
  8
M0
100
AcDbLine
 10
72.305296
 20
208.758476
 11
72.305296
 21
246.8083
  0
LINE
  5
EB
100
AcDbEntity
  8
M0
100
AcDbLine
 10
86.705296
 20
233.607576
 11
86.705296
 21
239.6083
  0
LINE
  5
EC
100
AcDbEntity
  8
M0
100
AcDbLine
 10
86.705296
 20
223.590175
 11
86.705296
 21
228.191404
  0
LINE
  5
ED
100
AcDbEntity
  8
M0
100
AcDbLine
 10
69.73864
 20
239.6083
 11
136.891843
 21
239.6083
  0
LINE
  5
EE
100
AcDbEntity
  8
M0
100
AcDbLine
 10
129.905296
 20
236.199184
 11
129.905296
 21
246.920973
  0
TEXT
  5
EF
100
AcDbEntity
  8
M0
100
AcDbText
 10
55.247239
 20
263.657341
 40
4.05
  1
〟　ＤＭ－Ｐ６００Ｗ　＋　深井戸専用ジェット（Ｊ７５－２４Ｗ）使用時
 41
0.555556
  7
STANDARD
100
AcDbText
  0
TEXT
  5
F0
100
AcDbEntity
  8
M0
100
AcDbText
 10
55.247239
 20
258.657341
 40
4.05
  1
№　ＤＭ－Ｋ７５０Ｗ　＋　深井戸専用ジェット（Ｊ７５－２４Ｗ）使用時
 41
0.555556
  7
STANDARD
100
AcDbText
  0
TEXT
  5
F1
100
AcDbEntity
  8
M0
 62
     4
100
AcDbText
 10
192.571994
 20
153.704079
 40
4.8384
  1
揚水量（Ｌ／分）
 41
0.611111
  7
STANDARD
100
AcDbText
  0
LINE
  5
F2
100
AcDbEntity
  8
M0
100
AcDbLine
 10
167.908473
 20
120.00921
 11
167.908473
 21
33.60921
  0
LINE
  5
F3
100
AcDbEntity
  8
M0
100
AcDbLine
 10
167.908473
 20
33.60921
 11
232.708473
 21
33.60921
  0
LINE
  5
F4
100
AcDbEntity
  8
M0
100
AcDbLine
 10
196.708473
 20
33.60921
 11
196.708473
 21
76.80921
  0
LINE
  5
F5
100
AcDbEntity
  8
M0
100
AcDbLine
 10
225.508473
 20
33.60921
 11
225.508473
 21
120.00921
  0
LINE
  5
F6
100
AcDbEntity
  8
M0
100
AcDbLine
 10
167.908473
 20
48.00921
 11
232.708473
 21
48.00921
  0
LINE
  5
F7
100
AcDbEntity
  8
M0
100
AcDbLine
 10
167.908473
 20
62.40921
 11
232.708473
 21
62.40921
  0
LINE
  5
F8
100
AcDbEntity
  8
M0
100
AcDbLine
 10
182.308473
 20
33.60921
 11
182.308473
 21
83.017479
  0
LINE
  5
F9
100
AcDbEntity
  8
M0
100
AcDbLine
 10
211.108473
 20
33.60921
 11
211.108473
 21
120.00921
  0
ARC
  5
FA
100
AcDbEntity
  8
M0
100
AcDbCircle
 10
153.908232
 20
59.059859
 40
4.8384
100
AcDbArc
 50
52.58592
 51
127.41408
  0
ARC
  5
FB
100
AcDbEntity
  8
M0
100
AcDbCircle
 10
153.908232
 20
62.096433
 40
4.8384
100
AcDbArc
 50
232.58592
 51
307.41408
  0
TEXT
  5
FC
100
AcDbEntity
  8
M0
100
AcDbText
 10
151.892232
 20
73.521302
 40
3.2256
  1
全
 41
1.25
  7
STANDARD
100
AcDbText
  0
TEXT
  5
FD
100
AcDbEntity
  8
M0
100
AcDbText
 10
151.892232
 20
69.973142
 40
3.2256
  1
揚
 41
1.25
  7
STANDARD
100
AcDbText
  0
TEXT
  5
FE
100
AcDbEntity
  8
M0
100
AcDbText
 10
151.892232
 20
66.424983
 40
3.2256
  1
程
 41
1.25
  7
STANDARD
100
AcDbText
  0
TEXT
  5
FF
100
AcDbEntity
  8
M0
100
AcDbText
 10
151.892232
 20
62.876823
 40
3.2256
  1
　
 41
1.25
  7
STANDARD
100
AcDbText
  0
TEXT
  5
100
100
AcDbEntity
  8
M0
100
AcDbText
 10
151.892232
 20
59.328663
 40
3.2256
  1
ｍ
 41
1.25
  7
STANDARD
100
AcDbText
  0
TEXT
  5
101
100
AcDbEntity
  8
M0
100
AcDbText
 10
159.34029
 20
60.357179
 40
4.32
  1
２０
 41
0.611111
  7
STANDARD
100
AcDbText
  0
TEXT
  5
102
100
AcDbEntity
  8
M0
100
AcDbText
 10
159.34029
 20
45.957184
 40
4.32
  1
１０
 41
0.611111
  7
STANDARD
100
AcDbText
  0
TEXT
  5
103
100
AcDbEntity
  8
M0
100
AcDbText
 10
162.220295
 20
31.557183
 40
4.32
  1
０
 41
0.611111
  7
STANDARD
100
AcDbText
  0
TEXT
  5
104
100
AcDbEntity
  8
M0
100
AcDbText
 10
165.100315
 20
26.371361
 40
4.32
  1
０
 41
0.611111
  7
STANDARD
100
AcDbText
  0
TEXT
  5
105
100
AcDbEntity
  8
M0
100
AcDbText
 10
193.900272
 20
26.371361
 40
4.32
  1
２０
 41
0.611111
  7
STANDARD
100
AcDbText
  0
TEXT
  5
106
100
AcDbEntity
  8
M0
100
AcDbText
 10
222.700298
 20
26.371361
 40
4.32
  1
４０
 41
0.611111
  7
STANDARD
100
AcDbText
  0
TEXT
  5
107
100
AcDbEntity
  8
M0
100
AcDbText
 10
188.847274
 20
19.780617
 40
4.8384
  1
揚水量（Ｌ／分）
 41
0.611111
  7
STANDARD
100
AcDbText
  0
TEXT
  5
108
100
AcDbEntity
  8
M0
100
AcDbText
 10
179.500309
 20
26.371361
 40
4.32
  1
１０
 41
0.611111
  7
STANDARD
100
AcDbText
  0
TEXT
  5
109
100
AcDbEntity
  8
M0
100
AcDbText
 10
208.300296
 20
26.371361
 40
4.32
  1
３０
 41
0.611111
  7
STANDARD
100
AcDbText
  0
TEXT
  5
10A
100
AcDbEntity
  8
M0
100
AcDbText
 10
154.932831
 20
12.12034
 40
4.05
  1
※破線部域では６０ｋＰａの圧力変動があります。
 41
0.777778
  7
STANDARD
100
AcDbText
  0
LINE
  5
10B
100
AcDbEntity
  8
M0
100
AcDbLine
 10
232.708473
 20
120.00921
 11
167.908473
 21
120.00921
  0
TEXT
  5
10C
100
AcDbEntity
  8
M0
100
AcDbText
 10
159.34029
 20
74.757179
 40
4.32
  1
３０
 41
0.611111
  7
STANDARD
100
AcDbText
  0
TEXT
  5
10D
100
AcDbEntity
  8
M0
100
AcDbText
 10
159.34029
 20
89.157188
 40
4.32
  1
４０
 41
0.611111
  7
STANDARD
100
AcDbText
  0
TEXT
  5
10E
100
AcDbEntity
  8
M0
100
AcDbText
 10
159.34029
 20
103.557185
 40
4.32
  1
５０
 41
0.611111
  7
STANDARD
100
AcDbText
  0
TEXT
  5
10F
100
AcDbEntity
  8
M0
100
AcDbText
 10
159.34029
 20
117.957187
 40
4.32
  1
６０
 41
0.611111
  7
STANDARD
100
AcDbText
  0
LINE
  5
110
100
AcDbEntity
  8
M0
100
AcDbLine
 10
167.908473
 20
76.80921
 11
232.708473
 21
76.80921
  0
LINE
  5
111
100
AcDbEntity
  8
M0
100
AcDbLine
 10
196.708473
 20
76.80921
 11
196.708473
 21
91.20921
  0
LINE
  5
112
100
AcDbEntity
  8
M0
100
AcDbLine
 10
167.908473
 20
91.20921
 11
232.708473
 21
91.20921
  0
LINE
  5
113
100
AcDbEntity
  8
M0
100
AcDbLine
 10
167.908473
 20
105.60921
 11
232.708473
 21
105.60921
  0
LINE
  5
114
100
AcDbEntity
  8
M0
100
AcDbLine
 10
196.708473
 20
105.60921
 11
196.708473
 21
120.00921
  0
LINE
  5
115
100
AcDbEntity
  8
M0
100
AcDbLine
 10
182.308473
 20
117.94681
 11
182.308473
 21
120.00921
  0
LINE
  5
116
100
AcDbEntity
  8
M0
100
AcDbLine
 10
196.708473
 20
91.20921
 11
196.708473
 21
96.263988
  0
TEXT
  5
117
100
AcDbEntity
  8
M0
100
AcDbText
 10
165.650413
 20
131.151202
 40
4.05
  1
〟　ＤＭ－Ｐ６００Ｗ　＋　深井戸専用ジェット（Ｊ７５－３５Ｗ）使用時
 41
0.555556
  7
STANDARD
100
AcDbText
  0
TEXT
  5
118
100
AcDbEntity
  8
M0
100
AcDbText
 10
165.650413
 20
126.151202
 40
4.05
  1
№　ＤＭ－Ｋ７５０Ｗ　＋　深井戸専用ジェット（Ｊ７５－３５Ｗ）使用時
 41
0.555556
  7
STANDARD
100
AcDbText
  0
LINE
  5
119
100
AcDbEntity
  8
M0
 62
    34
100
AcDbLine
 10
165.905296
 20
167.6083
 11
245.105296
 21
167.6083
  0
LINE
  5
11A
100
AcDbEntity
  8
M0
 62
    34
100
AcDbLine
 10
165.905296
 20
250.760427
 11
165.905296
 21
167.6083
  0
LINE
  5
11B
100
AcDbEntity
  8
M0
 62
    34
100
AcDbLine
 10
165.905296
 20
182.0083
 11
245.105296
 21
182.0083
  0
LINE
  5
11C
100
AcDbEntity
  8
M0
 62
    34
100
AcDbLine
 10
165.905296
 20
196.4083
 11
245.105296
 21
196.4083
  0
LINE
  5
11D
100
AcDbEntity
  8
M0
 62
    34
100
AcDbLine
 10
194.705296
 20
210.8083
 11
194.705296
 21
246.8083
  0
LINE
  5
11E
100
AcDbEntity
  8
M0
 62
    34
100
AcDbLine
 10
165.905296
 20
239.6083
 11
245.105296
 21
239.6083
  0
LINE
  5
11F
100
AcDbEntity
  8
M0
 62
    34
100
AcDbLine
 10
223.505296
 20
210.8083
 11
223.505296
 21
231.078932
  0
LINE
  5
120
100
AcDbEntity
  8
M0
 62
    34
100
AcDbLine
 10
180.305296
 20
167.6083
 11
180.305296
 21
246.8083
  0
LINE
  5
121
100
AcDbEntity
  8
M0
 62
    34
100
AcDbLine
 10
194.705296
 20
167.6083
 11
194.705296
 21
210.8083
  0
LINE
  5
122
100
AcDbEntity
  8
M0
 62
    34
100
AcDbLine
 10
209.105296
 20
167.6083
 11
209.105296
 21
210.8083
  0
LINE
  5
123
100
AcDbEntity
  8
M0
 62
    34
100
AcDbLine
 10
223.505296
 20
167.6083
 11
223.505296
 21
198.54813
  0
ARC
  5
124
100
AcDbEntity
  8
M0
 62
    34
100
AcDbCircle
 10
152.104743
 20
194.733287
 40
4.8384
100
AcDbArc
 50
52.58592
 51
127.41408
  0
ARC
  5
125
100
AcDbEntity
  8
M0
 62
    34
100
AcDbCircle
 10
152.104743
 20
197.76986
 40
4.8384
100
AcDbArc
 50
232.58592
 51
307.41408
  0
TEXT
  5
126
100
AcDbEntity
  8
M0
 62
    34
100
AcDbText
 10
150.088743
 20
209.194723
 40
3.2256
  1
全
 41
1.25
  7
STANDARD
100
AcDbText
  0
TEXT
  5
127
100
AcDbEntity
  8
M0
 62
    34
100
AcDbText
 10
150.088743
 20
205.646563
 40
3.2256
  1
揚
 41
1.25
  7
STANDARD
100
AcDbText
  0
TEXT
  5
128
100
AcDbEntity
  8
M0
 62
    34
100
AcDbText
 10
150.088743
 20
202.098404
 40
3.2256
  1
程
 41
1.25
  7
STANDARD
100
AcDbText
  0
TEXT
  5
129
100
AcDbEntity
  8
M0
 62
    34
100
AcDbText
 10
150.088743
 20
198.550244
 40
3.2256
  1
　
 41
1.25
  7
STANDARD
100
AcDbText
  0
TEXT
  5
12A
100
AcDbEntity
  8
M0
 62
    34
100
AcDbText
 10
150.088743
 20
195.002084
 40
3.2256
  1
ｍ
 41
1.25
  7
STANDARD
100
AcDbText
  0
TEXT
  5
12B
100
AcDbEntity
  8
M0
 62
    34
100
AcDbText
 10
157.337115
 20
208.756272
 40
4.32
  1
３０
 41
0.611111
  7
STANDARD
100
AcDbText
  0
TEXT
  5
12C
100
AcDbEntity
  8
M0
 62
    34
100
AcDbText
 10
157.337115
 20
194.35627
 40
4.32
  1
２０
 41
0.611111
  7
STANDARD
100
AcDbText
  0
TEXT
  5
12D
100
AcDbEntity
  8
M0
 62
    34
100
AcDbText
 10
157.337115
 20
179.956273
 40
4.32
  1
１０
 41
0.611111
  7
STANDARD
100
AcDbText
  0
TEXT
  5
12E
100
AcDbEntity
  8
M0
 62
    34
100
AcDbText
 10
160.217111
 20
165.556267
 40
4.32
  1
０
 41
0.611111
  7
STANDARD
100
AcDbText
  0
TEXT
  5
12F
100
AcDbEntity
  8
M0
 62
    34
100
AcDbText
 10
163.097109
 20
160.370459
 40
4.32
  1
０
 41
0.611111
  7
STANDARD
100
AcDbText
  0
TEXT
  5
130
100
AcDbEntity
  8
M0
 62
    34
100
AcDbText
 10
191.897109
 20
160.370459
 40
4.32
  1
２０
 41
0.611111
  7
STANDARD
100
AcDbText
  0
TEXT
  5
131
100
AcDbEntity
  8
M0
 62
    34
100
AcDbText
 10
220.697107
 20
160.370459
 40
4.32
  1
４０
 41
0.611111
  7
STANDARD
100
AcDbText
  0
TEXT
  5
132
100
AcDbEntity
  8
M0
 62
    34
100
AcDbText
 10
177.497109
 20
160.370459
 40
4.32
  1
１０
 41
0.611111
  7
STANDARD
100
AcDbText
  0
TEXT
  5
133
100
AcDbEntity
  8
M0
 62
    34
100
AcDbText
 10
206.297109
 20
160.370459
 40
4.32
  1
３０
 41
0.611111
  7
STANDARD
100
AcDbText
  0
TEXT
  5
134
100
AcDbEntity
  8
M0
 62
    34
100
AcDbText
 10
235.097112
 20
160.370459
 40
4.32
  1
５０
 41
0.611111
  7
STANDARD
100
AcDbText
  0
TEXT
  5
135
100
AcDbEntity
  8
M0
 62
    34
100
AcDbText
 10
157.337115
 20
223.156273
 40
4.32
  1
４０
 41
0.611111
  7
STANDARD
100
AcDbText
  0
TEXT
  5
136
100
AcDbEntity
  8
M0
 62
    34
100
AcDbText
 10
157.337115
 20
237.556275
 40
4.32
  1
５０
 41
0.611111
  7
STANDARD
100
AcDbText
  0
LINE
  5
137
100
AcDbEntity
  8
M0
 62
    34
100
AcDbLine
 10
237.905296
 20
167.6083
 11
237.905296
 21
199.2107
  0
LINE
  5
138
100
AcDbEntity
  8
M0
 62
    34
100
AcDbLine
 10
209.105296
 20
239.6083
 11
209.105296
 21
246.8083
  0
LINE
  5
139
100
AcDbEntity
  8
M0
 62
    34
100
AcDbLine
 10
223.505296
 20
239.6083
 11
223.505296
 21
246.8083
  0
LINE
  5
13A
100
AcDbEntity
  8
M0
 62
    34
100
AcDbLine
 10
165.905296
 20
225.2083
 11
245.105296
 21
225.2083
  0
LINE
  5
13B
100
AcDbEntity
  8
M0
 62
    34
100
AcDbLine
 10
165.905296
 20
210.8083
 11
245.105296
 21
210.8083
  0
LINE
  5
13C
100
AcDbEntity
  8
M0
 62
    34
100
AcDbLine
 10
209.105296
 20
207.713164
 11
209.105296
 21
239.6083
  0
LINE
  5
13D
100
AcDbEntity
  8
M0
 62
    34
100
AcDbLine
 10
194.705296
 20
207.146865
 11
194.705296
 21
210.8083
  0
TEXT
  5
13E
100
AcDbEntity
  8
M0
 62
    34
100
AcDbText
 10
162.929655
 20
146.119429
 40
4.05
  1
※破線部域では６０ｋＰａの圧力変動があります。
 41
0.777778
  7
STANDARD
100
AcDbText
  0
LINE
  5
13F
100
AcDbEntity
  8
M0
 62
    34
100
AcDbLine
 10
237.905296
 20
206.940673
 11
237.905296
 21
246.8083
  0
LINE
  5
140
100
AcDbEntity
  8
M0
 62
    34
100
AcDbLine
 10
223.505296
 20
206.940673
 11
223.505296
 21
210.8083
  0
TEXT
  5
141
100
AcDbEntity
  8
M0
 62
    34
100
AcDbText
 10
166.130296
 20
263.474999
 40
4.05
  1
〟　ＤＭ－Ｐ６００Ｗ　＋　深井戸専用ジェット（Ｊ７５－２４Ｗ）使用時
 41
0.555556
  7
STANDARD
100
AcDbText
  0
TEXT
  5
142
100
AcDbEntity
  8
M0
 62
    34
100
AcDbText
 10
166.130296
 20
258.474991
 40
4.05
  1
№　ＤＭ－Ｋ７５０Ｗ　＋　深井戸専用ジェット（Ｊ７５－２４Ｗ）使用時
 41
0.555556
  7
STANDARD
100
AcDbText
  0
ARC
  5
143
100
AcDbEntity
  8
M0
 62
   253
100
AcDbCircle
 10
300.070158
 20
224.930499
 40
1.8
100
AcDbArc
 50
36.869898
 51
90.0
  0
LINE
  5
144
100
AcDbEntity
  8
M0
 62
   253
100
AcDbLine
 10
309.250158
 20
215.690499
 11
301.510158
 21
226.010499
  0
ARC
  5
145
100
AcDbEntity
  8
M0
 62
   253
100
AcDbCircle
 10
307.810158
 20
214.610499
 40
1.8
100
AcDbArc
 50
0.0
 51
36.869898
  0
LINE
  5
146
100
AcDbEntity
  8
M0
 62
   253
100
AcDbLine
 10
309.610158
 20
193.462696
 11
309.610158
 21
214.610499
  0
ARC
  5
147
100
AcDbEntity
  8
M0
 62
     4
100
AcDbCircle
 10
71.308473
 20
109.36921
 40
2.0
100
AcDbArc
 50
36.869898
 51
90.0
  0
LINE
  5
148
100
AcDbEntity
  8
M0
 62
     4
100
AcDbLine
 10
76.228473
 20
106.142544
 11
72.908473
 21
110.56921
  0
ARC
  5
149
100
AcDbEntity
  8
M0
 62
     4
100
AcDbCircle
 10
74.628473
 20
104.942544
 40
2.0
100
AcDbArc
 50
0.0
 51
36.869898
  0
LINE
  5
14A
100
AcDbEntity
  8
M0
 62
     4
100
AcDbLine
 10
76.628473
 20
104.942544
 11
76.628473
 21
76.80921
  0
LINE
  5
14B
100
AcDbEntity
  8
M0
 62
     6
100
AcDbLine
 10
182.308473
 20
116.067648
 11
182.308473
 21
84.00921
  0
ARC
  5
14C
100
AcDbEntity
  8
M0
 62
     6
100
AcDbCircle
 10
180.308473
 20
116.067648
 40
2.0
100
AcDbArc
 50
0.0
 51
38.659808
  0
LINE
  5
14D
100
AcDbEntity
  8
M0
  6
DASHED
 62
     6
100
AcDbLine
 10
167.908473
 20
118.56921
 11
179.907223
 21
118.56921
  0
ARC
  5
14E
100
AcDbEntity
  8
M0
 62
     6
100
AcDbCircle
 10
179.907223
 20
116.56921
 40
2.0
100
AcDbArc
 50
38.659808
 51
90.0
  0
LINE
  5
14F
100
AcDbEntity
  8
M0
 62
     6
100
AcDbLine
 10
181.46896
 20
117.8186
 11
181.87021
 21
117.317038
  0
LINE
  5
150
100
AcDbEntity
  8
M0
 62
   154
100
AcDbLine
 10
311.050158
 20
193.442191
 11
311.050158
 21
216.463832
  0
ARC
  5
151
100
AcDbEntity
  8
M0
 62
   154
100
AcDbCircle
 10
309.050158
 20
216.463832
 40
2.0
100
AcDbArc
 50
0.0
 51
36.869898
  0
ARC
  5
152
100
AcDbEntity
  8
M0
 62
   154
100
AcDbCircle
 10
307.170158
 20
224.730499
 40
2.0
100
AcDbArc
 50
36.869898
 51
90.0
  0
LINE
  5
153
100
AcDbEntity
  8
M0
  6
DASHED
 62
   154
100
AcDbLine
 10
283.690158
 20
226.730499
 11
307.170158
 21
226.730499
  0
LINE
  5
154
100
AcDbEntity
  8
M0
 62
   154
100
AcDbLine
 10
310.650158
 20
217.663832
 11
308.770158
 21
225.930499
  0
LINE
  5
155
100
AcDbEntity
  8
M0
100
AcDbLine
 10
33.939698
 20
270.343876
 11
54.985665
 21
270.343876
  0
LINE
  5
156
100
AcDbEntity
  8
M0
100
AcDbLine
 10
54.985665
 20
278.922613
 11
33.939698
 21
278.922613
  0
LINE
  5
157
100
AcDbEntity
  8
M0
100
AcDbLine
 10
33.939698
 20
278.922613
 11
33.939698
 21
270.343876
  0
LINE
  5
158
100
AcDbEntity
  8
M0
100
AcDbLine
 10
54.985665
 20
278.922613
 11
54.985665
 21
270.343876
  0
TEXT
  5
159
100
AcDbEntity
  8
M0
100
AcDbText
 10
36.137272
 20
272.157018
 40
4.86
  1
揚水性能
 41
0.740741
  7
STANDARD
100
AcDbText
  0
LINE
  5
15A
100
AcDbEntity
  8
M0
  6
DASHED
 62
    74
100
AcDbLine
 10
57.905296
 20
233.8483
 11
79.366782
 21
233.8483
  0
ARC
  5
15B
100
AcDbEntity
  8
M0
 62
    74
100
AcDbCircle
 10
79.366782
 20
229.3483
 40
4.5
100
AcDbArc
 50
51.340192
 51
90.0
  0
LINE
  5
15C
100
AcDbEntity
  8
M0
 62
    74
100
AcDbLine
 10
82.177909
 20
232.862209
 11
112.376424
 21
208.703398
  0
LINE
  5
15D
100
AcDbEntity
  8
M0
  6
DASHED
 62
    74
100
AcDbLine
 10
57.905296
 20
219.4483
 11
97.366782
 21
219.4483
  0
ARC
  5
15E
100
AcDbEntity
  8
M0
 62
    74
100
AcDbCircle
 10
97.366782
 20
214.9483
 40
4.5
100
AcDbArc
 50
51.340192
 51
90.0
  0
ARC
  5
15F
100
AcDbEntity
  8
M0
 62
    74
100
AcDbCircle
 10
109.565296
 20
205.189488
 40
4.5
100
AcDbArc
 50
0.0
 51
51.340192
  0
LINE
  5
160
100
AcDbEntity
  8
M0
 62
    74
100
AcDbLine
 10
114.065296
 20
205.189488
 11
114.065296
 21
184.8883
  0
LINE
  5
161
100
AcDbEntity
  8
M0
  6
DASHED
 62
   234
100
AcDbLine
 10
165.905296
 20
246.8083
 11
183.274229
 21
246.8083
  0
ARC
  5
162
100
AcDbEntity
  8
M0
 62
   234
100
AcDbCircle
 10
183.274229
 20
241.8083
 40
5.0
100
AcDbArc
 50
45.0
 51
90.0
  0
LINE
  5
163
100
AcDbEntity
  8
M0
 62
   234
100
AcDbLine
 10
209.059467
 20
223.094129
 11
186.809763
 21
245.343834
  0
ARC
  5
164
100
AcDbEntity
  8
M0
 62
   234
100
AcDbCircle
 10
205.523933
 20
219.558595
 40
5.0
100
AcDbArc
 50
20.556045
 51
45.0
  0
LINE
  5
165
100
AcDbEntity
  8
M0
 62
   234
100
AcDbLine
 10
213.826942
 20
211.657244
 11
210.205579
 21
221.314212
  0
ARC
  5
166
100
AcDbEntity
  8
M0
 62
   234
100
AcDbCircle
 10
209.145296
 20
209.901627
 40
5.0
100
AcDbArc
 50
0.0
 51
20.556045
  0
LINE
  5
167
100
AcDbEntity
  8
M0
 62
   234
100
AcDbLine
 10
214.145296
 20
209.901627
 11
214.145296
 21
192.776434
  0
ARC
  5
168
100
AcDbEntity
  8
M0
 62
   234
100
AcDbCircle
 10
201.994229
 20
223.0883
 40
5.0
100
AcDbArc
 50
45.0
 51
90.0
  0
LINE
  5
169
100
AcDbEntity
  8
M0
  6
DASHED
 62
   234
100
AcDbLine
 10
165.905296
 20
228.0883
 11
201.994229
 21
228.0883
  0
LINE
  5
16A
100
AcDbEntity
  8
M0
 62
     4
100
AcDbLine
 10
115.345296
 20
207.651374
 11
115.345296
 21
184.8883
  0
LINE
  5
16B
100
AcDbEntity
  8
M0
 62
     4
100
AcDbLine
 10
113.998724
 20
220.047451
 11
115.314715
 21
208.203532
  0
ARC
  5
16C
100
AcDbEntity
  8
M0
 62
     4
100
AcDbCircle
 10
110.345296
 20
207.651374
 40
5.0
100
AcDbArc
 50
3.256888E-013
 51
6.340192
  0
ARC
  5
16D
100
AcDbEntity
  8
M0
 62
     4
100
AcDbCircle
 10
109.029305
 20
219.495293
 40
5.0
100
AcDbArc
 50
6.340192
 51
53.130102
  0
ARC
  5
16E
100
AcDbEntity
  8
M0
 62
     4
100
AcDbCircle
 10
109.590082
 20
214.4483
 40
5.0
100
AcDbArc
 50
6.340192
 51
90.0
  0
LINE
  5
16F
100
AcDbEntity
  8
M0
  6
DASHED
 62
     4
100
AcDbLine
 10
98.505296
 20
219.4483
 11
109.590082
 21
219.4483
  0
LINE
  5
170
100
AcDbEntity
  8
M0
 62
     4
100
AcDbLine
 10
93.79863
 20
237.1683
 11
112.029305
 21
223.495293
  0
ARC
  5
171
100
AcDbEntity
  8
M0
 62
     4
100
AcDbCircle
 10
90.79863
 20
233.1683
 40
5.0
100
AcDbArc
 50
53.130102
 51
90.0
  0
LINE
  5
172
100
AcDbEntity
  8
M0
  6
DASHED
 62
     4
100
AcDbLine
 10
90.79863
 20
238.1683
 11
57.905296
 21
238.1683
  0
ARC
  5
173
100
AcDbEntity
  8
M0
 62
    74
100
AcDbCircle
 10
175.312405
 20
116.56921
 40
2.0
100
AcDbArc
 50
26.565051
 51
90.0
  0
LINE
  5
174
100
AcDbEntity
  8
M0
 62
    74
100
AcDbLine
 10
179.217327
 20
113.231501
 11
177.101259
 21
117.463637
  0
ARC
  5
175
100
AcDbEntity
  8
M0
 62
    74
100
AcDbCircle
 10
177.428473
 20
112.337074
 40
2.0
100
AcDbArc
 50
0.0
 51
26.565051
  0
LINE
  5
176
100
AcDbEntity
  8
M0
 62
    74
100
AcDbLine
 10
179.428473
 20
84.00921
 11
179.428473
 21
112.337074
  0
LINE
  5
177
100
AcDbEntity
  8
M0
 62
     3
100
AcDbLine
 10
298.149661
 20
207.55151
 11
298.149661
 21
193.406743
  0
ARC
  5
178
100
AcDbEntity
  8
M0
 62
     3
100
AcDbCircle
 10
296.349661
 20
207.55151
 40
1.8
100
AcDbArc
 50
0.0
 51
28.61046
  0
LINE
  5
179
100
AcDbEntity
  8
M0
 62
     3
100
AcDbLine
 10
288.450425
 20
225.792433
 11
297.929873
 21
208.413444
  0
ARC
  5
17A
100
AcDbEntity
  8
M0
 62
     3
100
AcDbCircle
 10
286.870213
 20
224.930499
 40
1.8
100
AcDbArc
 50
28.61046
 51
90.0
  0
LINE
  5
17B
100
AcDbEntity
  8
M0
 62
    74
100
AcDbLine
 10
283.690158
 20
157.610499
 11
348.490158
 21
157.610499
  0
LINE
  5
17C
100
AcDbEntity
  8
M0
 62
    74
100
AcDbLine
 10
283.690158
 20
236.810499
 11
283.690158
 21
157.610499
  0
LINE
  5
17D
100
AcDbEntity
  8
M0
 62
    74
100
AcDbLine
 10
283.690158
 20
172.010499
 11
348.490158
 21
172.010499
  0
LINE
  5
17E
100
AcDbEntity
  8
M0
 62
    74
100
AcDbLine
 10
283.690158
 20
186.410499
 11
348.490158
 21
186.410499
  0
LINE
  5
17F
100
AcDbEntity
  8
M0
 62
    74
100
AcDbLine
 10
312.490158
 20
200.810499
 11
312.490158
 21
215.210499
  0
LINE
  5
180
100
AcDbEntity
  8
M0
 62
    74
100
AcDbLine
 10
283.690158
 20
215.210499
 11
348.490158
 21
215.210499
  0
LINE
  5
181
100
AcDbEntity
  8
M0
 62
    74
100
AcDbLine
 10
283.690158
 20
200.810499
 11
348.490158
 21
200.810499
  0
LINE
  5
182
100
AcDbEntity
  8
M0
 62
    74
100
AcDbLine
 10
283.690158
 20
229.610499
 11
348.490158
 21
229.610499
  0
ARC
  5
183
100
AcDbEntity
  8
M0
 62
    74
100
AcDbCircle
 10
269.689917
 20
183.061148
 40
4.8384
100
AcDbArc
 50
52.58592
 51
127.41408
  0
ARC
  5
184
100
AcDbEntity
  8
M0
 62
    74
100
AcDbCircle
 10
269.689917
 20
186.097721
 40
4.8384
100
AcDbArc
 50
232.58592
 51
307.41408
  0
TEXT
  5
185
100
AcDbEntity
  8
M0
 62
    74
100
AcDbText
 10
267.673921
 20
197.522593
 40
3.2256
  1
全
 41
1.25
  7
STANDARD
100
AcDbText
  0
TEXT
  5
186
100
AcDbEntity
  8
M0
 62
    74
100
AcDbText
 10
267.673921
 20
193.974433
 40
3.2256
  1
揚
 41
1.25
  7
STANDARD
100
AcDbText
  0
TEXT
  5
187
100
AcDbEntity
  8
M0
 62
    74
100
AcDbText
 10
267.673921
 20
190.426273
 40
3.2256
  1
程
 41
1.25
  7
STANDARD
100
AcDbText
  0
TEXT
  5
188
100
AcDbEntity
  8
M0
 62
    74
100
AcDbText
 10
267.673921
 20
186.878113
 40
3.2256
  1
　
 41
1.25
  7
STANDARD
100
AcDbText
  0
TEXT
  5
189
100
AcDbEntity
  8
M0
 62
    74
100
AcDbText
 10
267.673921
 20
183.329954
 40
3.2256
  1
ｍ
 41
1.25
  7
STANDARD
100
AcDbText
  0
TEXT
  5
18A
100
AcDbEntity
  8
M0
 62
    74
100
AcDbText
 10
275.121975
 20
198.758469
 40
4.32
  1
３０
 41
0.611111
  7
STANDARD
100
AcDbText
  0
TEXT
  5
18B
100
AcDbEntity
  8
M0
 62
    74
100
AcDbText
 10
275.121975
 20
184.358468
 40
4.32
  1
２０
 41
0.611111
  7
STANDARD
100
AcDbText
  0
TEXT
  5
18C
100
AcDbEntity
  8
M0
 62
    74
100
AcDbText
 10
275.121975
 20
169.958474
 40
4.32
  1
１０
 41
0.611111
  7
STANDARD
100
AcDbText
  0
TEXT
  5
18D
100
AcDbEntity
  8
M0
 62
    74
100
AcDbText
 10
278.001972
 20
155.558468
 40
4.32
  1
０
 41
0.611111
  7
STANDARD
100
AcDbText
  0
TEXT
  5
18E
100
AcDbEntity
  8
M0
 62
    74
100
AcDbText
 10
280.881984
 20
150.372662
 40
4.32
  1
０
 41
0.611111
  7
STANDARD
100
AcDbText
  0
TEXT
  5
18F
100
AcDbEntity
  8
M0
 62
    74
100
AcDbText
 10
309.681955
 20
150.372662
 40
4.32
  1
２０
 41
0.611111
  7
STANDARD
100
AcDbText
  0
TEXT
  5
190
100
AcDbEntity
  8
M0
 62
    74
100
AcDbText
 10
338.481983
 20
150.372662
 40
4.32
  1
４０
 41
0.611111
  7
STANDARD
100
AcDbText
  0
TEXT
  5
191
100
AcDbEntity
  8
M0
 62
    74
100
AcDbText
 10
304.628967
 20
143.781901
 40
4.8384
  1
揚水量（Ｌ／分）
 41
0.611111
  7
STANDARD
100
AcDbText
  0
TEXT
  5
192
100
AcDbEntity
  8
M0
 62
    74
100
AcDbText
 10
295.281982
 20
150.372662
 40
4.32
  1
１０
 41
0.611111
  7
STANDARD
100
AcDbText
  0
TEXT
  5
193
100
AcDbEntity
  8
M0
 62
    74
100
AcDbText
 10
324.081983
 20
150.372662
 40
4.32
  1
３０
 41
0.611111
  7
STANDARD
100
AcDbText
  0
TEXT
  5
194
100
AcDbEntity
  8
M0
 62
    74
100
AcDbText
 10
275.121975
 20
213.158471
 40
4.32
  1
４０
 41
0.611111
  7
STANDARD
100
AcDbText
  0
TEXT
  5
195
100
AcDbEntity
  8
M0
 62
    74
100
AcDbText
 10
275.121975
 20
227.558472
 40
4.32
  1
５０
 41
0.611111
  7
STANDARD
100
AcDbText
  0
LINE
  5
196
100
AcDbEntity
  8
M0
 62
    74
100
AcDbLine
 10
312.490158
 20
215.210499
 11
312.490158
 21
236.848002
  0
LINE
  5
197
100
AcDbEntity
  8
M0
 62
    74
100
AcDbLine
 10
326.890158
 20
200.810499
 11
326.890158
 21
217.871736
  0
LINE
  5
198
100
AcDbEntity
  8
M0
 62
    74
100
AcDbLine
 10
341.290158
 20
200.810499
 11
341.290158
 21
236.923008
  0
LINE
  5
199
100
AcDbEntity
  8
M0
 62
    74
100
AcDbLine
 10
57.908473
 20
33.60921
 11
122.708473
 21
33.60921
  0
LINE
  5
19A
100
AcDbEntity
  8
M0
 62
    74
100
AcDbLine
 10
57.908473
 20
120.00921
 11
57.908473
 21
33.60921
  0
LINE
  5
19B
100
AcDbEntity
  8
M0
 62
    74
100
AcDbLine
 10
86.708473
 20
33.60921
 11
86.708473
 21
76.80921
  0
LINE
  5
19C
100
AcDbEntity
  8
M0
 62
    74
100
AcDbLine
 10
115.508473
 20
33.60921
 11
115.508473
 21
120.00921
  0
LINE
  5
19D
100
AcDbEntity
  8
M0
 62
    74
100
AcDbLine
 10
57.908473
 20
48.00921
 11
122.708473
 21
48.00921
  0
LINE
  5
19E
100
AcDbEntity
  8
M0
 62
    74
100
AcDbLine
 10
57.908473
 20
62.40921
 11
122.708473
 21
62.40921
  0
LINE
  5
19F
100
AcDbEntity
  8
M0
 62
    74
100
AcDbLine
 10
86.708473
 20
76.80921
 11
86.708473
 21
91.20921
  0
LINE
  5
1A0
100
AcDbEntity
  8
M0
 62
    74
100
AcDbLine
 10
72.308473
 20
33.60921
 11
72.308473
 21
120.00921
  0
LINE
  5
1A1
100
AcDbEntity
  8
M0
 62
    74
100
AcDbLine
 10
101.108473
 20
33.60921
 11
101.108473
 21
96.263988
  0
LINE
  5
1A2
100
AcDbEntity
  8
M0
 62
    74
100
AcDbLine
 10
57.908473
 20
91.20921
 11
122.708473
 21
91.20921
  0
LINE
  5
1A3
100
AcDbEntity
  8
M0
 62
    74
100
AcDbLine
 10
57.908473
 20
76.80921
 11
122.708473
 21
76.80921
  0
LINE
  5
1A4
100
AcDbEntity
  8
M0
 62
    74
100
AcDbLine
 10
57.908473
 20
105.60921
 11
122.708473
 21
105.60921
  0
LINE
  5
1A5
100
AcDbEntity
  8
M0
 62
    74
100
AcDbLine
 10
86.708473
 20
91.20921
 11
86.708473
 21
120.00921
  0
ARC
  5
1A6
100
AcDbEntity
  8
M0
 62
    74
100
AcDbCircle
 10
43.908232
 20
59.059859
 40
4.8384
100
AcDbArc
 50
52.58592
 51
127.41408
  0
ARC
  5
1A7
100
AcDbEntity
  8
M0
 62
    74
100
AcDbCircle
 10
43.908232
 20
62.096433
 40
4.8384
100
AcDbArc
 50
232.58592
 51
307.41408
  0
TEXT
  5
1A8
100
AcDbEntity
  8
M0
 62
    74
100
AcDbText
 10
41.892247
 20
73.521303
 40
3.2256
  1
全
 41
1.25
  7
STANDARD
100
AcDbText
  0
TEXT
  5
1A9
100
AcDbEntity
  8
M0
 62
    74
100
AcDbText
 10
41.892247
 20
69.973143
 40
3.2256
  1
揚
 41
1.25
  7
STANDARD
100
AcDbText
  0
TEXT
  5
1AA
100
AcDbEntity
  8
M0
 62
    74
100
AcDbText
 10
41.892247
 20
66.424984
 40
3.2256
  1
程
 41
1.25
  7
STANDARD
100
AcDbText
  0
TEXT
  5
1AB
100
AcDbEntity
  8
M0
 62
    74
100
AcDbText
 10
41.892247
 20
62.876824
 40
3.2256
  1
　
 41
1.25
  7
STANDARD
100
AcDbText
  0
TEXT
  5
1AC
100
AcDbEntity
  8
M0
 62
    74
100
AcDbText
 10
41.892247
 20
59.328664
 40
3.2256
  1
ｍ
 41
1.25
  7
STANDARD
100
AcDbText
  0
TEXT
  5
1AD
100
AcDbEntity
  8
M0
 62
    74
100
AcDbText
 10
49.34029
 20
74.75718
 40
4.32
  1
３０
 41
0.611111
  7
STANDARD
100
AcDbText
  0
TEXT
  5
1AE
100
AcDbEntity
  8
M0
 62
    74
100
AcDbText
 10
49.34029
 20
60.357178
 40
4.32
  1
２０
 41
0.611111
  7
STANDARD
100
AcDbText
  0
TEXT
  5
1AF
100
AcDbEntity
  8
M0
 62
    74
100
AcDbText
 10
49.34029
 20
45.957184
 40
4.32
  1
１０
 41
0.611111
  7
STANDARD
100
AcDbText
  0
TEXT
  5
1B0
100
AcDbEntity
  8
M0
 62
    74
100
AcDbText
 10
52.220295
 20
31.557183
 40
4.32
  1
０
 41
0.611111
  7
STANDARD
100
AcDbText
  0
TEXT
  5
1B1
100
AcDbEntity
  8
M0
 62
    74
100
AcDbText
 10
55.100315
 20
26.371361
 40
4.32
  1
０
 41
0.611111
  7
STANDARD
100
AcDbText
  0
TEXT
  5
1B2
100
AcDbEntity
  8
M0
 62
    74
100
AcDbText
 10
83.900272
 20
26.371361
 40
4.32
  1
２０
 41
0.611111
  7
STANDARD
100
AcDbText
  0
TEXT
  5
1B3
100
AcDbEntity
  8
M0
 62
    74
100
AcDbText
 10
112.700306
 20
26.371361
 40
4.32
  1
４０
 41
0.611111
  7
STANDARD
100
AcDbText
  0
TEXT
  5
1B4
100
AcDbEntity
  8
M0
 62
    74
100
AcDbText
 10
78.847274
 20
19.780617
 40
4.8384
  1
揚水量（Ｌ／分）
 41
0.611111
  7
STANDARD
100
AcDbText
  0
TEXT
  5
1B5
100
AcDbEntity
  8
M0
 62
    74
100
AcDbText
 10
69.500309
 20
26.371361
 40
4.32
  1
１０
 41
0.611111
  7
STANDARD
100
AcDbText
  0
TEXT
  5
1B6
100
AcDbEntity
  8
M0
 62
    74
100
AcDbText
 10
98.300297
 20
26.371361
 40
4.32
  1
３０
 41
0.611111
  7
STANDARD
100
AcDbText
  0
TEXT
  5
1B7
100
AcDbEntity
  8
M0
 62
    74
100
AcDbText
 10
49.34029
 20
89.157189
 40
4.32
  1
４０
 41
0.611111
  7
STANDARD
100
AcDbText
  0
TEXT
  5
1B8
100
AcDbEntity
  8
M0
 62
    74
100
AcDbText
 10
49.34029
 20
103.557183
 40
4.32
  1
５０
 41
0.611111
  7
STANDARD
100
AcDbText
  0
LINE
  5
1B9
100
AcDbEntity
  8
M0
 62
    74
100
AcDbLine
 10
341.290158
 20
157.610499
 11
341.290158
 21
200.810499
  0
LINE
  5
1BA
100
AcDbEntity
  8
M0
 62
    74
100
AcDbLine
 10
326.890158
 20
157.610499
 11
326.890158
 21
200.810499
  0
LINE
  5
1BB
100
AcDbEntity
  8
M0
 62
    74
100
AcDbLine
 10
312.490158
 20
157.610499
 11
312.490158
 21
200.810499
  0
LINE
  5
1BC
100
AcDbEntity
  8
M0
 62
    74
100
AcDbLine
 10
298.090158
 20
157.610499
 11
298.090158
 21
236.810499
  0
LINE
  5
1BD
100
AcDbEntity
  8
M0
 62
    74
100
AcDbLine
 10
122.708473
 20
120.00921
 11
57.908473
 21
120.00921
  0
TEXT
  5
1BE
100
AcDbEntity
  8
M0
 62
    74
100
AcDbText
 10
49.34029
 20
117.957184
 40
4.32
  1
６０
 41
0.611111
  7
STANDARD
100
AcDbText
  0
LINE
  5
1BF
100
AcDbEntity
  8
M0
 62
    74
100
AcDbLine
 10
326.890158
 20
227.542109
 11
326.890158
 21
236.885505
  0
LINE
  5
1C0
100
AcDbEntity
  8
M0
 62
    74
100
AcDbLine
 10
312.490158
 20
210.854885
 11
312.490158
 21
215.210499
  0
LINE
  5
1C1
100
AcDbEntity
  8
M0
 62
    74
100
AcDbLine
 10
101.108473
 20
105.60921
 11
101.108473
 21
120.00921
  0
TEXT
  5
1C2
100
AcDbEntity
  8
M0
 62
    74
100
AcDbText
 10
280.714516
 20
136.121628
 40
4.05
  1
※破線部域では６０ｋＰａの圧力変動があります。
 41
0.777778
  7
STANDARD
100
AcDbText
  0
TEXT
  5
1C3
100
AcDbEntity
  8
M0
 62
    74
100
AcDbText
 10
54.932823
 20
12.120339
 40
4.05
  1
※破線部域では６０ｋＰａの圧力変動があります。
 41
0.777778
  7
STANDARD
100
AcDbText
  0
TEXT
  5
1C4
100
AcDbEntity
  8
M0
 62
    74
100
AcDbText
 10
284.315155
 20
242.573014
 40
4.05
  1
㏍
 41
0.555556
  7
STANDARD
100
AcDbText
  0
TEXT
  5
1C5
100
AcDbEntity
  8
M0
 62
    74
100
AcDbText
 10
55.650414
 20
131.1512
 40
4.05
  1
〟　ＤＭ－Ｐ６００Ｗ　＋　深井戸専用ジェット（Ｊ７５－３５Ｗ）使用時
 41
0.555556
  7
STANDARD
100
AcDbText
  0
TEXT
  5
1C6
100
AcDbEntity
  8
M0
 62
    74
100
AcDbText
 10
55.650414
 20
126.1512
 40
4.05
  1
№　ＤＭ－Ｋ７５０Ｗ　＋　深井戸専用ジェット（Ｊ７５－３５Ｗ）使用時
 41
0.555556
  7
STANDARD
100
AcDbText
  0
TEXT
  5
1C7
100
AcDbEntity
  8
M0
 62
    74
100
AcDbText
 10
284.315155
 20
256.581238
 40
4.05
  1
〟　ＤＭ－Ｐ６００Ｗ　＋　深井戸専用ジェット（Ｊ７５－２４Ｗ）使用時
 41
0.555556
  7
STANDARD
100
AcDbText
  0
TEXT
  5
1C8
100
AcDbEntity
  8
M0
 62
    74
100
AcDbText
 10
284.315155
 20
251.581238
 40
4.05
  1
№　ＤＭ－Ｋ７５０Ｗ　＋　深井戸専用ジェット（Ｊ７５－２４Ｗ）使用時
 41
0.555556
  7
STANDARD
100
AcDbText
  0
TEXT
  5
1C9
100
AcDbEntity
  8
M0
 62
    74
100
AcDbText
 10
284.315155
 20
244.573014
 40
4.05
  1
　　ＤＭ－Ｐ６００Ｗ　＋　深井戸用シングルジェット（Ｊ４０－２４ＳＷ）使用時
 41
0.555556
  7
STANDARD
100
AcDbText
  0
TEXT
  5
1CA
100
AcDbEntity
  8
M0
 62
    74
100
AcDbText
 10
284.315155
 20
239.573021
 40
4.05
  1
　　ＤＭ－Ｋ７５０Ｗ　＋　深井戸用シングルジェット（Ｊ４０－２４ＳＷ）使用時
 41
0.555556
  7
STANDARD
100
AcDbText
  0
LINE
  5
1CB
100
AcDbEntity
  8
M0
 62
   154
100
AcDbLine
 10
209.105296
 20
213.6883
 11
204.785296
 21
222.3283
  0
LINE
  5
1CC
100
AcDbEntity
  8
M0
 62
   154
100
AcDbLine
 10
186.881469
 20
240.953353
 11
204.785296
 21
222.3283
  0
ARC
  5
1CD
100
AcDbEntity
  8
M0
 62
   154
100
AcDbCircle
 10
197.119215
 20
223.0883
 40
5.0
100
AcDbArc
 50
43.8689
 51
90.0
  0
ARC
  5
1CE
100
AcDbEntity
  8
M0
 62
   154
100
AcDbCircle
 10
183.276832
 20
237.4883
 40
5.0
100
AcDbArc
 50
43.8689
 51
90.0
  0
LINE
  5
1CF
100
AcDbEntity
  8
M0
  6
DASHED
 62
   154
100
AcDbLine
 10
165.905296
 20
242.4883
 11
183.276832
 21
242.4883
  0
LINE
  5
1D0
100
AcDbEntity
  8
M0
 62
   154
100
AcDbLine
 10
209.105296
 20
213.6883
 11
209.105296
 21
192.873743
  0
LINE
  5
1D1
100
AcDbEntity
  8
M0
 62
     2
100
AcDbLine
 10
78.068473
 20
76.80921
 11
78.068473
 21
105.137074
  0
ARC
  5
1D2
100
AcDbEntity
  8
M0
 62
     2
100
AcDbCircle
 10
76.068473
 20
105.137074
 40
2.0
100
AcDbArc
 50
0.0
 51
26.565051
  0
LINE
  5
1D3
100
AcDbEntity
  8
M0
 62
     2
100
AcDbLine
 10
77.857327
 20
106.031501
 11
75.741259
 21
110.263637
  0
ARC
  5
1D4
100
AcDbEntity
  8
M0
 62
     2
100
AcDbCircle
 10
73.952405
 20
109.36921
 40
2.0
100
AcDbArc
 50
26.565051
 51
90.0
  0
LINE
  5
1D5
100
AcDbEntity
  8
M0
  6
DASHED
 62
     2
100
AcDbLine
 10
57.908473
 20
111.36921
 11
73.952405
 21
111.36921
  0
ENDSEC
  0
SECTION
  2
OBJECTS
  0
DICTIONARY
  5
C
100
AcDbDictionary
  3
ACAD_GROUP
350
D
  3
ACAD_MLINESTYLE
350
E
  0
DICTIONARY
  5
D
102
{ACAD_REACTORS
330
C
102
}
100
AcDbDictionary
  0
DICTIONARY
  5
E
102
{ACAD_REACTORS
330
C
102
}
100
AcDbDictionary
  3
STANDARD
350
13
  0
MLINESTYLE
  5
13
102
{ACAD_REACTORS
330
E
102
}
100
AcDbMlineStyle
  2
STANDARD
 70
     0
  3

 62
     0
 51
90.0
 52
90.0
 71
     2
 49
0.5
 62
   256
  6
BYLAYER
 49
-0.5
 62
   256
  6
BYLAYER
  0
ENDSEC
  0
EOF
