  0
SECTION
  2
HEADER
  9
$ACADVER
  1
AC1012
  9
$INSBASE
 10
0.0
 20
0.0
  9
$VIEWCTR
 10
7.531722
 20
4.5
  9
$VIEWSIZE
 40
9.0
  9
$SNAPMODE
 70
     0
  9
$SNAPUNIT
 10
1.0
 20
1.0
  9
$SNAPBASE
 10
0.0
 20
0.0
  9
$SNAPANG
 50
0.0
  9
$SNAPSTYLE
 70
     0
  9
$SNAPISOPAIR
 70
     0
  9
$GRIDMODE
 70
     0
  9
$GRIDUNIT
 10
0.0
 20
0.0
  9
$ORTHOMODE
 70
     0
  9
$REGENMODE
 70
     1
  9
$FILLMODE
 70
     1
  9
$QTEXTMODE
 70
     0
  9
$DRAGMODE
 70
     2
  9
$LTSCALE
 40
1.0
  9
$OSMODE
 70
     0
  9
$ATTMODE
 70
     1
  9
$TEXTSIZE
 40
0.2
  9
$TRACEWID
 40
0.05
  9
$TEXTSTYLE
  7
STANDARD
  9
$CELTYPE
  6
BYLAYER
  9
$CECOLOR
 62
   256
  9
$DIMSCALE
 40
1.0
  9
$DIMASZ
 40
0.18
  9
$DIMEXO
 40
0.0625
  9
$DIMDLI
 40
0.38
  9
$DIMRND
 40
0.0
  9
$DIMDLE
 40
0.0
  9
$DIMEXE
 40
0.18
  9
$DIMTP
 40
0.0
  9
$DIMTM
 40
0.0
  9
$DIMTXT
 40
0.18
  9
$DIMCEN
 40
0.09
  9
$DIMTSZ
 40
0.0
  9
$DIMTOL
 70
     0
  9
$DIMLIM
 70
     0
  9
$DIMTIH
 70
     1
  9
$DIMTOH
 70
     1
  9
$DIMSE1
 70
     0
  9
$DIMSE2
 70
     0
  9
$DIMTAD
 70
     0
  9
$DIMZIN
 70
     0
  9
$DIMBLK
  1

  9
$LUNITS
 70
     2
  9
$LUPREC
 70
     4
  9
$AXISMODE
 70
     0
  9
$AXISUNIT
 10
0.0
 20
0.0
  9
$SKETCHINC
 40
0.1
  9
$FILLETRAD
 40
0.0
  9
$AUNITS
 70
     0
  9
$AUPREC
 70
     0
  9
$MENU
  1
ACAD
  9
$ELEVATION
 40
0.0
  9
$THICKNESS
 40
0.0
  9
$VIEWDIR
 10
0.0
 20
0.0
 30
1.0
  9
$LIMCHECK
 70
     0
  9
$BLIPMODE
 70
     1
  9
$CHAMFERA
 40
0.0
  9
$CHAMFERB
 40
0.0
  9
$FASTZOOM
 70
     1
  9
$SKPOLY
 70
     0
  9
$TDCREATE
 40
0000000.0000000000
  9
$TDUPDATE
 40
0000000.0000000000
  9
$TDINDWG
 40
0.0000000000
  9
$TDUSRTIMER
 40
0.0000000000
  9
$USRTIMER
 70
     1
  9
$ANGBASE
 50
0.0
  9
$ANGDIR
 70
     0
  9
$PDMODE
 70
     0
  9
$PDSIZE
 40
0.0
  9
$PLINEWID
 40
0.0
  9
$COORDS
 70
     0
  9
$USERI1
 70
     0
  9
$USERI2
 70
     0
  9
$USERI3
 70
     0
  9
$USERI4
 70
     0
  9
$USERI5
 70
     0
  9
$USERR1
 40
0.0
  9
$USERR2
 40
0.0
  9
$USERR3
 40
0.0
  9
$USERR4
 40
0.0
  9
$USERR5
 40
0.0
  9
$CLAYER
  8
M0
  9
$EXTMIN
 10
0.0
 20
0.0
  9
$EXTMAX
 10
420.0
 20
297.0
  9
$LIMMIN
 10
0.0
 20
0.0
  9
$LIMMAX
 10
420.0
 20
297.0
  9
$HANDSEED
  5
139
  0
ENDSEC
  0
SECTION
  2
CLASSES
  0
ENDSEC
  0
SECTION
  2
TABLES
  0
TABLE
  2
VPORT
  5
8
100
AcDbSymbolTable
 70
     2
  0
VPORT
  5
14
100
AcDbSymbolTableRecord
100
AcDbViewportTableRecord
  2
*ACTIVE
 70
     0
 10
0.0
 20
0.0
 11
1.0
 21
1.0
 12
484.0
 22
297.0
 13
0.0
 23
0.0
 14
1.0
 24
1.0
 15
0.0
 25
0.0
 16
0.0
 26
0.0
 36
1.0
 17
0.0
 27
0.0
 37
0.0
 40
594.0
 41
2.0
 42
50.0
 43
0.0
 44
0.0
 50
0.0
 51
0.0
 71
     0
 72
   100
 73
     1
 74
     1
 75
     0
 76
     0
 77
     0
 78
     0
  0
ENDTAB
  0
TABLE
  2
LTYPE
  5
5
100
AcDbSymbolTable
 70
     5
  0
LTYPE
  5
15
100
AcDbSymbolTableRecord
100
AcDbLinetypeTableRecord
  2
BYBLOCK
 70
     0
  3

 72
    65
 73
     0
 40
0.0
  0
LTYPE
  5
16
100
AcDbSymbolTableRecord
100
AcDbLinetypeTableRecord
  2
BYLAYER
 70
     0
  3

 72
    65
 73
     0
 40
0.0
  0
LTYPE
  5
17
100
AcDbSymbolTableRecord
100
AcDbLinetypeTableRecord
  2
CONTINUOUS
 70
    64
  3
Solid line
 72
    65
 73
     0
 40
0.0
  0
LTYPE
  5
18
100
AcDbSymbolTableRecord
100
AcDbLinetypeTableRecord
  2
DASHED
 70
    64
  3
__ __ __ __ __ __ __ __ __ __ __ __ __ __ __ __
 72
    65
 73
     2
 40
0.75
 49
0.5
 74
     0
 49
-0.25
 74
     0
  0
LTYPE
  5
19
100
AcDbSymbolTableRecord
100
AcDbLinetypeTableRecord
  2
DASHDOT
 70
    64
  3
__ . __ . __ . __ . __ . __ . __ . __ . __ . __
 72
    65
 73
     4
 40
1.0
 49
0.5
 74
     0
 49
-0.25
 74
     0
 49
0.0
 74
     0
 49
-0.25
 74
     0
  0
LTYPE
  5
1A
100
AcDbSymbolTableRecord
100
AcDbLinetypeTableRecord
  2
DIVIDE
 70
    64
  3
____ . . ____ . . ____ . . ____ . . ____ . . __
 72
    65
 73
     6
 40
1.25
 49
0.5
 74
     0
 49
-0.25
 74
     0
 49
0.0
 74
     0
 49
-0.25
 74
     0
 49
0.0
 74
     0
 49
-0.25
 74
     0
  0
LTYPE
  5
1B
100
AcDbSymbolTableRecord
100
AcDbLinetypeTableRecord
  2
DOT
 70
    64
  3
. . . . . . . . . . . . . . . . . . . . . . . .
 72
    65
 73
     2
 40
0.25
 49
0.0
 74
     0
 49
-0.25
 74
     0
  0
ENDTAB
  0
TABLE
  2
LAYER
  5
2
100
AcDbSymbolTable
 70
   102
  0
LAYER
  5
F
100
AcDbSymbolTableRecord
100
AcDbLayerTableRecord
  2
0
 70
     0
 62
     7
  6
CONTINUOUS
  0
LAYER
  5
1C
100
AcDbSymbolTableRecord
100
AcDbLayerTableRecord
  2
DEFPOINTS
 70
     0
 62
     7
  6
CONTINUOUS
  0
LAYER
  5
1D
100
AcDbSymbolTableRecord
100
AcDbLayerTableRecord
  2
M0
 70
     0
 62
     3
  6
CONTINUOUS
  0
LAYER
  5
1E
100
AcDbSymbolTableRecord
100
AcDbLayerTableRecord
  2
DD0
 70
     0
 62
     4
  6
CONTINUOUS
  0
ENDTAB
  0
TABLE
  2
STYLE
  5
3
100
AcDbSymbolTable
 70
     2
  0
STYLE
  5
10
100
AcDbSymbolTableRecord
100
AcDbTextStyleTableRecord
  2
STANDARD
 70
     0
 40
0.0
 41
1.0
 50
0.0
 71
     0
 42
0.2
  3
txt
  4
BIGFONT
  0
ENDTAB
  0
TABLE
  2
VIEW
  5
6
100
AcDbSymbolTable
 70
     0
  0
ENDTAB
  0
TABLE
  2
UCS
  5
7
100
AcDbSymbolTable
 70
     0
  0
ENDTAB
  0
TABLE
  2
APPID
  5
9
100
AcDbSymbolTable
 70
     1
  0
APPID
  5
11
100
AcDbSymbolTableRecord
100
AcDbRegAppTableRecord
  2
ACAD
 70
     0
  0
ENDTAB
  0
TABLE
  2
DIMSTYLE
  5
A
100
AcDbSymbolTable
 70
     2
  0
DIMSTYLE
105
25
100
AcDbSymbolTableRecord
100
AcDbDimStyleTableRecord
  2
STANDARD
 70
     0
  3

  4

  5

  6
_OPEN
  7
_OPEN
 40
1.0
 41
3.0
 42
0.0
 43
8.0
 44
1.5
 45
0.0
 46
0.0
 47
0.0
 48
0.0
140
3.5
141
0.09
142
0.0
143
0.03937
144
1.0
145
0.0
146
1.0
147
1.0
 71
     0
 72
     0
 73
     0
 74
     0
 75
     0
 76
     0
 77
     3
 78
     8
170
     0
171
     2
172
     0
173
     1
174
     0
175
     0
176
     0
177
     0
178
     0
270
     2
271
     2
272
     4
273
     2
274
     2
340
10
275
     0
280
     0
281
     0
282
     0
283
     1
284
     0
285
     0
286
     0
287
     3
288
     0
  0
DIMSTYLE
105
26
100
AcDbSymbolTableRecord
100
AcDbDimStyleTableRecord
  2
LEADSTYL
 70
     0
  3

  4

  5

  6
_OPEN
  7
_OPEN
 40
1.0
 41
3.0
 42
0.0625
 43
0.38
 44
0.18
 45
0.0
 46
0.0
 47
0.0
 48
0.0
140
3.2
141
0.09
142
0.0
143
25.4
144
1.0
145
0.0
146
1.0
147
1.0
 71
     0
 72
     0
 73
     1
 74
     1
 75
     0
 76
     0
 77
     0
 78
     0
170
     0
171
     2
172
     0
173
     1
174
     0
175
     0
176
     0
177
     0
178
     0
270
     2
271
     4
272
     4
273
     2
274
     2
340
10
275
     0
280
     0
281
     0
282
     0
283
     1
284
     0
285
     0
286
     0
287
     3
288
     0
  0
ENDTAB
  0
TABLE
  2
BLOCK_RECORD
  5
1
100
AcDbSymbolTable
 70
    10
  0
BLOCK_RECORD
  5
1F
100
AcDbSymbolTableRecord
100
AcDbBlockTableRecord
  2
*MODEL_SPACE
  0
BLOCK_RECORD
  5
22
100
AcDbSymbolTableRecord
100
AcDbBlockTableRecord
  2
*PAPER_SPACE
  0
BLOCK_RECORD
  5
27
100
AcDbSymbolTableRecord
100
AcDbBlockTableRecord
  2
_NONE
  0
BLOCK_RECORD
  5
2B
100
AcDbSymbolTableRecord
100
AcDbBlockTableRecord
  2
_OPEN
  0
BLOCK_RECORD
  5
31
100
AcDbSymbolTableRecord
100
AcDbBlockTableRecord
  2
_CLOSED
  0
BLOCK_RECORD
  5
38
100
AcDbSymbolTableRecord
100
AcDbBlockTableRecord
  2
_ORIGIN
  0
BLOCK_RECORD
  5
3D
100
AcDbSymbolTableRecord
100
AcDbBlockTableRecord
  2
_DOT
  0
BLOCK_RECORD
  5
45
100
AcDbSymbolTableRecord
100
AcDbBlockTableRecord
  2
_OBLIQUE
  0
BLOCK_RECORD
  5
4B
100
AcDbSymbolTableRecord
100
AcDbBlockTableRecord
  2
LEAD0
  0
BLOCK_RECORD
  5
52
100
AcDbSymbolTableRecord
100
AcDbBlockTableRecord
  2
LEAD1
  0
BLOCK_RECORD
  5
59
100
AcDbSymbolTableRecord
100
AcDbBlockTableRecord
  2
LEAD2
  0
BLOCK_RECORD
  5
60
100
AcDbSymbolTableRecord
100
AcDbBlockTableRecord
  2
LEAD3
  0
ENDTAB
  0
ENDSEC
  0
SECTION
  2
BLOCKS
  0
BLOCK
  5
20
100
AcDbEntity
  8
0
100
AcDbBlockBegin
  2
*MODEL_SPACE
 70
     0
 10
0.0
 20
0.0
 30
0.0
  3
*MODEL_SPACE
  1

  0
ENDBLK
  5
21
100
AcDbEntity
  8
0
100
AcDbBlockEnd
  0
BLOCK
  5
23
100
AcDbEntity
 67
     1
  8
0
100
AcDbBlockBegin
  2
*PAPER_SPACE
 70
     0
 10
0.0
 20
0.0
 30
0.0
  3
*PAPER_SPACE
  1

  0
ENDBLK
  5
24
100
AcDbEntity
 67
     1
  8
0
100
AcDbBlockEnd
  0
BLOCK
  5
28
100
AcDbEntity
  8
0
100
AcDbBlockBegin
  2
_NONE
 70
     0
 10
0.0
 20
0.0
  0
CIRCLE
  5
29
100
AcDbEntity
  8
0
 62
     0
100
AcDbCircle
 10
0.0
 20
0.0
 40
0.25
  0
ENDBLK
  5
2A
100
AcDbEntity
  8
0
100
AcDbBlockEnd
  0
BLOCK
  5
2C
100
AcDbEntity
  8
0
100
AcDbBlockBegin
  2
_OPEN
 70
     0
 10
0.0
 20
0.0
  0
LINE
  5
2D
100
AcDbEntity
  8
0
 62
     0
100
AcDbLine
 10
-0.965926
 20
0.258819
 11
0.0
 21
0.0
  0
LINE
  5
2E
100
AcDbEntity
  8
0
 62
     0
100
AcDbLine
 10
0.0
 20
0.0
 11
-0.965926
 21
-0.258819
  0
LINE
  5
2F
100
AcDbEntity
  8
0
 62
     0
100
AcDbLine
 10
0.0
 20
0.0
 11
-1.0
 21
0.0
  0
ENDBLK
  5
30
100
AcDbEntity
  8
0
100
AcDbBlockEnd
  0
BLOCK
  5
32
100
AcDbEntity
  8
0
100
AcDbBlockBegin
  2
_CLOSED
 70
     0
 10
0.0
 20
0.0
  0
LINE
  5
33
100
AcDbEntity
  8
0
 62
     0
100
AcDbLine
 10
-0.965926
 20
0.258819
 11
0.0
 21
0.0
  0
LINE
  5
34
100
AcDbEntity
  8
0
 62
     0
100
AcDbLine
 10
0.0
 20
0.0
 11
-0.965926
 21
-0.258819
  0
LINE
  5
35
100
AcDbEntity
  8
0
 62
     0
100
AcDbLine
 10
-0.965926
 20
0.258819
 11
-0.965926
 21
-0.258819
  0
LINE
  5
36
100
AcDbEntity
  8
0
 62
     0
100
AcDbLine
 10
0.0
 20
0.0
 11
-1.0
 21
0.0
  0
ENDBLK
  5
37
100
AcDbEntity
  8
0
100
AcDbBlockEnd
  0
BLOCK
  5
39
100
AcDbEntity
  8
0
100
AcDbBlockBegin
  2
_ORIGIN
 70
     0
 10
0.0
 20
0.0
  0
CIRCLE
  5
3A
100
AcDbEntity
  8
0
 62
     0
100
AcDbCircle
 10
0.0
 20
0.0
 40
0.5
  0
LINE
  5
3B
100
AcDbEntity
  8
0
 62
     0
100
AcDbLine
 10
0.0
 20
0.0
 11
-1.0
 21
0.0
  0
ENDBLK
  5
3C
100
AcDbEntity
  8
0
100
AcDbBlockEnd
  0
BLOCK
  5
3E
100
AcDbEntity
  8
0
100
AcDbBlockBegin
  2
_DOT
 70
     0
 10
0.0
 20
0.0
  0
POLYLINE
  5
3F
100
AcDbEntity
  8
0
 62
     0
100
AcDb2dPolyline
 66
     1
 70
     1
 40
0.5
 41
0.5
  0
VERTEX
  5
40
100
AcDbEntity
  8
0
 62
     0
100
AcDbVertex
100
AcDb2dVertex
 10
-0.25
 20
0.0
 42
1.0
  0
VERTEX
  5
41
100
AcDbEntity
  8
0
 62
     0
100
AcDbVertex
100
AcDb2dVertex
 10
0.25
 20
0.0
 42
1.0
  0
SEQEND
  5
42
100
AcDbEntity
  8
0
 62
     0
  0
LINE
  5
43
100
AcDbEntity
  8
0
 62
     0
100
AcDbLine
 10
-0.5
 20
0.0
 11
-1.0
 21
0.0
  0
ENDBLK
  5
44
100
AcDbEntity
  8
0
100
AcDbBlockEnd
  0
BLOCK
  5
46
100
AcDbEntity
  8
0
100
AcDbBlockBegin
  2
_OBLIQUE
 70
     0
 10
0.0
 20
0.0
  0
LINE
  5
47
100
AcDbEntity
  8
0
 62
     0
100
AcDbLine
 10
-0.353553
 20
-0.353553
 11
0.353553
 21
0.353553
  0
ENDBLK
  5
48
100
AcDbEntity
  8
0
100
AcDbBlockEnd
  0
BLOCK
  5
4C
100
AcDbEntity
  8
DD0
100
AcDbBlockBegin
  2
LEAD0
 70
     0
 10
0.0
 20
0.0
  0
CIRCLE
  5
4D
100
AcDbEntity
  8
DD0
100
AcDbCircle
 10
223.767837
 20
206.441452
 40
2.0
  0
TEXT
  5
4E
100
AcDbEntity
  8
DD0
100
AcDbText
 10
222.801171
 20
205.101452
 40
2.68
  1
１
 41
0.721393
  7
STANDARD
100
AcDbText
  0
ENDBLK
  5
4F
100
AcDbEntity
  8
DD0
100
AcDbBlockEnd
  0
BLOCK
  5
53
100
AcDbEntity
  8
DD0
100
AcDbBlockBegin
  2
LEAD1
 70
     0
 10
0.0
 20
0.0
  0
CIRCLE
  5
54
100
AcDbEntity
  8
DD0
100
AcDbCircle
 10
194.78064
 20
206.441452
 40
2.0
  0
TEXT
  5
55
100
AcDbEntity
  8
DD0
100
AcDbText
 10
193.813973
 20
205.101452
 40
2.68
  1
２
 41
0.721393
  7
STANDARD
100
AcDbText
  0
ENDBLK
  5
56
100
AcDbEntity
  8
DD0
100
AcDbBlockEnd
  0
BLOCK
  5
5A
100
AcDbEntity
  8
DD0
100
AcDbBlockBegin
  2
LEAD2
 70
     0
 10
0.0
 20
0.0
  0
CIRCLE
  5
5B
100
AcDbEntity
  8
DD0
100
AcDbCircle
 10
338.905884
 20
220.656067
 40
2.0
  0
TEXT
  5
5C
100
AcDbEntity
  8
DD0
100
AcDbText
 10
337.939217
 20
219.316067
 40
2.68
  1
３
 41
0.721393
  7
STANDARD
100
AcDbText
  0
ENDBLK
  5
5D
100
AcDbEntity
  8
DD0
100
AcDbBlockEnd
  0
BLOCK
  5
61
100
AcDbEntity
  8
DD0
100
AcDbBlockBegin
  2
LEAD3
 70
     0
 10
0.0
 20
0.0
  0
CIRCLE
  5
62
100
AcDbEntity
  8
DD0
100
AcDbCircle
 10
306.218903
 20
205.141876
 40
2.0
  0
TEXT
  5
63
100
AcDbEntity
  8
DD0
100
AcDbText
 10
305.252236
 20
203.801876
 40
2.68
  1
４
 41
0.721393
  7
STANDARD
100
AcDbText
  0
ENDBLK
  5
64
100
AcDbEntity
  8
DD0
100
AcDbBlockEnd
  0
ENDSEC
  0
SECTION
  2
ENTITIES
  0
LEADER
  5
49
100
AcDbEntity
  8
DD0
100
AcDbLeader
  3
LEADSTYL
 76
     2
 10
214.24527
 20
209.975128
 10
221.892776
 20
207.137253
212
221.892776
222
207.137253
340
4A
 77
     4
  0
INSERT
  5
4A
100
AcDbEntity
  8
DD0
100
AcDbBlockReference
  2
LEAD0
 10
0.0
 20
0.0
  0
LEADER
  5
50
100
AcDbEntity
  8
DD0
100
AcDbLeader
  3
LEADSTYL
 76
     2
 10
203.045258
 20
209.167542
 10
196.679977
 20
207.067947
212
196.679977
222
207.067947
340
51
 77
     4
  0
INSERT
  5
51
100
AcDbEntity
  8
DD0
100
AcDbBlockReference
  2
LEAD1
 10
0.0
 20
0.0
  0
LEADER
  5
57
100
AcDbEntity
  8
DD0
100
AcDbLeader
  3
LEADSTYL
 76
     2
 10
325.917328
 20
213.581833
 10
337.149506
 20
219.699448
212
337.149506
222
219.699448
340
58
 77
     4
  0
INSERT
  5
58
100
AcDbEntity
  8
DD0
100
AcDbBlockReference
  2
LEAD2
 10
0.0
 20
0.0
  0
LEADER
  5
5E
100
AcDbEntity
  8
DD0
100
AcDbLeader
  3
LEADSTYL
 76
     2
 10
317.917328
 20
209.995911
 10
308.066193
 20
205.908371
212
308.066193
222
205.908371
340
5F
 77
     4
  0
INSERT
  5
5F
100
AcDbEntity
  8
DD0
100
AcDbBlockReference
  2
LEAD3
 10
0.0
 20
0.0
  0
LEADER
  5
65
100
AcDbEntity
  8
DD0
100
AcDbLeader
  3
LEADSTYL
 76
     3
 10
67.255768
 20
242.134705
 10
80.564972
 20
251.627731
 10
117.564972
 20
251.627731
340
66
 77
     4
  0
TEXT
  5
66
100
AcDbEntity
  8
DD0
100
AcDbText
 10
81.856639
 20
252.627731
 40
3.5
  1
運転圧力：高い（Ｈ）
 41
0.833333
  7
STANDARD
100
AcDbText
  0
LEADER
  5
67
100
AcDbEntity
  8
DD0
100
AcDbLeader
  3
LEADSTYL
 76
     3
 10
73.957893
 20
226.134705
 10
89.724823
 20
238.758026
 10
126.724823
 20
238.758026
340
68
 77
     4
  0
TEXT
  5
68
100
AcDbEntity
  8
DD0
100
AcDbText
 10
91.01649
 20
239.758026
 40
3.5
  1
運転圧力：標準（Ｌ）
 41
0.833333
  7
STANDARD
100
AcDbText
  0
LEADER
  5
69
100
AcDbEntity
  8
DD0
100
AcDbLeader
  3
LEADSTYL
 76
     3
 10
176.038208
 20
251.734711
 10
183.372772
 20
259.559204
 10
220.372772
 20
259.559204
340
6A
 77
     4
  0
TEXT
  5
6A
100
AcDbEntity
  8
DD0
100
AcDbText
 10
184.664439
 20
260.559204
 40
3.5
  1
運転圧力：高い（Ｈ）
 41
0.833333
  7
STANDARD
100
AcDbText
  0
LEADER
  5
6B
100
AcDbEntity
  8
DD0
100
AcDbLeader
  3
LEADSTYL
 76
     3
 10
191.146072
 20
235.734711
 10
198.349991
 20
242.556946
 10
235.349991
 20
242.556946
340
6C
 77
     4
  0
TEXT
  5
6C
100
AcDbEntity
  8
DD0
100
AcDbText
 10
199.641658
 20
243.556946
 40
3.5
  1
運転圧力：標準（Ｌ）
 41
0.833333
  7
STANDARD
100
AcDbText
  0
ARC
  5
6D
100
AcDbEntity
  8
M0
100
AcDbCircle
 10
-314.576671
 20
261.699649
 40
20.0
100
AcDbArc
 50
262.874984
 51
437.905243
  0
LINE
  5
6E
100
AcDbEntity
  8
M0
 62
     4
100
AcDbLine
 10
30.545292
 20
269.004705
 11
53.929699
 21
269.004705
  0
LINE
  5
6F
100
AcDbEntity
  8
M0
 62
     4
100
AcDbLine
 10
53.929699
 20
278.536635
 11
30.545292
 21
278.536635
  0
LINE
  5
70
100
AcDbEntity
  8
M0
 62
     4
100
AcDbLine
 10
30.545292
 20
278.536635
 11
30.545292
 21
269.004705
  0
LINE
  5
71
100
AcDbEntity
  8
M0
 62
     4
100
AcDbLine
 10
53.929699
 20
278.536635
 11
53.929699
 21
269.004705
  0
TEXT
  5
72
100
AcDbEntity
  8
M0
 62
     4
100
AcDbText
 10
32.987042
 20
271.019309
 40
5.4
  1
揚水性能
 41
0.740741
  7
STANDARD
100
AcDbText
  0
TEXT
  5
73
100
AcDbEntity
  8
M0
 62
     4
100
AcDbText
 10
101.717295
 20
222.447211
 40
4.8
  1
吸上高さ１２ｍ時
 41
0.590278
  7
STANDARD
100
AcDbText
  0
TEXT
  5
74
100
AcDbEntity
  8
M0
 62
     4
100
AcDbText
 10
59.520213
 20
262.012455
 40
4.5
  1
深井戸専用ジェット（Ｊ７５－２４Ｖ）使用時
 41
0.555556
  7
STANDARD
100
AcDbText
  0
TEXT
  5
75
100
AcDbEntity
  8
M0
 62
     4
100
AcDbText
 10
136.839049
 20
107.936732
 40
4.8
  1
吸上高さ３０ｍ時
 41
0.590278
  7
STANDARD
100
AcDbText
  0
TEXT
  5
76
100
AcDbEntity
  8
M0
 62
     4
100
AcDbText
 10
122.189906
 20
136.928339
 40
4.5
  1
深井戸専用ジェット（Ｊ７５－３５Ｖ）使用時
 41
0.555556
  7
STANDARD
100
AcDbText
  0
TEXT
  5
77
100
AcDbEntity
  8
M0
 62
     4
100
AcDbText
 10
175.695263
 20
275.934309
 40
4.5
  1
〟深井戸専用ジェット（Ｊ７５－２４Ｖ）使用時
 41
0.555556
  7
STANDARD
100
AcDbText
  0
TEXT
  5
78
100
AcDbEntity
  8
M0
 62
     4
100
AcDbText
 10
175.695263
 20
268.147398
 40
4.5
  1
№深井戸用シングルジェット（Ｊ４０－２４ＳＶ）使用時
 41
0.555556
  7
STANDARD
100
AcDbText
  0
TEXT
  5
79
100
AcDbEntity
  8
M0
 62
     4
100
AcDbText
 10
303.647464
 20
275.55424
 40
4.5
  1
㏍深井戸専用ジェット（Ｊ７５－３５Ｖ）使用時
 41
0.555556
  7
STANDARD
100
AcDbText
  0
TEXT
  5
7A
100
AcDbEntity
  8
M0
 62
     4
100
AcDbText
 10
303.647464
 20
267.767329
 40
4.5
  1
℡深井戸用シングルジェット（Ｊ４０－２４ＳＶ）使用時
 41
0.555556
  7
STANDARD
100
AcDbText
  0
TEXT
  5
7B
100
AcDbEntity
  8
M0
 62
     4
100
AcDbText
 10
215.213185
 20
221.665009
 40
4.8
  1
吸上高さ１８ｍ時
 41
0.590278
  7
STANDARD
100
AcDbText
  0
TEXT
  5
7C
100
AcDbEntity
  8
M0
 62
     4
100
AcDbText
 10
334.500666
 20
239.464707
 40
4.8
  1
吸上高さ２４ｍ時
 41
0.590278
  7
STANDARD
100
AcDbText
  0
LINE
  5
7D
100
AcDbEntity
  8
M0
 62
    74
100
AcDbLine
 10
300.317331
 20
168.537148
 11
372.317331
 21
168.537148
  0
LINE
  5
7E
100
AcDbEntity
  8
M0
 62
    74
100
AcDbLine
 10
300.317331
 20
256.537148
 11
300.317331
 21
168.537148
  0
LINE
  5
7F
100
AcDbEntity
  8
M0
 62
    74
100
AcDbLine
 10
300.317331
 20
184.537148
 11
372.317331
 21
184.537148
  0
LINE
  5
80
100
AcDbEntity
  8
M0
 62
    74
100
AcDbLine
 10
300.317331
 20
200.537148
 11
372.317331
 21
200.537148
  0
LINE
  5
81
100
AcDbEntity
  8
M0
 62
    74
100
AcDbLine
 10
332.317331
 20
216.537148
 11
332.317331
 21
232.537148
  0
LINE
  5
82
100
AcDbEntity
  8
M0
 62
    74
100
AcDbLine
 10
300.317331
 20
232.537148
 11
372.317331
 21
232.537148
  0
LINE
  5
83
100
AcDbEntity
  8
M0
 62
    74
100
AcDbLine
 10
300.317331
 20
216.537148
 11
372.317331
 21
216.537148
  0
LINE
  5
84
100
AcDbEntity
  8
M0
 62
    74
100
AcDbLine
 10
300.317331
 20
248.537148
 11
372.317331
 21
248.537148
  0
ARC
  5
85
100
AcDbEntity
  8
M0
 62
    74
100
AcDbCircle
 10
284.761508
 20
196.815647
 40
5.376
100
AcDbArc
 50
52.58592
 51
127.41408
  0
ARC
  5
86
100
AcDbEntity
  8
M0
 62
    74
100
AcDbCircle
 10
284.761508
 20
200.189617
 40
5.376
100
AcDbArc
 50
232.58592
 51
307.41408
  0
TEXT
  5
87
100
AcDbEntity
  8
M0
 62
    74
100
AcDbText
 10
282.521511
 20
212.883917
 40
3.584
  1
全
 41
1.25
  7
STANDARD
100
AcDbText
  0
TEXT
  5
88
100
AcDbEntity
  8
M0
 62
    74
100
AcDbText
 10
282.521511
 20
208.941517
 40
3.584
  1
揚
 41
1.25
  7
STANDARD
100
AcDbText
  0
TEXT
  5
89
100
AcDbEntity
  8
M0
 62
    74
100
AcDbText
 10
282.521511
 20
204.999117
 40
3.584
  1
程
 41
1.25
  7
STANDARD
100
AcDbText
  0
TEXT
  5
8A
100
AcDbEntity
  8
M0
 62
    74
100
AcDbText
 10
282.521511
 20
201.056717
 40
3.584
  1
　
 41
1.25
  7
STANDARD
100
AcDbText
  0
TEXT
  5
8B
100
AcDbEntity
  8
M0
 62
    74
100
AcDbText
 10
282.521511
 20
197.114317
 40
3.584
  1
ｍ
 41
1.25
  7
STANDARD
100
AcDbText
  0
TEXT
  5
8C
100
AcDbEntity
  8
M0
 62
    74
100
AcDbText
 10
290.797127
 20
214.257116
 40
4.8
  1
３０
 41
0.611111
  7
STANDARD
100
AcDbText
  0
TEXT
  5
8D
100
AcDbEntity
  8
M0
 62
    74
100
AcDbText
 10
290.797127
 20
198.257113
 40
4.8
  1
２０
 41
0.611111
  7
STANDARD
100
AcDbText
  0
TEXT
  5
8E
100
AcDbEntity
  8
M0
 62
    74
100
AcDbText
 10
290.797127
 20
182.25712
 40
4.8
  1
１０
 41
0.611111
  7
STANDARD
100
AcDbText
  0
TEXT
  5
8F
100
AcDbEntity
  8
M0
 62
    74
100
AcDbText
 10
293.997124
 20
166.257114
 40
4.8
  1
０
 41
0.611111
  7
STANDARD
100
AcDbText
  0
TEXT
  5
90
100
AcDbEntity
  8
M0
 62
    74
100
AcDbText
 10
297.197138
 20
160.495106
 40
4.8
  1
０
 41
0.611111
  7
STANDARD
100
AcDbText
  0
TEXT
  5
91
100
AcDbEntity
  8
M0
 62
    74
100
AcDbText
 10
329.197106
 20
160.495106
 40
4.8
  1
２０
 41
0.611111
  7
STANDARD
100
AcDbText
  0
TEXT
  5
92
100
AcDbEntity
  8
M0
 62
    74
100
AcDbText
 10
361.197136
 20
160.495106
 40
4.8
  1
４０
 41
0.611111
  7
STANDARD
100
AcDbText
  0
TEXT
  5
93
100
AcDbEntity
  8
M0
 62
    74
100
AcDbText
 10
323.582674
 20
153.172039
 40
5.376
  1
揚水量（Ｌ／分）
 41
0.611111
  7
STANDARD
100
AcDbText
  0
TEXT
  5
94
100
AcDbEntity
  8
M0
 62
    74
100
AcDbText
 10
313.197136
 20
160.495106
 40
4.8
  1
１０
 41
0.611111
  7
STANDARD
100
AcDbText
  0
TEXT
  5
95
100
AcDbEntity
  8
M0
 62
    74
100
AcDbText
 10
345.197138
 20
160.495106
 40
4.8
  1
３０
 41
0.611111
  7
STANDARD
100
AcDbText
  0
TEXT
  5
96
100
AcDbEntity
  8
M0
 62
    74
100
AcDbText
 10
290.797127
 20
230.257116
 40
4.8
  1
４０
 41
0.611111
  7
STANDARD
100
AcDbText
  0
TEXT
  5
97
100
AcDbEntity
  8
M0
 62
    74
100
AcDbText
 10
290.797127
 20
246.257116
 40
4.8
  1
５０
 41
0.611111
  7
STANDARD
100
AcDbText
  0
LINE
  5
98
100
AcDbEntity
  8
M0
 62
    74
100
AcDbLine
 10
332.317331
 20
232.537148
 11
332.317331
 21
256.578818
  0
LINE
  5
99
100
AcDbEntity
  8
M0
 62
    74
100
AcDbLine
 10
348.317331
 20
216.537148
 11
348.317331
 21
235.494078
  0
LINE
  5
9A
100
AcDbEntity
  8
M0
 62
    74
100
AcDbLine
 10
364.317331
 20
216.537148
 11
364.317331
 21
256.662158
  0
LINE
  5
9B
100
AcDbEntity
  8
M0
 62
    74
100
AcDbLine
 10
116.698792
 20
36.313494
 11
188.698792
 21
36.313494
  0
LINE
  5
9C
100
AcDbEntity
  8
M0
 62
    74
100
AcDbLine
 10
116.698792
 20
132.313494
 11
116.698792
 21
36.313494
  0
LINE
  5
9D
100
AcDbEntity
  8
M0
 62
    74
100
AcDbLine
 10
148.698792
 20
36.313494
 11
148.698792
 21
84.313494
  0
LINE
  5
9E
100
AcDbEntity
  8
M0
 62
    74
100
AcDbLine
 10
180.698792
 20
36.313494
 11
180.698792
 21
132.313494
  0
LINE
  5
9F
100
AcDbEntity
  8
M0
 62
    74
100
AcDbLine
 10
116.698792
 20
52.313494
 11
188.698792
 21
52.313494
  0
LINE
  5
A0
100
AcDbEntity
  8
M0
 62
    74
100
AcDbLine
 10
116.698792
 20
68.313494
 11
188.698792
 21
68.313494
  0
LINE
  5
A1
100
AcDbEntity
  8
M0
 62
    74
100
AcDbLine
 10
148.698792
 20
84.313494
 11
148.698792
 21
100.313494
  0
LINE
  5
A2
100
AcDbEntity
  8
M0
 62
    74
100
AcDbLine
 10
132.698792
 20
36.313494
 11
132.698792
 21
116.313494
  0
LINE
  5
A3
100
AcDbEntity
  8
M0
 62
    74
100
AcDbLine
 10
164.698792
 20
36.313494
 11
164.698792
 21
132.313494
  0
LINE
  5
A4
100
AcDbEntity
  8
M0
 62
    74
100
AcDbLine
 10
116.698792
 20
100.313494
 11
188.698792
 21
100.313494
  0
LINE
  5
A5
100
AcDbEntity
  8
M0
 62
    74
100
AcDbLine
 10
116.698792
 20
84.313494
 11
188.698792
 21
84.313494
  0
LINE
  5
A6
100
AcDbEntity
  8
M0
 62
    74
100
AcDbLine
 10
116.698792
 20
116.313494
 11
188.698792
 21
116.313494
  0
LINE
  5
A7
100
AcDbEntity
  8
M0
 62
    74
100
AcDbLine
 10
148.698792
 20
100.313494
 11
148.698792
 21
105.929913
  0
ARC
  5
A8
100
AcDbEntity
  8
M0
 62
    74
100
AcDbCircle
 10
101.142969
 20
64.591993
 40
5.376
100
AcDbArc
 50
52.58592
 51
127.41408
  0
ARC
  5
A9
100
AcDbEntity
  8
M0
 62
    74
100
AcDbCircle
 10
101.142969
 20
67.965963
 40
5.376
100
AcDbArc
 50
232.58592
 51
307.41408
  0
TEXT
  5
AA
100
AcDbEntity
  8
M0
 62
    74
100
AcDbText
 10
98.902988
 20
80.660261
 40
3.584
  1
全
 41
1.25
  7
STANDARD
100
AcDbText
  0
TEXT
  5
AB
100
AcDbEntity
  8
M0
 62
    74
100
AcDbText
 10
98.902988
 20
76.717861
 40
3.584
  1
揚
 41
1.25
  7
STANDARD
100
AcDbText
  0
TEXT
  5
AC
100
AcDbEntity
  8
M0
 62
    74
100
AcDbText
 10
98.902988
 20
72.775461
 40
3.584
  1
程
 41
1.25
  7
STANDARD
100
AcDbText
  0
TEXT
  5
AD
100
AcDbEntity
  8
M0
 62
    74
100
AcDbText
 10
98.902988
 20
68.833061
 40
3.584
  1
　
 41
1.25
  7
STANDARD
100
AcDbText
  0
TEXT
  5
AE
100
AcDbEntity
  8
M0
 62
    74
100
AcDbText
 10
98.902988
 20
64.890662
 40
3.584
  1
ｍ
 41
1.25
  7
STANDARD
100
AcDbText
  0
TEXT
  5
AF
100
AcDbEntity
  8
M0
 62
    74
100
AcDbText
 10
107.178604
 20
82.033461
 40
4.8
  1
３０
 41
0.611111
  7
STANDARD
100
AcDbText
  0
TEXT
  5
B0
100
AcDbEntity
  8
M0
 62
    74
100
AcDbText
 10
107.178604
 20
66.033461
 40
4.8
  1
２０
 41
0.611111
  7
STANDARD
100
AcDbText
  0
TEXT
  5
B1
100
AcDbEntity
  8
M0
 62
    74
100
AcDbText
 10
107.178604
 20
50.033468
 40
4.8
  1
１０
 41
0.611111
  7
STANDARD
100
AcDbText
  0
TEXT
  5
B2
100
AcDbEntity
  8
M0
 62
    74
100
AcDbText
 10
110.378586
 20
34.033453
 40
4.8
  1
０
 41
0.611111
  7
STANDARD
100
AcDbText
  0
TEXT
  5
B3
100
AcDbEntity
  8
M0
 62
    74
100
AcDbText
 10
113.578598
 20
28.271444
 40
4.8
  1
０
 41
0.611111
  7
STANDARD
100
AcDbText
  0
TEXT
  5
B4
100
AcDbEntity
  8
M0
 62
    74
100
AcDbText
 10
145.578568
 20
28.271444
 40
4.8
  1
２０
 41
0.611111
  7
STANDARD
100
AcDbText
  0
TEXT
  5
B5
100
AcDbEntity
  8
M0
 62
    74
100
AcDbText
 10
177.578598
 20
28.271444
 40
4.8
  1
４０
 41
0.611111
  7
STANDARD
100
AcDbText
  0
TEXT
  5
B6
100
AcDbEntity
  8
M0
 62
    74
100
AcDbText
 10
139.964136
 20
20.948385
 40
5.376
  1
揚水量（Ｌ／分）
 41
0.611111
  7
STANDARD
100
AcDbText
  0
TEXT
  5
B7
100
AcDbEntity
  8
M0
 62
    74
100
AcDbText
 10
129.578598
 20
28.271444
 40
4.8
  1
１０
 41
0.611111
  7
STANDARD
100
AcDbText
  0
TEXT
  5
B8
100
AcDbEntity
  8
M0
 62
    74
100
AcDbText
 10
161.578598
 20
28.271444
 40
4.8
  1
３０
 41
0.611111
  7
STANDARD
100
AcDbText
  0
TEXT
  5
B9
100
AcDbEntity
  8
M0
 62
    74
100
AcDbText
 10
107.178604
 20
98.033468
 40
4.8
  1
４０
 41
0.611111
  7
STANDARD
100
AcDbText
  0
TEXT
  5
BA
100
AcDbEntity
  8
M0
 62
    74
100
AcDbText
 10
107.178604
 20
114.033465
 40
4.8
  1
５０
 41
0.611111
  7
STANDARD
100
AcDbText
  0
LINE
  5
BB
100
AcDbEntity
  8
M0
 62
    74
100
AcDbLine
 10
364.317331
 20
168.537148
 11
364.317331
 21
216.537148
  0
LINE
  5
BC
100
AcDbEntity
  8
M0
 62
    74
100
AcDbLine
 10
348.317331
 20
168.537148
 11
348.317331
 21
216.537148
  0
LINE
  5
BD
100
AcDbEntity
  8
M0
 62
    74
100
AcDbLine
 10
332.317331
 20
168.537148
 11
332.317331
 21
216.537148
  0
LINE
  5
BE
100
AcDbEntity
  8
M0
 62
    74
100
AcDbLine
 10
316.317331
 20
168.537148
 11
316.317331
 21
256.537148
  0
LINE
  5
BF
100
AcDbEntity
  8
M0
 62
    74
100
AcDbLine
 10
188.698792
 20
132.313494
 11
116.698792
 21
132.313494
  0
TEXT
  5
C0
100
AcDbEntity
  8
M0
 62
    74
100
AcDbText
 10
107.178604
 20
130.033465
 40
4.8
  1
６０
 41
0.611111
  7
STANDARD
100
AcDbText
  0
LINE
  5
C1
100
AcDbEntity
  8
M0
 62
    74
100
AcDbLine
 10
148.698792
 20
116.313494
 11
148.698792
 21
132.313494
  0
LINE
  5
C2
100
AcDbEntity
  8
M0
 62
    74
100
AcDbLine
 10
348.317331
 20
246.238937
 11
348.317331
 21
256.620488
  0
LINE
  5
C3
100
AcDbEntity
  8
M0
 62
    74
100
AcDbLine
 10
132.698792
 20
116.313494
 11
132.698792
 21
132.313494
  0
TEXT
  5
C4
100
AcDbEntity
  8
M0
 62
    74
100
AcDbText
 10
113.723152
 20
14.824621
 40
4.05
  1
※破線部域では６０ｋＰａの圧力変動があります。
 41
0.777778
  7
STANDARD
100
AcDbText
  0
TEXT
  5
C5
100
AcDbEntity
  8
M0
 62
    74
100
AcDbText
 10
297.341695
 20
147.048277
 40
4.05
  1
※破線部域では６０ｋＰａの圧力変動があります。
 41
0.777778
  7
STANDARD
100
AcDbText
  0
LINE
  5
C6
100
AcDbEntity
  8
M0
 62
    34
100
AcDbLine
 10
169.445263
 20
168.534704
 11
257.445263
 21
168.534704
  0
LINE
  5
C7
100
AcDbEntity
  8
M0
 62
    34
100
AcDbLine
 10
169.445263
 20
256.534704
 11
169.445263
 21
168.534704
  0
LINE
  5
C8
100
AcDbEntity
  8
M0
 62
    34
100
AcDbLine
 10
169.445263
 20
184.534704
 11
257.445263
 21
184.534704
  0
LINE
  5
C9
100
AcDbEntity
  8
M0
 62
    34
100
AcDbLine
 10
169.445263
 20
200.534704
 11
257.445263
 21
200.534704
  0
LINE
  5
CA
100
AcDbEntity
  8
M0
 62
    34
100
AcDbLine
 10
201.445263
 20
216.534704
 11
201.445263
 21
238.804141
  0
LINE
  5
CB
100
AcDbEntity
  8
M0
 62
    34
100
AcDbLine
 10
169.445263
 20
248.534704
 11
257.445263
 21
248.534704
  0
LINE
  5
CC
100
AcDbEntity
  8
M0
 62
    34
100
AcDbLine
 10
233.445263
 20
216.534704
 11
233.445263
 21
219.603035
  0
LINE
  5
CD
100
AcDbEntity
  8
M0
 62
    34
100
AcDbLine
 10
185.445263
 20
168.534704
 11
185.445263
 21
256.534704
  0
LINE
  5
CE
100
AcDbEntity
  8
M0
 62
    34
100
AcDbLine
 10
201.445263
 20
168.534704
 11
201.445263
 21
216.534704
  0
LINE
  5
CF
100
AcDbEntity
  8
M0
 62
    34
100
AcDbLine
 10
217.445263
 20
168.534704
 11
217.445263
 21
205.723681
  0
LINE
  5
D0
100
AcDbEntity
  8
M0
 62
    34
100
AcDbLine
 10
233.445263
 20
168.534704
 11
233.445263
 21
216.534704
  0
ARC
  5
D1
100
AcDbEntity
  8
M0
 62
    34
100
AcDbCircle
 10
154.111315
 20
198.673579
 40
5.376
100
AcDbArc
 50
52.58592
 51
127.41408
  0
ARC
  5
D2
100
AcDbEntity
  8
M0
 62
    34
100
AcDbCircle
 10
154.111315
 20
202.047549
 40
5.376
100
AcDbArc
 50
232.58592
 51
307.41408
  0
TEXT
  5
D3
100
AcDbEntity
  8
M0
 62
    34
100
AcDbText
 10
151.871315
 20
214.741842
 40
3.584
  1
全
 41
1.25
  7
STANDARD
100
AcDbText
  0
TEXT
  5
D4
100
AcDbEntity
  8
M0
 62
    34
100
AcDbText
 10
151.871315
 20
210.799442
 40
3.584
  1
揚
 41
1.25
  7
STANDARD
100
AcDbText
  0
TEXT
  5
D5
100
AcDbEntity
  8
M0
 62
    34
100
AcDbText
 10
151.871315
 20
206.857042
 40
3.584
  1
程
 41
1.25
  7
STANDARD
100
AcDbText
  0
TEXT
  5
D6
100
AcDbEntity
  8
M0
 62
    34
100
AcDbText
 10
151.871315
 20
202.914643
 40
3.584
  1
　
 41
1.25
  7
STANDARD
100
AcDbText
  0
TEXT
  5
D7
100
AcDbEntity
  8
M0
 62
    34
100
AcDbText
 10
151.871315
 20
198.972243
 40
3.584
  1
ｍ
 41
1.25
  7
STANDARD
100
AcDbText
  0
TEXT
  5
D8
100
AcDbEntity
  8
M0
 62
    34
100
AcDbText
 10
159.925061
 20
214.254671
 40
4.8
  1
３０
 41
0.611111
  7
STANDARD
100
AcDbText
  0
TEXT
  5
D9
100
AcDbEntity
  8
M0
 62
    34
100
AcDbText
 10
159.925061
 20
198.254671
 40
4.8
  1
２０
 41
0.611111
  7
STANDARD
100
AcDbText
  0
TEXT
  5
DA
100
AcDbEntity
  8
M0
 62
    34
100
AcDbText
 10
159.925061
 20
182.254675
 40
4.8
  1
１０
 41
0.611111
  7
STANDARD
100
AcDbText
  0
TEXT
  5
DB
100
AcDbEntity
  8
M0
 62
    34
100
AcDbText
 10
163.125057
 20
166.254668
 40
4.8
  1
０
 41
0.611111
  7
STANDARD
100
AcDbText
  0
TEXT
  5
DC
100
AcDbEntity
  8
M0
 62
    34
100
AcDbText
 10
166.325054
 20
160.492659
 40
4.8
  1
０
 41
0.611111
  7
STANDARD
100
AcDbText
  0
TEXT
  5
DD
100
AcDbEntity
  8
M0
 62
    34
100
AcDbText
 10
198.325054
 20
160.492659
 40
4.8
  1
２０
 41
0.611111
  7
STANDARD
100
AcDbText
  0
TEXT
  5
DE
100
AcDbEntity
  8
M0
 62
    34
100
AcDbText
 10
230.325053
 20
160.492659
 40
4.8
  1
４０
 41
0.611111
  7
STANDARD
100
AcDbText
  0
TEXT
  5
DF
100
AcDbEntity
  8
M0
 62
    34
100
AcDbText
 10
182.325054
 20
160.492659
 40
4.8
  1
１０
 41
0.611111
  7
STANDARD
100
AcDbText
  0
TEXT
  5
E0
100
AcDbEntity
  8
M0
 62
    34
100
AcDbText
 10
214.325053
 20
160.492659
 40
4.8
  1
３０
 41
0.611111
  7
STANDARD
100
AcDbText
  0
TEXT
  5
E1
100
AcDbEntity
  8
M0
 62
    34
100
AcDbText
 10
246.325056
 20
160.492659
 40
4.8
  1
５０
 41
0.611111
  7
STANDARD
100
AcDbText
  0
TEXT
  5
E2
100
AcDbEntity
  8
M0
 62
    34
100
AcDbText
 10
159.925061
 20
230.254675
 40
4.8
  1
４０
 41
0.611111
  7
STANDARD
100
AcDbText
  0
TEXT
  5
E3
100
AcDbEntity
  8
M0
 62
    34
100
AcDbText
 10
159.925061
 20
246.254675
 40
4.8
  1
５０
 41
0.611111
  7
STANDARD
100
AcDbText
  0
LINE
  5
E4
100
AcDbEntity
  8
M0
 62
    34
100
AcDbLine
 10
249.445263
 20
168.534704
 11
249.445263
 21
256.534704
  0
LINE
  5
E5
100
AcDbEntity
  8
M0
 62
    34
100
AcDbLine
 10
217.445263
 20
248.534704
 11
217.445263
 21
256.534704
  0
LINE
  5
E6
100
AcDbEntity
  8
M0
 62
    34
100
AcDbLine
 10
233.445263
 20
248.534704
 11
233.445263
 21
256.534704
  0
LINE
  5
E7
100
AcDbEntity
  8
M0
 62
    34
100
AcDbLine
 10
169.445263
 20
232.534704
 11
257.445263
 21
232.534704
  0
LINE
  5
E8
100
AcDbEntity
  8
M0
 62
    34
100
AcDbLine
 10
169.445263
 20
216.534704
 11
257.445263
 21
216.534704
  0
LINE
  5
E9
100
AcDbEntity
  8
M0
 62
    34
100
AcDbLine
 10
217.445263
 20
210.700096
 11
217.445263
 21
220.001282
  0
TEXT
  5
EA
100
AcDbEntity
  8
M0
 62
    34
100
AcDbText
 10
166.469625
 20
147.045834
 40
4.05
  1
※破線部域では６０ｋＰａの圧力変動があります。
 41
0.777778
  7
STANDARD
100
AcDbText
  0
TEXT
  5
EB
100
AcDbEntity
  8
M0
 62
    34
100
AcDbText
 10
199.074926
 20
153.085569
 40
5.376
  1
揚水量（Ｌ／分）
 41
0.611111
  7
STANDARD
100
AcDbText
  0
LINE
  5
EC
100
AcDbEntity
  8
M0
 62
    34
100
AcDbLine
 10
201.445263
 20
248.534704
 11
201.445263
 21
256.534704
  0
LINE
  5
ED
100
AcDbEntity
  8
M0
 62
    34
100
AcDbLine
 10
217.445263
 20
227.966225
 11
217.445263
 21
239.057629
  0
LINE
  5
EE
100
AcDbEntity
  8
M0
 62
    34
100
AcDbLine
 10
233.445263
 20
228.065787
 11
233.445263
 21
239.057629
  0
LINE
  5
EF
100
AcDbEntity
  8
M0
100
AcDbLine
 10
49.445263
 20
168.534704
 11
137.445263
 21
168.534704
  0
LINE
  5
F0
100
AcDbEntity
  8
M0
100
AcDbLine
 10
49.445263
 20
256.534704
 11
49.445263
 21
168.534704
  0
LINE
  5
F1
100
AcDbEntity
  8
M0
100
AcDbLine
 10
81.445263
 20
168.534704
 11
81.445263
 21
216.534704
  0
LINE
  5
F2
100
AcDbEntity
  8
M0
100
AcDbLine
 10
113.445263
 20
168.534704
 11
113.445263
 21
216.534704
  0
LINE
  5
F3
100
AcDbEntity
  8
M0
100
AcDbLine
 10
49.445263
 20
184.534704
 11
137.445263
 21
184.534704
  0
LINE
  5
F4
100
AcDbEntity
  8
M0
100
AcDbLine
 10
49.445263
 20
200.534704
 11
137.445263
 21
200.534704
  0
LINE
  5
F5
100
AcDbEntity
  8
M0
100
AcDbLine
 10
81.445263
 20
216.534704
 11
81.445263
 21
222.934704
  0
LINE
  5
F6
100
AcDbEntity
  8
M0
100
AcDbLine
 10
65.445263
 20
168.534704
 11
65.445263
 21
222.934704
  0
LINE
  5
F7
100
AcDbEntity
  8
M0
100
AcDbLine
 10
97.445263
 20
168.534704
 11
97.445263
 21
222.934704
  0
LINE
  5
F8
100
AcDbEntity
  8
M0
100
AcDbLine
 10
129.445263
 20
168.534704
 11
129.445263
 21
256.534704
  0
LINE
  5
F9
100
AcDbEntity
  8
M0
100
AcDbLine
 10
49.445263
 20
232.534704
 11
113.445263
 21
232.534704
  0
LINE
  5
FA
100
AcDbEntity
  8
M0
100
AcDbLine
 10
49.445263
 20
248.534704
 11
137.445263
 21
248.534704
  0
LINE
  5
FB
100
AcDbEntity
  8
M0
100
AcDbLine
 10
113.445263
 20
216.534704
 11
113.445263
 21
219.884023
  0
LINE
  5
FC
100
AcDbEntity
  8
M0
100
AcDbLine
 10
49.445263
 20
216.534704
 11
137.445263
 21
216.534704
  0
LINE
  5
FD
100
AcDbEntity
  8
M0
100
AcDbLine
 10
65.445263
 20
222.934704
 11
65.445263
 21
256.534704
  0
LINE
  5
FE
100
AcDbEntity
  8
M0
100
AcDbLine
 10
81.445263
 20
222.934704
 11
81.445263
 21
250.304678
  0
LINE
  5
FF
100
AcDbEntity
  8
M0
100
AcDbLine
 10
97.445263
 20
222.934704
 11
97.445263
 21
236.510422
  0
ARC
  5
100
100
AcDbEntity
  8
M0
100
AcDbCircle
 10
34.111315
 20
198.673579
 40
5.376
100
AcDbArc
 50
52.58592
 51
127.41408
  0
ARC
  5
101
100
AcDbEntity
  8
M0
100
AcDbCircle
 10
34.111315
 20
202.047549
 40
5.376
100
AcDbArc
 50
232.58592
 51
307.41408
  0
TEXT
  5
102
100
AcDbEntity
  8
M0
100
AcDbText
 10
31.871313
 20
214.741842
 40
3.584
  1
全
 41
1.25
  7
STANDARD
100
AcDbText
  0
TEXT
  5
103
100
AcDbEntity
  8
M0
100
AcDbText
 10
31.871313
 20
210.799442
 40
3.584
  1
揚
 41
1.25
  7
STANDARD
100
AcDbText
  0
TEXT
  5
104
100
AcDbEntity
  8
M0
100
AcDbText
 10
31.871313
 20
206.857042
 40
3.584
  1
程
 41
1.25
  7
STANDARD
100
AcDbText
  0
TEXT
  5
105
100
AcDbEntity
  8
M0
100
AcDbText
 10
31.871313
 20
202.914643
 40
3.584
  1
　
 41
1.25
  7
STANDARD
100
AcDbText
  0
TEXT
  5
106
100
AcDbEntity
  8
M0
100
AcDbText
 10
31.871313
 20
198.972243
 40
3.584
  1
ｍ
 41
1.25
  7
STANDARD
100
AcDbText
  0
TEXT
  5
107
100
AcDbEntity
  8
M0
100
AcDbText
 10
39.925062
 20
214.254671
 40
4.8
  1
３０
 41
0.611111
  7
STANDARD
100
AcDbText
  0
TEXT
  5
108
100
AcDbEntity
  8
M0
100
AcDbText
 10
39.925062
 20
198.254671
 40
4.8
  1
２０
 41
0.611111
  7
STANDARD
100
AcDbText
  0
TEXT
  5
109
100
AcDbEntity
  8
M0
100
AcDbText
 10
39.925062
 20
182.254675
 40
4.8
  1
１０
 41
0.611111
  7
STANDARD
100
AcDbText
  0
TEXT
  5
10A
100
AcDbEntity
  8
M0
100
AcDbText
 10
43.125059
 20
166.254668
 40
4.8
  1
０
 41
0.611111
  7
STANDARD
100
AcDbText
  0
TEXT
  5
10B
100
AcDbEntity
  8
M0
100
AcDbText
 10
46.325056
 20
160.492659
 40
4.8
  1
０
 41
0.611111
  7
STANDARD
100
AcDbText
  0
TEXT
  5
10C
100
AcDbEntity
  8
M0
100
AcDbText
 10
78.325059
 20
160.492659
 40
4.8
  1
２０
 41
0.611111
  7
STANDARD
100
AcDbText
  0
TEXT
  5
10D
100
AcDbEntity
  8
M0
100
AcDbText
 10
110.325062
 20
160.492659
 40
4.8
  1
４０
 41
0.611111
  7
STANDARD
100
AcDbText
  0
TEXT
  5
10E
100
AcDbEntity
  8
M0
100
AcDbText
 10
79.074922
 20
153.085569
 40
5.376
  1
揚水量（Ｌ／分）
 41
0.611111
  7
STANDARD
100
AcDbText
  0
TEXT
  5
10F
100
AcDbEntity
  8
M0
100
AcDbText
 10
62.325058
 20
160.492659
 40
4.8
  1
１０
 41
0.611111
  7
STANDARD
100
AcDbText
  0
TEXT
  5
110
100
AcDbEntity
  8
M0
100
AcDbText
 10
94.325062
 20
160.492659
 40
4.8
  1
３０
 41
0.611111
  7
STANDARD
100
AcDbText
  0
TEXT
  5
111
100
AcDbEntity
  8
M0
100
AcDbText
 10
126.325053
 20
160.492659
 40
4.8
  1
５０
 41
0.611111
  7
STANDARD
100
AcDbText
  0
TEXT
  5
112
100
AcDbEntity
  8
M0
100
AcDbText
 10
39.925062
 20
230.254675
 40
4.8
  1
４０
 41
0.611111
  7
STANDARD
100
AcDbText
  0
TEXT
  5
113
100
AcDbEntity
  8
M0
100
AcDbText
 10
39.925062
 20
246.254675
 40
4.8
  1
５０
 41
0.611111
  7
STANDARD
100
AcDbText
  0
LINE
  5
114
100
AcDbEntity
  8
M0
100
AcDbLine
 10
113.445263
 20
232.534704
 11
137.445263
 21
232.534704
  0
TEXT
  5
115
100
AcDbEntity
  8
M0
100
AcDbText
 10
46.469621
 20
147.045834
 40
4.05
  1
※破線部域では６０ｋＰａの圧力変動があります。
 41
0.777778
  7
STANDARD
100
AcDbText
  0
LINE
  5
116
100
AcDbEntity
  8
M0
100
AcDbLine
 10
113.445263
 20
244.557072
 11
113.445263
 21
250.560128
  0
LINE
  5
117
100
AcDbEntity
  8
M0
100
AcDbLine
 10
113.445263
 20
229.055628
 11
113.445263
 21
235.360901
  0
LINE
  5
118
100
AcDbEntity
  8
M0
  6
DASHED
 62
     4
100
AcDbLine
 10
169.445263
 20
235.734704
 11
198.447624
 21
235.734704
  0
LINE
  5
119
100
AcDbEntity
  8
M0
 62
     4
100
AcDbLine
 10
202.245263
 20
217.134704
 11
177.978596
 21
235.334704
  0
ARC
  5
11A
100
AcDbEntity
  8
M0
 62
     4
100
AcDbCircle
 10
201.045263
 20
215.534704
 40
2.0
100
AcDbArc
 50
0.0
 51
53.130102
  0
LINE
  5
11B
100
AcDbEntity
  8
M0
 62
     4
100
AcDbLine
 10
203.045263
 20
215.534704
 11
203.045263
 21
197.94058
  0
LINE
  5
11C
100
AcDbEntity
  8
M0
 62
     4
100
AcDbLine
 10
214.245263
 20
222.009672
 11
214.245263
 21
197.94058
  0
LINE
  5
11D
100
AcDbEntity
  8
M0
 62
     4
100
AcDbLine
 10
317.917331
 20
224.02716
 11
317.917331
 21
206.937148
  0
ARC
  5
11E
100
AcDbEntity
  8
M0
 62
     4
100
AcDbCircle
 10
315.917331
 20
224.02716
 40
2.0
100
AcDbArc
 50
0.0
 51
28.61046
  0
LINE
  5
11F
100
AcDbEntity
  8
M0
 62
     4
100
AcDbLine
 10
325.917331
 20
206.937148
 11
325.917331
 21
230.870481
  0
LINE
  5
120
100
AcDbEntity
  8
M0
 62
     4
100
AcDbLine
 10
307.140402
 20
244.294852
 11
317.673123
 21
224.984864
  0
LINE
  5
121
100
AcDbEntity
  8
M0
 62
     4
100
AcDbLine
 10
316.917331
 20
244.537148
 11
324.917331
 21
233.870481
  0
ARC
  5
122
100
AcDbEntity
  8
M0
 62
     4
100
AcDbCircle
 10
315.317331
 20
243.337148
 40
2.0
100
AcDbArc
 50
36.869898
 51
90.0
  0
ARC
  5
123
100
AcDbEntity
  8
M0
 62
     4
100
AcDbCircle
 10
305.384611
 20
243.337148
 40
2.0
100
AcDbArc
 50
28.61046
 51
90.0
  0
LINE
  5
124
100
AcDbEntity
  8
M0
  6
DASHED
 62
     4
100
AcDbLine
 10
300.317331
 20
245.337148
 11
315.317331
 21
245.337148
  0
LINE
  5
125
100
AcDbEntity
  8
M0
  6
DASHED
 62
     4
100
AcDbLine
 10
116.698792
 20
122.713494
 11
123.927554
 21
122.713494
  0
LINE
  5
126
100
AcDbEntity
  8
M0
 62
     4
100
AcDbLine
 10
128.167545
 20
120.363488
 11
135.138784
 21
109.209507
  0
LINE
  5
127
100
AcDbEntity
  8
M0
 62
     4
100
AcDbLine
 10
135.898792
 20
106.559513
 11
135.898792
 21
84.313494
  0
LINE
  5
128
100
AcDbEntity
  8
M0
  6
DASHED
 62
     4
100
AcDbLine
 10
49.445263
 20
242.134704
 11
71.691358
 21
242.134704
  0
LINE
  5
129
100
AcDbEntity
  8
M0
  6
DASHED
 62
     4
100
AcDbLine
 10
49.445263
 20
226.134704
 11
91.691358
 21
226.134704
  0
ARC
  5
12A
100
AcDbEntity
  8
M0
 62
     4
100
AcDbCircle
 10
71.691358
 20
237.134704
 40
5.0
100
AcDbArc
 50
51.340192
 51
90.0
  0
LINE
  5
12B
100
AcDbEntity
  8
M0
 62
     4
100
AcDbLine
 10
74.814833
 20
241.039048
 11
108.368738
 21
214.195924
  0
ARC
  5
12C
100
AcDbEntity
  8
M0
 62
     4
100
AcDbCircle
 10
91.691358
 20
221.134704
 40
5.0
100
AcDbArc
 50
51.340192
 51
90.0
  0
ARC
  5
12D
100
AcDbEntity
  8
M0
 62
     4
100
AcDbCircle
 10
105.245263
 20
210.29158
 40
5.0
100
AcDbArc
 50
0.0
 51
51.340192
  0
LINE
  5
12E
100
AcDbEntity
  8
M0
 62
     4
100
AcDbLine
 10
110.245263
 20
210.29158
 11
110.245263
 21
187.734704
  0
ARC
  5
12F
100
AcDbEntity
  8
M0
 62
     4
100
AcDbCircle
 10
176.778596
 20
233.734704
 40
2.0
100
AcDbArc
 50
53.130102
 51
90.0
  0
LINE
  5
130
100
AcDbEntity
  8
M0
  6
DASHED
 62
     4
100
AcDbLine
 10
169.445263
 20
251.734704
 11
179.619341
 21
251.734704
  0
ARC
  5
131
100
AcDbEntity
  8
M0
 62
     4
100
AcDbCircle
 10
320.917331
 20
230.870481
 40
5.0
100
AcDbArc
 50
0.0
 51
36.869898
  0
ARC
  5
132
100
AcDbEntity
  8
M0
 62
     4
100
AcDbCircle
 10
123.927554
 20
117.713494
 40
5.0
100
AcDbArc
 50
32.005383
 51
90.0
  0
ARC
  5
133
100
AcDbEntity
  8
M0
 62
     4
100
AcDbCircle
 10
130.898792
 20
106.559513
 40
5.0
100
AcDbArc
 50
0.0
 51
32.005383
  0
LINE
  5
134
100
AcDbEntity
  8
M0
 62
     4
100
AcDbLine
 10
180.914448
 20
251.258744
 11
213.54037
 21
223.533712
  0
ARC
  5
135
100
AcDbEntity
  8
M0
 62
     4
100
AcDbCircle
 10
212.245263
 20
222.009672
 40
2.0
100
AcDbArc
 50
0.0
 51
49.642602
  0
ARC
  5
136
100
AcDbEntity
  8
M0
 62
     4
100
AcDbCircle
 10
179.619341
 20
249.734704
 40
2.0
100
AcDbArc
 50
49.642602
 51
90.0
  0
ARC
  5
137
100
AcDbEntity
  8
M0
 62
     4
100
AcDbCircle
 10
198.447624
 20
233.734704
 40
2.0
100
AcDbArc
 50
49.642602
 51
90.0
  0
ENDSEC
  0
SECTION
  2
OBJECTS
  0
DICTIONARY
  5
C
100
AcDbDictionary
  3
ACAD_GROUP
350
D
  3
ACAD_MLINESTYLE
350
E
  0
DICTIONARY
  5
D
102
{ACAD_REACTORS
330
C
102
}
100
AcDbDictionary
  0
DICTIONARY
  5
E
102
{ACAD_REACTORS
330
C
102
}
100
AcDbDictionary
  3
STANDARD
350
13
  0
MLINESTYLE
  5
13
102
{ACAD_REACTORS
330
E
102
}
100
AcDbMlineStyle
  2
STANDARD
 70
     0
  3

 62
     0
 51
90.0
 52
90.0
 71
     2
 49
0.5
 62
   256
  6
BYLAYER
 49
-0.5
 62
   256
  6
BYLAYER
  0
ENDSEC
  0
EOF
