  0
SECTION
  2
HEADER
  9
$ACADVER
  1
AC1012
  9
$INSBASE
 10
0.0
 20
0.0
  9
$VIEWCTR
 10
7.531722
 20
4.5
  9
$VIEWSIZE
 40
9.0
  9
$SNAPMODE
 70
     0
  9
$SNAPUNIT
 10
1.0
 20
1.0
  9
$SNAPBASE
 10
0.0
 20
0.0
  9
$SNAPANG
 50
0.0
  9
$SNAPSTYLE
 70
     0
  9
$SNAPISOPAIR
 70
     0
  9
$GRIDMODE
 70
     0
  9
$GRIDUNIT
 10
0.0
 20
0.0
  9
$ORTHOMODE
 70
     0
  9
$REGENMODE
 70
     1
  9
$FILLMODE
 70
     1
  9
$QTEXTMODE
 70
     0
  9
$DRAGMODE
 70
     2
  9
$LTSCALE
 40
1.0
  9
$OSMODE
 70
     0
  9
$ATTMODE
 70
     1
  9
$TEXTSIZE
 40
0.2
  9
$TRACEWID
 40
0.05
  9
$TEXTSTYLE
  7
STANDARD
  9
$CELTYPE
  6
BYLAYER
  9
$CECOLOR
 62
   256
  9
$DIMSCALE
 40
1.0
  9
$DIMASZ
 40
0.18
  9
$DIMEXO
 40
0.0625
  9
$DIMDLI
 40
0.38
  9
$DIMRND
 40
0.0
  9
$DIMDLE
 40
0.0
  9
$DIMEXE
 40
0.18
  9
$DIMTP
 40
0.0
  9
$DIMTM
 40
0.0
  9
$DIMTXT
 40
0.18
  9
$DIMCEN
 40
0.09
  9
$DIMTSZ
 40
0.0
  9
$DIMTOL
 70
     0
  9
$DIMLIM
 70
     0
  9
$DIMTIH
 70
     1
  9
$DIMTOH
 70
     1
  9
$DIMSE1
 70
     0
  9
$DIMSE2
 70
     0
  9
$DIMTAD
 70
     0
  9
$DIMZIN
 70
     0
  9
$DIMBLK
  1

  9
$LUNITS
 70
     2
  9
$LUPREC
 70
     4
  9
$AXISMODE
 70
     0
  9
$AXISUNIT
 10
0.0
 20
0.0
  9
$SKETCHINC
 40
0.1
  9
$FILLETRAD
 40
0.0
  9
$AUNITS
 70
     0
  9
$AUPREC
 70
     0
  9
$MENU
  1
ACAD
  9
$ELEVATION
 40
0.0
  9
$THICKNESS
 40
0.0
  9
$VIEWDIR
 10
0.0
 20
0.0
 30
1.0
  9
$LIMCHECK
 70
     0
  9
$BLIPMODE
 70
     1
  9
$CHAMFERA
 40
0.0
  9
$CHAMFERB
 40
0.0
  9
$FASTZOOM
 70
     1
  9
$SKPOLY
 70
     0
  9
$TDCREATE
 40
0000000.0000000000
  9
$TDUPDATE
 40
0000000.0000000000
  9
$TDINDWG
 40
0.0000000000
  9
$TDUSRTIMER
 40
0.0000000000
  9
$USRTIMER
 70
     1
  9
$ANGBASE
 50
0.0
  9
$ANGDIR
 70
     0
  9
$PDMODE
 70
     0
  9
$PDSIZE
 40
0.0
  9
$PLINEWID
 40
0.0
  9
$COORDS
 70
     0
  9
$USERI1
 70
     0
  9
$USERI2
 70
     0
  9
$USERI3
 70
     0
  9
$USERI4
 70
     0
  9
$USERI5
 70
     0
  9
$USERR1
 40
0.0
  9
$USERR2
 40
0.0
  9
$USERR3
 40
0.0
  9
$USERR4
 40
0.0
  9
$USERR5
 40
0.0
  9
$CLAYER
  8
M0
  9
$EXTMIN
 10
0.0
 20
0.0
  9
$EXTMAX
 10
420.0
 20
297.0
  9
$LIMMIN
 10
0.0
 20
0.0
  9
$LIMMAX
 10
420.0
 20
297.0
  9
$HANDSEED
  5
16A
  0
ENDSEC
  0
SECTION
  2
CLASSES
  0
ENDSEC
  0
SECTION
  2
TABLES
  0
TABLE
  2
VPORT
  5
8
100
AcDbSymbolTable
 70
     2
  0
VPORT
  5
14
100
AcDbSymbolTableRecord
100
AcDbViewportTableRecord
  2
*ACTIVE
 70
     0
 10
0.0
 20
0.0
 11
1.0
 21
1.0
 12
484.0
 22
297.0
 13
0.0
 23
0.0
 14
1.0
 24
1.0
 15
0.0
 25
0.0
 16
0.0
 26
0.0
 36
1.0
 17
0.0
 27
0.0
 37
0.0
 40
594.0
 41
2.0
 42
50.0
 43
0.0
 44
0.0
 50
0.0
 51
0.0
 71
     0
 72
   100
 73
     1
 74
     1
 75
     0
 76
     0
 77
     0
 78
     0
  0
ENDTAB
  0
TABLE
  2
LTYPE
  5
5
100
AcDbSymbolTable
 70
     5
  0
LTYPE
  5
15
100
AcDbSymbolTableRecord
100
AcDbLinetypeTableRecord
  2
BYBLOCK
 70
     0
  3

 72
    65
 73
     0
 40
0.0
  0
LTYPE
  5
16
100
AcDbSymbolTableRecord
100
AcDbLinetypeTableRecord
  2
BYLAYER
 70
     0
  3

 72
    65
 73
     0
 40
0.0
  0
LTYPE
  5
17
100
AcDbSymbolTableRecord
100
AcDbLinetypeTableRecord
  2
CONTINUOUS
 70
    64
  3
Solid line
 72
    65
 73
     0
 40
0.0
  0
LTYPE
  5
18
100
AcDbSymbolTableRecord
100
AcDbLinetypeTableRecord
  2
DASHED
 70
    64
  3
__ __ __ __ __ __ __ __ __ __ __ __ __ __ __ __
 72
    65
 73
     2
 40
0.75
 49
0.5
 74
     0
 49
-0.25
 74
     0
  0
LTYPE
  5
19
100
AcDbSymbolTableRecord
100
AcDbLinetypeTableRecord
  2
DASHDOT
 70
    64
  3
__ . __ . __ . __ . __ . __ . __ . __ . __ . __
 72
    65
 73
     4
 40
1.0
 49
0.5
 74
     0
 49
-0.25
 74
     0
 49
0.0
 74
     0
 49
-0.25
 74
     0
  0
LTYPE
  5
1A
100
AcDbSymbolTableRecord
100
AcDbLinetypeTableRecord
  2
DIVIDE
 70
    64
  3
____ . . ____ . . ____ . . ____ . . ____ . . __
 72
    65
 73
     6
 40
1.25
 49
0.5
 74
     0
 49
-0.25
 74
     0
 49
0.0
 74
     0
 49
-0.25
 74
     0
 49
0.0
 74
     0
 49
-0.25
 74
     0
  0
LTYPE
  5
1B
100
AcDbSymbolTableRecord
100
AcDbLinetypeTableRecord
  2
DOT
 70
    64
  3
. . . . . . . . . . . . . . . . . . . . . . . .
 72
    65
 73
     2
 40
0.25
 49
0.0
 74
     0
 49
-0.25
 74
     0
  0
ENDTAB
  0
TABLE
  2
LAYER
  5
2
100
AcDbSymbolTable
 70
   102
  0
LAYER
  5
F
100
AcDbSymbolTableRecord
100
AcDbLayerTableRecord
  2
0
 70
     0
 62
     7
  6
CONTINUOUS
  0
LAYER
  5
1C
100
AcDbSymbolTableRecord
100
AcDbLayerTableRecord
  2
DEFPOINTS
 70
     0
 62
     7
  6
CONTINUOUS
  0
LAYER
  5
1D
100
AcDbSymbolTableRecord
100
AcDbLayerTableRecord
  2
M0
 70
     0
 62
     3
  6
CONTINUOUS
  0
LAYER
  5
1E
100
AcDbSymbolTableRecord
100
AcDbLayerTableRecord
  2
DD0
 70
     0
 62
     4
  6
CONTINUOUS
  0
ENDTAB
  0
TABLE
  2
STYLE
  5
3
100
AcDbSymbolTable
 70
     2
  0
STYLE
  5
10
100
AcDbSymbolTableRecord
100
AcDbTextStyleTableRecord
  2
STANDARD
 70
     0
 40
0.0
 41
1.0
 50
0.0
 71
     0
 42
0.2
  3
txt
  4
BIGFONT
  0
ENDTAB
  0
TABLE
  2
VIEW
  5
6
100
AcDbSymbolTable
 70
     0
  0
ENDTAB
  0
TABLE
  2
UCS
  5
7
100
AcDbSymbolTable
 70
     0
  0
ENDTAB
  0
TABLE
  2
APPID
  5
9
100
AcDbSymbolTable
 70
     1
  0
APPID
  5
11
100
AcDbSymbolTableRecord
100
AcDbRegAppTableRecord
  2
ACAD
 70
     0
  0
ENDTAB
  0
TABLE
  2
DIMSTYLE
  5
A
100
AcDbSymbolTable
 70
     2
  0
DIMSTYLE
105
25
100
AcDbSymbolTableRecord
100
AcDbDimStyleTableRecord
  2
STANDARD
 70
     0
  3

  4

  5

  6
_OPEN
  7
_OPEN
 40
1.0
 41
3.0
 42
0.0
 43
8.0
 44
1.5
 45
0.0
 46
0.0
 47
0.0
 48
0.0
140
3.5
141
0.09
142
0.0
143
0.03937
144
1.0
145
0.0
146
1.0
147
1.0
 71
     0
 72
     0
 73
     0
 74
     0
 75
     0
 76
     0
 77
     3
 78
     8
170
     0
171
     2
172
     0
173
     1
174
     0
175
     0
176
     0
177
     0
178
     0
270
     2
271
     2
272
     4
273
     2
274
     2
340
10
275
     0
280
     0
281
     0
282
     0
283
     1
284
     0
285
     0
286
     0
287
     3
288
     0
  0
DIMSTYLE
105
26
100
AcDbSymbolTableRecord
100
AcDbDimStyleTableRecord
  2
LEADSTYL
 70
     0
  3

  4

  5

  6
_OPEN
  7
_OPEN
 40
1.0
 41
3.0
 42
0.0625
 43
0.38
 44
0.18
 45
0.0
 46
0.0
 47
0.0
 48
0.0
140
3.5
141
0.09
142
0.0
143
25.4
144
1.0
145
0.0
146
1.0
147
1.0
 71
     0
 72
     0
 73
     1
 74
     1
 75
     0
 76
     0
 77
     0
 78
     0
170
     0
171
     2
172
     0
173
     1
174
     0
175
     0
176
     0
177
     0
178
     0
270
     2
271
     4
272
     4
273
     2
274
     2
340
10
275
     0
280
     0
281
     0
282
     0
283
     1
284
     0
285
     0
286
     0
287
     3
288
     0
  0
ENDTAB
  0
TABLE
  2
BLOCK_RECORD
  5
1
100
AcDbSymbolTable
 70
     6
  0
BLOCK_RECORD
  5
1F
100
AcDbSymbolTableRecord
100
AcDbBlockTableRecord
  2
*MODEL_SPACE
  0
BLOCK_RECORD
  5
22
100
AcDbSymbolTableRecord
100
AcDbBlockTableRecord
  2
*PAPER_SPACE
  0
BLOCK_RECORD
  5
27
100
AcDbSymbolTableRecord
100
AcDbBlockTableRecord
  2
_NONE
  0
BLOCK_RECORD
  5
2B
100
AcDbSymbolTableRecord
100
AcDbBlockTableRecord
  2
_OPEN
  0
BLOCK_RECORD
  5
31
100
AcDbSymbolTableRecord
100
AcDbBlockTableRecord
  2
_CLOSED
  0
BLOCK_RECORD
  5
38
100
AcDbSymbolTableRecord
100
AcDbBlockTableRecord
  2
_ORIGIN
  0
BLOCK_RECORD
  5
3D
100
AcDbSymbolTableRecord
100
AcDbBlockTableRecord
  2
_DOT
  0
BLOCK_RECORD
  5
45
100
AcDbSymbolTableRecord
100
AcDbBlockTableRecord
  2
_OBLIQUE
  0
ENDTAB
  0
ENDSEC
  0
SECTION
  2
BLOCKS
  0
BLOCK
  5
20
100
AcDbEntity
  8
0
100
AcDbBlockBegin
  2
*MODEL_SPACE
 70
     0
 10
0.0
 20
0.0
 30
0.0
  3
*MODEL_SPACE
  1

  0
ENDBLK
  5
21
100
AcDbEntity
  8
0
100
AcDbBlockEnd
  0
BLOCK
  5
23
100
AcDbEntity
 67
     1
  8
0
100
AcDbBlockBegin
  2
*PAPER_SPACE
 70
     0
 10
0.0
 20
0.0
 30
0.0
  3
*PAPER_SPACE
  1

  0
ENDBLK
  5
24
100
AcDbEntity
 67
     1
  8
0
100
AcDbBlockEnd
  0
BLOCK
  5
28
100
AcDbEntity
  8
0
100
AcDbBlockBegin
  2
_NONE
 70
     0
 10
0.0
 20
0.0
  0
CIRCLE
  5
29
100
AcDbEntity
  8
0
 62
     0
100
AcDbCircle
 10
0.0
 20
0.0
 40
0.25
  0
ENDBLK
  5
2A
100
AcDbEntity
  8
0
100
AcDbBlockEnd
  0
BLOCK
  5
2C
100
AcDbEntity
  8
0
100
AcDbBlockBegin
  2
_OPEN
 70
     0
 10
0.0
 20
0.0
  0
LINE
  5
2D
100
AcDbEntity
  8
0
 62
     0
100
AcDbLine
 10
-0.965926
 20
0.25882
 11
0.0
 21
0.0
  0
LINE
  5
2E
100
AcDbEntity
  8
0
 62
     0
100
AcDbLine
 10
0.0
 20
0.0
 11
-0.965926
 21
-0.25882
  0
LINE
  5
2F
100
AcDbEntity
  8
0
 62
     0
100
AcDbLine
 10
0.0
 20
0.0
 11
-1.0
 21
0.0
  0
ENDBLK
  5
30
100
AcDbEntity
  8
0
100
AcDbBlockEnd
  0
BLOCK
  5
32
100
AcDbEntity
  8
0
100
AcDbBlockBegin
  2
_CLOSED
 70
     0
 10
0.0
 20
0.0
  0
LINE
  5
33
100
AcDbEntity
  8
0
 62
     0
100
AcDbLine
 10
-0.965926
 20
0.25882
 11
0.0
 21
0.0
  0
LINE
  5
34
100
AcDbEntity
  8
0
 62
     0
100
AcDbLine
 10
0.0
 20
0.0
 11
-0.965926
 21
-0.25882
  0
LINE
  5
35
100
AcDbEntity
  8
0
 62
     0
100
AcDbLine
 10
-0.965926
 20
0.25882
 11
-0.965926
 21
-0.25882
  0
LINE
  5
36
100
AcDbEntity
  8
0
 62
     0
100
AcDbLine
 10
0.0
 20
0.0
 11
-1.0
 21
0.0
  0
ENDBLK
  5
37
100
AcDbEntity
  8
0
100
AcDbBlockEnd
  0
BLOCK
  5
39
100
AcDbEntity
  8
0
100
AcDbBlockBegin
  2
_ORIGIN
 70
     0
 10
0.0
 20
0.0
  0
CIRCLE
  5
3A
100
AcDbEntity
  8
0
 62
     0
100
AcDbCircle
 10
0.0
 20
0.0
 40
0.5
  0
LINE
  5
3B
100
AcDbEntity
  8
0
 62
     0
100
AcDbLine
 10
0.0
 20
0.0
 11
-1.0
 21
0.0
  0
ENDBLK
  5
3C
100
AcDbEntity
  8
0
100
AcDbBlockEnd
  0
BLOCK
  5
3E
100
AcDbEntity
  8
0
100
AcDbBlockBegin
  2
_DOT
 70
     0
 10
0.0
 20
0.0
  0
POLYLINE
  5
3F
100
AcDbEntity
  8
0
 62
     0
100
AcDb2dPolyline
 66
     1
 70
     1
 40
0.5
 41
0.5
  0
VERTEX
  5
40
100
AcDbEntity
  8
0
 62
     0
100
AcDbVertex
100
AcDb2dVertex
 10
-0.25
 20
0.0
 42
1.0
  0
VERTEX
  5
41
100
AcDbEntity
  8
0
 62
     0
100
AcDbVertex
100
AcDb2dVertex
 10
0.25
 20
0.0
 42
1.0
  0
SEQEND
  5
42
100
AcDbEntity
  8
0
 62
     0
  0
LINE
  5
43
100
AcDbEntity
  8
0
 62
     0
100
AcDbLine
 10
-0.5
 20
0.0
 11
-1.0
 21
0.0
  0
ENDBLK
  5
44
100
AcDbEntity
  8
0
100
AcDbBlockEnd
  0
BLOCK
  5
46
100
AcDbEntity
  8
0
100
AcDbBlockBegin
  2
_OBLIQUE
 70
     0
 10
0.0
 20
0.0
  0
LINE
  5
47
100
AcDbEntity
  8
0
 62
     0
100
AcDbLine
 10
-0.353553
 20
-0.353553
 11
0.353553
 21
0.353553
  0
ENDBLK
  5
48
100
AcDbEntity
  8
0
100
AcDbBlockEnd
  0
ENDSEC
  0
SECTION
  2
ENTITIES
  0
LEADER
  5
49
100
AcDbEntity
  8
DD0
100
AcDbLeader
  3
LEADSTYL
 76
     3
 10
96.520111
 20
182.664749
 10
99.24968
 20
198.749619
 10
115.24968
 20
198.749619
340
4A
 77
     4
  0
TEXT
  5
4A
100
AcDbEntity
  8
DD0
100
AcDbText
 10
100.541346
 20
199.749619
 40
3.5
  1
６０Ｈｚ
 41
0.833333
  7
STANDARD
100
AcDbText
  0
LEADER
  5
4B
100
AcDbEntity
  8
DD0
100
AcDbLeader
  3
LEADSTYL
 76
     3
 10
67.763847
 20
200.686859
 10
74.083214
 20
217.019943
 10
90.083214
 20
217.019943
340
4C
 77
     4
  0
TEXT
  5
4C
100
AcDbEntity
  8
DD0
100
AcDbText
 10
75.37488
 20
218.019943
 40
3.5
  1
５０Ｈｚ
 41
0.833333
  7
STANDARD
100
AcDbText
  0
LEADER
  5
4D
100
AcDbEntity
  8
DD0
100
AcDbLeader
  3
LEADSTYL
 76
     3
 10
201.698669
 20
187.787247
 10
207.851349
 20
199.125366
 10
223.851349
 20
199.125366
340
4E
 77
     4
  0
TEXT
  5
4E
100
AcDbEntity
  8
DD0
100
AcDbText
 10
209.143016
 20
200.125366
 40
3.5
  1
６０Ｈｚ
 41
0.833333
  7
STANDARD
100
AcDbText
  0
LEADER
  5
4F
100
AcDbEntity
  8
DD0
100
AcDbLeader
  3
LEADSTYL
 76
     3
 10
173.770218
 20
211.329758
 10
179.778503
 20
226.175323
 10
195.778503
 20
226.175323
340
50
 77
     4
  0
TEXT
  5
50
100
AcDbEntity
  8
DD0
100
AcDbText
 10
181.07017
 20
227.175323
 40
3.5
  1
５０Ｈｚ
 41
0.833333
  7
STANDARD
100
AcDbText
  0
LEADER
  5
51
100
AcDbEntity
  8
DD0
100
AcDbLeader
  3
LEADSTYL
 76
     3
 10
103.340889
 20
64.672272
 10
106.92411
 20
83.38623
 10
122.92411
 20
83.38623
340
52
 77
     4
  0
TEXT
  5
52
100
AcDbEntity
  8
DD0
100
AcDbText
 10
108.215777
 20
84.38623
 40
3.5
  1
６０Ｈｚ
 41
0.833333
  7
STANDARD
100
AcDbText
  0
LEADER
  5
53
100
AcDbEntity
  8
DD0
100
AcDbLeader
  3
LEADSTYL
 76
     3
 10
77.367767
 20
90.763466
 10
83.261536
 20
100.121422
 10
99.261536
 20
100.121422
340
54
 77
     4
  0
TEXT
  5
54
100
AcDbEntity
  8
DD0
100
AcDbText
 10
84.553202
 20
101.121422
 40
3.5
  1
５０Ｈｚ
 41
0.833333
  7
STANDARD
100
AcDbText
  0
LINE
  5
55
100
AcDbEntity
  8
M0
 62
    74
100
AcDbLine
 10
31.60105
 20
265.668997
 11
65.03937
 21
265.668997
  0
LINE
  5
56
100
AcDbEntity
  8
M0
 62
    74
100
AcDbLine
 10
31.60105
 20
265.668997
 11
65.03937
 21
265.668997
  0
LINE
  5
57
100
AcDbEntity
  8
M0
 62
    74
100
AcDbLine
 10
31.60105
 20
265.668997
 11
64.304462
 21
265.668997
  0
LINE
  5
58
100
AcDbEntity
  8
M0
 62
    74
100
AcDbLine
 10
31.60105
 20
265.668997
 11
35.643045
 21
265.668997
  0
LINE
  5
59
100
AcDbEntity
  8
M0
 62
    74
100
AcDbLine
 10
35.643045
 20
265.668997
 11
31.60105
 21
265.668997
  0
LINE
  5
5A
100
AcDbEntity
  8
M0
 62
    74
100
AcDbLine
 10
31.60105
 20
265.668997
 11
31.60105
 21
280.367454
  0
LINE
  5
5B
100
AcDbEntity
  8
M0
 62
    74
100
AcDbLine
 10
65.03937
 20
265.668997
 11
65.03937
 21
280.367454
  0
LINE
  5
5C
100
AcDbEntity
  8
M0
 62
    74
100
AcDbLine
 10
65.03937
 20
280.367454
 11
31.60105
 21
280.367454
  0
TEXT
  5
5D
100
AcDbEntity
  8
M0
 62
    74
100
AcDbText
 10
36.143044
 20
268.608924
 40
10.0
  1
揚水性能
 41
0.5
  7
STANDARD
100
AcDbText
  0
TEXT
  5
5E
100
AcDbEntity
  8
M0
 62
    74
100
AcDbText
 10
247.690911
 20
85.007056
 40
4.5
  1
ＳＦＭ－Ｐ４５０Ｊ、ＳＦＭ－Ｐ６００Ｊ、ＳＦＭ－Ｋ７５０Ｊ　仕様表
 41
0.777778
  7
STANDARD
100
AcDbText
  0
LINE
  5
5F
100
AcDbEntity
  8
M0
100
AcDbLine
 10
240.682415
 20
280.367454
 11
276.326172
 21
280.367454
  0
LINE
  5
60
100
AcDbEntity
  8
M0
100
AcDbLine
 10
240.682415
 20
280.367454
 11
240.682415
 21
265.668997
  0
LINE
  5
61
100
AcDbEntity
  8
M0
100
AcDbLine
 10
276.326172
 20
280.367454
 11
276.326172
 21
265.668997
  0
LINE
  5
62
100
AcDbEntity
  8
M0
100
AcDbLine
 10
240.682415
 20
265.668997
 11
276.326172
 21
265.668997
  0
TEXT
  5
63
100
AcDbEntity
  8
M0
100
AcDbText
 10
246.831796
 20
268.879684
 40
8.3335
  1
仕　様
 41
0.836667
  7
STANDARD
100
AcDbText
  0
LINE
  5
64
100
AcDbEntity
  8
M0
 62
     7
100
AcDbLine
 10
126.931759
 20
159.107612
 11
126.931759
 21
240.107612
  0
LINE
  5
65
100
AcDbEntity
  8
M0
 62
     7
100
AcDbLine
 10
126.931759
 20
240.107612
 11
45.931759
 21
240.107612
  0
LINE
  5
66
100
AcDbEntity
  8
M0
 62
     7
100
AcDbLine
 10
45.931759
 20
240.107612
 11
45.931759
 21
159.107612
  0
LINE
  5
67
100
AcDbEntity
  8
M0
 62
     7
100
AcDbLine
 10
45.931759
 20
159.107612
 11
126.931759
 21
159.107612
  0
LINE
  5
68
100
AcDbEntity
  8
M0
 62
     7
100
AcDbLine
 10
126.931759
 20
168.107612
 11
45.931759
 21
168.107612
  0
LINE
  5
69
100
AcDbEntity
  8
M0
 62
     7
100
AcDbLine
 10
126.931759
 20
177.107612
 11
45.931759
 21
177.107612
  0
LINE
  5
6A
100
AcDbEntity
  8
M0
 62
     7
100
AcDbLine
 10
126.931759
 20
186.107612
 11
45.931759
 21
186.107612
  0
LINE
  5
6B
100
AcDbEntity
  8
M0
 62
     7
100
AcDbLine
 10
126.931759
 20
195.107612
 11
45.931759
 21
195.107612
  0
LINE
  5
6C
100
AcDbEntity
  8
M0
 62
     7
100
AcDbLine
 10
126.931759
 20
204.107612
 11
45.931759
 21
204.107612
  0
LINE
  5
6D
100
AcDbEntity
  8
M0
 62
     7
100
AcDbLine
 10
126.931759
 20
213.107612
 11
45.931759
 21
213.107612
  0
LINE
  5
6E
100
AcDbEntity
  8
M0
 62
     7
100
AcDbLine
 10
126.931759
 20
222.107612
 11
45.931759
 21
222.107612
  0
LINE
  5
6F
100
AcDbEntity
  8
M0
 62
     7
100
AcDbLine
 10
126.931759
 20
231.107612
 11
45.931759
 21
231.107612
  0
LINE
  5
70
100
AcDbEntity
  8
M0
 62
     7
100
AcDbLine
 10
54.931759
 20
240.107612
 11
54.931759
 21
159.107612
  0
LINE
  5
71
100
AcDbEntity
  8
M0
 62
     7
100
AcDbLine
 10
63.931759
 20
240.107612
 11
63.931759
 21
159.107612
  0
LINE
  5
72
100
AcDbEntity
  8
M0
 62
     7
100
AcDbLine
 10
72.931759
 20
240.107612
 11
72.931759
 21
159.107612
  0
LINE
  5
73
100
AcDbEntity
  8
M0
 62
     7
100
AcDbLine
 10
81.931759
 20
240.107612
 11
81.931759
 21
222.107612
  0
LINE
  5
74
100
AcDbEntity
  8
M0
 62
     7
100
AcDbLine
 10
90.931759
 20
240.107612
 11
90.931759
 21
159.107612
  0
LINE
  5
75
100
AcDbEntity
  8
M0
 62
     7
100
AcDbLine
 10
99.931759
 20
240.107612
 11
99.931759
 21
204.107612
  0
LINE
  5
76
100
AcDbEntity
  8
M0
 62
     7
100
AcDbLine
 10
108.931759
 20
240.107612
 11
108.931759
 21
204.107612
  0
LINE
  5
77
100
AcDbEntity
  8
M0
 62
     7
100
AcDbLine
 10
117.931759
 20
240.107612
 11
117.931759
 21
159.107612
  0
TEXT
  5
78
100
AcDbEntity
  8
M0
 62
     7
100
AcDbText
 10
41.167087
 20
158.532515
 40
3.553875
  1
０
 41
0.777778
  7
STANDARD
100
AcDbText
  0
TEXT
  5
79
100
AcDbEntity
  8
M0
 62
     7
100
AcDbText
 10
38.231689
 20
165.798682
 40
3.553875
  1
１０
 41
0.777778
  7
STANDARD
100
AcDbText
  0
TEXT
  5
7A
100
AcDbEntity
  8
M0
 62
     7
100
AcDbText
 10
38.231689
 20
175.590573
 40
3.553875
  1
２０
 41
0.777778
  7
STANDARD
100
AcDbText
  0
TEXT
  5
7B
100
AcDbEntity
  8
M0
 62
     7
100
AcDbText
 10
38.231689
 20
184.631957
 40
3.553875
  1
３０
 41
0.777778
  7
STANDARD
100
AcDbText
  0
TEXT
  5
7C
100
AcDbEntity
  8
M0
 62
     7
100
AcDbText
 10
38.231689
 20
193.067504
 40
3.553875
  1
４０
 41
0.777778
  7
STANDARD
100
AcDbText
  0
TEXT
  5
7D
100
AcDbEntity
  8
M0
 62
     7
100
AcDbText
 10
38.231689
 20
201.583175
 40
3.553875
  1
５０
 41
0.777778
  7
STANDARD
100
AcDbText
  0
TEXT
  5
7E
100
AcDbEntity
  8
M0
 62
     7
100
AcDbText
 10
38.231689
 20
210.249301
 40
3.553875
  1
６０
 41
0.777778
  7
STANDARD
100
AcDbText
  0
TEXT
  5
7F
100
AcDbEntity
  8
M0
 62
     7
100
AcDbText
 10
38.231689
 20
219.249301
 40
3.553875
  1
７０
 41
0.777778
  7
STANDARD
100
AcDbText
  0
TEXT
  5
80
100
AcDbEntity
  8
M0
 62
     7
100
AcDbText
 10
38.231689
 20
228.249301
 40
3.553875
  1
８０
 41
0.777778
  7
STANDARD
100
AcDbText
  0
TEXT
  5
81
100
AcDbEntity
  8
M0
 62
     7
100
AcDbText
 10
38.231689
 20
237.249301
 40
3.553875
  1
９０
 41
0.777778
  7
STANDARD
100
AcDbText
  0
TEXT
  5
82
100
AcDbEntity
  8
M0
 62
     7
100
AcDbText
 10
44.083237
 20
154.204841
 40
3.553875
  1
０
 41
0.777778
  7
STANDARD
100
AcDbText
  0
TEXT
  5
83
100
AcDbEntity
  8
M0
 62
     7
100
AcDbText
 10
52.548874
 20
153.579356
 40
3.553875
  1
１０
 41
0.777778
  7
STANDARD
100
AcDbText
  0
TEXT
  5
84
100
AcDbEntity
  8
M0
 62
     7
100
AcDbText
 10
61.548878
 20
153.579356
 40
3.553875
  1
２０
 41
0.777778
  7
STANDARD
100
AcDbText
  0
TEXT
  5
85
100
AcDbEntity
  8
M0
 62
     7
100
AcDbText
 10
70.548878
 20
153.579356
 40
3.553875
  1
３０
 41
0.777778
  7
STANDARD
100
AcDbText
  0
TEXT
  5
86
100
AcDbEntity
  8
M0
 62
     7
100
AcDbText
 10
79.548877
 20
153.579356
 40
3.553875
  1
４０
 41
0.777778
  7
STANDARD
100
AcDbText
  0
TEXT
  5
87
100
AcDbEntity
  8
M0
 62
     7
100
AcDbText
 10
88.548876
 20
153.579356
 40
3.553875
  1
５０
 41
0.777778
  7
STANDARD
100
AcDbText
  0
TEXT
  5
88
100
AcDbEntity
  8
M0
 62
     7
100
AcDbText
 10
97.548877
 20
153.579356
 40
3.553875
  1
６０
 41
0.777778
  7
STANDARD
100
AcDbText
  0
TEXT
  5
89
100
AcDbEntity
  8
M0
 62
     7
100
AcDbText
 10
106.548878
 20
153.579356
 40
3.553875
  1
７０
 41
0.777778
  7
STANDARD
100
AcDbText
  0
TEXT
  5
8A
100
AcDbEntity
  8
M0
 62
     7
100
AcDbText
 10
115.548876
 20
153.579356
 40
3.553875
  1
８０
 41
0.777778
  7
STANDARD
100
AcDbText
  0
TEXT
  5
8B
100
AcDbEntity
  8
M0
 62
     7
100
AcDbText
 10
124.548878
 20
153.579356
 40
3.553875
  1
９０
 41
0.777778
  7
STANDARD
100
AcDbText
  0
TEXT
  5
8C
100
AcDbEntity
  8
M0
 62
     7
100
AcDbText
 10
70.237828
 20
145.134646
 40
5.52825
  1
揚水量
 41
1.666667
  7
STANDARD
100
AcDbText
  0
TEXT
  5
8D
100
AcDbEntity
  8
M0
 62
     7
100
AcDbText
 10
101.212704
 20
146.365905
 40
3.553875
  1
（Ｌ／分）
 41
0.777778
  7
STANDARD
100
AcDbText
  0
TEXT
  5
8E
100
AcDbEntity
  8
M0
 62
     7
100
AcDbText
 10
26.374801
 20
206.929354
 40
5.52825
  1
全
 41
1.388889
  7
STANDARD
100
AcDbText
  0
TEXT
  5
8F
100
AcDbEntity
  8
M0
 62
     7
100
AcDbText
 10
26.374801
 20
195.872854
 40
5.52825
  1
揚
 41
1.388889
  7
STANDARD
100
AcDbText
  0
TEXT
  5
90
100
AcDbEntity
  8
M0
 62
     7
100
AcDbText
 10
26.374801
 20
184.816354
 40
5.52825
  1
程
 41
1.388889
  7
STANDARD
100
AcDbText
  0
TEXT
  5
91
100
AcDbEntity
  8
M0
 62
     7
100
AcDbText
 10
25.52359
 20
175.829337
 40
3.553875
  1
（ｍ）
 41
0.777778
  7
STANDARD
100
AcDbText
  0
LINE
  5
92
100
AcDbEntity
  8
M0
 62
     7
100
AcDbLine
 10
81.931759
 20
213.107612
 11
81.931759
 21
159.107612
  0
LINE
  5
93
100
AcDbEntity
  8
M0
 62
     7
100
AcDbLine
 10
99.931759
 20
195.107612
 11
99.931759
 21
159.107612
  0
LINE
  5
94
100
AcDbEntity
  8
M0
 62
     7
100
AcDbLine
 10
108.931759
 20
195.107612
 11
108.931759
 21
159.107612
  0
SPLINE
  5
95
100
AcDbEntity
  8
M0
 62
     4
100
AcDbSpline
210
0.0
220
0.0
230
-1.0
 70
     8
 71
     3
 72
    17
 73
    13
 43
0.0000001
 40
0.0
 40
0.0
 40
0.0
 40
0.0
 40
1.0
 40
1.0
 40
1.0
 40
2.0
 40
2.0
 40
2.0
 40
3.0
 40
3.0
 40
3.0
 40
4.0
 40
4.0
 40
4.0
 40
4.0
 10
45.931759
 20
204.107612
 10
55.781098
 20
201.02449
 10
65.630432
 20
197.941369
 10
72.931759
 20
195.107612
 10
80.233085
 20
192.273855
 10
84.9864
 20
189.689461
 10
90.931759
 20
186.107612
 10
96.877117
 20
182.525762
 10
104.014511
 20
177.946458
 10
108.931759
 20
174.407612
 10
112.891612
 20
171.557783
 10
115.411683
 20
169.382697
 10
117.931759
 20
167.207612
  0
SPLINE
  5
96
100
AcDbEntity
  8
M0
 62
     1
100
AcDbSpline
210
0.0
220
0.0
230
-1.0
 70
     8
 71
     3
 72
    14
 73
    10
 43
0.0000001
 40
0.0
 40
0.0
 40
0.0
 40
0.0
 40
1.0
 40
1.0
 40
1.0
 40
2.0
 40
2.0
 40
2.0
 40
3.0
 40
3.0
 40
3.0
 40
3.0
 10
45.931759
 20
210.407612
 10
50.662584
 20
208.661856
 10
55.393414
 20
206.916095
 10
61.231759
 20
204.107612
 10
67.070104
 20
201.299128
 10
74.015971
 20
197.427906
 10
81.931759
 20
190.607612
 10
90.222443
 20
183.464303
 10
99.577103
 20
173.085954
 10
108.931759
 20
162.707612
  0
TEXT
  5
97
100
AcDbEntity
  8
M0
100
AcDbText
 10
59.765092
 20
249.813353
 40
8.0
  1
ＳＦＭ－Ｐ４５０Ｊ
 41
0.416667
  7
STANDARD
100
AcDbText
  0
SPLINE
  5
98
100
AcDbEntity
  8
M0
 62
     1
100
AcDbSpline
210
0.0
220
0.0
230
-1.0
 70
     8
 71
     3
 72
    17
 73
    13
 43
0.0000001
 40
0.0
 40
0.0
 40
0.0
 40
0.0
 40
1.0
 40
1.0
 40
1.0
 40
2.0
 40
2.0
 40
2.0
 40
3.0
 40
3.0
 40
3.0
 40
4.0
 40
4.0
 40
4.0
 40
4.0
 10
150.656168
 20
225.707612
 10
156.701609
 20
222.315036
 10
162.747042
 20
218.922459
 10
168.656168
 20
214.907612
 10
174.565294
 20
210.892765
 10
180.338106
 20
206.255635
 10
186.656168
 20
199.607612
 10
192.97423
 20
192.959588
 10
199.837524
 20
184.300668
 10
204.656168
 20
178.007612
 10
208.543111
 20
172.931339
 10
211.099636
 20
169.394475
 10
213.656168
 20
165.857612
  0
LINE
  5
99
100
AcDbEntity
  8
M0
 62
     7
100
AcDbLine
 10
231.656168
 20
159.107612
 11
231.656168
 21
240.107612
  0
LINE
  5
9A
100
AcDbEntity
  8
M0
 62
     7
100
AcDbLine
 10
231.656168
 20
240.107612
 11
150.656168
 21
240.107612
  0
LINE
  5
9B
100
AcDbEntity
  8
M0
 62
     7
100
AcDbLine
 10
150.656168
 20
240.107612
 11
150.656168
 21
159.107612
  0
LINE
  5
9C
100
AcDbEntity
  8
M0
 62
     7
100
AcDbLine
 10
150.656168
 20
159.107612
 11
231.656168
 21
159.107612
  0
LINE
  5
9D
100
AcDbEntity
  8
M0
 62
     7
100
AcDbLine
 10
231.656168
 20
168.107612
 11
150.656168
 21
168.107612
  0
LINE
  5
9E
100
AcDbEntity
  8
M0
 62
     7
100
AcDbLine
 10
231.656168
 20
177.107612
 11
150.656168
 21
177.107612
  0
LINE
  5
9F
100
AcDbEntity
  8
M0
 62
     7
100
AcDbLine
 10
231.656168
 20
186.107612
 11
150.656168
 21
186.107612
  0
LINE
  5
A0
100
AcDbEntity
  8
M0
 62
     7
100
AcDbLine
 10
231.656168
 20
195.107612
 11
150.656168
 21
195.107612
  0
LINE
  5
A1
100
AcDbEntity
  8
M0
 62
     7
100
AcDbLine
 10
231.656168
 20
204.107612
 11
150.656168
 21
204.107612
  0
LINE
  5
A2
100
AcDbEntity
  8
M0
 62
     7
100
AcDbLine
 10
231.656168
 20
213.107612
 11
150.656168
 21
213.107612
  0
LINE
  5
A3
100
AcDbEntity
  8
M0
 62
     7
100
AcDbLine
 10
231.656168
 20
222.107612
 11
150.656168
 21
222.107612
  0
LINE
  5
A4
100
AcDbEntity
  8
M0
 62
     7
100
AcDbLine
 10
231.656168
 20
231.107612
 11
150.656168
 21
231.107612
  0
LINE
  5
A5
100
AcDbEntity
  8
M0
 62
     7
100
AcDbLine
 10
159.656168
 20
240.107612
 11
159.656168
 21
159.107612
  0
LINE
  5
A6
100
AcDbEntity
  8
M0
 62
     7
100
AcDbLine
 10
168.656168
 20
240.107612
 11
168.656168
 21
159.107612
  0
LINE
  5
A7
100
AcDbEntity
  8
M0
 62
     7
100
AcDbLine
 10
177.656168
 20
240.107612
 11
177.656168
 21
159.107612
  0
LINE
  5
A8
100
AcDbEntity
  8
M0
 62
     7
100
AcDbLine
 10
186.656168
 20
240.107612
 11
186.656168
 21
231.107612
  0
LINE
  5
A9
100
AcDbEntity
  8
M0
 62
     7
100
AcDbLine
 10
195.656168
 20
240.107612
 11
195.656168
 21
159.107612
  0
LINE
  5
AA
100
AcDbEntity
  8
M0
 62
     7
100
AcDbLine
 10
204.656168
 20
240.107612
 11
204.656168
 21
159.107612
  0
LINE
  5
AB
100
AcDbEntity
  8
M0
 62
     7
100
AcDbLine
 10
213.656168
 20
240.107612
 11
213.656168
 21
204.107612
  0
LINE
  5
AC
100
AcDbEntity
  8
M0
 62
     7
100
AcDbLine
 10
222.656168
 20
240.107612
 11
222.656168
 21
159.107612
  0
TEXT
  5
AD
100
AcDbEntity
  8
M0
 62
     7
100
AcDbText
 10
145.891497
 20
158.532515
 40
3.553875
  1
０
 41
0.777778
  7
STANDARD
100
AcDbText
  0
TEXT
  5
AE
100
AcDbEntity
  8
M0
 62
     7
100
AcDbText
 10
142.956099
 20
165.798682
 40
3.553875
  1
１０
 41
0.777778
  7
STANDARD
100
AcDbText
  0
TEXT
  5
AF
100
AcDbEntity
  8
M0
 62
     7
100
AcDbText
 10
142.956099
 20
175.590573
 40
3.553875
  1
２０
 41
0.777778
  7
STANDARD
100
AcDbText
  0
TEXT
  5
B0
100
AcDbEntity
  8
M0
 62
     7
100
AcDbText
 10
142.956099
 20
184.631957
 40
3.553875
  1
３０
 41
0.777778
  7
STANDARD
100
AcDbText
  0
TEXT
  5
B1
100
AcDbEntity
  8
M0
 62
     7
100
AcDbText
 10
142.956099
 20
193.067504
 40
3.553875
  1
４０
 41
0.777778
  7
STANDARD
100
AcDbText
  0
TEXT
  5
B2
100
AcDbEntity
  8
M0
 62
     7
100
AcDbText
 10
142.956099
 20
201.583175
 40
3.553875
  1
５０
 41
0.777778
  7
STANDARD
100
AcDbText
  0
TEXT
  5
B3
100
AcDbEntity
  8
M0
 62
     7
100
AcDbText
 10
142.956099
 20
210.249301
 40
3.553875
  1
６０
 41
0.777778
  7
STANDARD
100
AcDbText
  0
TEXT
  5
B4
100
AcDbEntity
  8
M0
 62
     7
100
AcDbText
 10
142.956099
 20
219.249301
 40
3.553875
  1
７０
 41
0.777778
  7
STANDARD
100
AcDbText
  0
TEXT
  5
B5
100
AcDbEntity
  8
M0
 62
     7
100
AcDbText
 10
142.956099
 20
228.249301
 40
3.553875
  1
８０
 41
0.777778
  7
STANDARD
100
AcDbText
  0
TEXT
  5
B6
100
AcDbEntity
  8
M0
 62
     7
100
AcDbText
 10
142.956099
 20
237.249301
 40
3.553875
  1
９０
 41
0.777778
  7
STANDARD
100
AcDbText
  0
TEXT
  5
B7
100
AcDbEntity
  8
M0
 62
     7
100
AcDbText
 10
148.807646
 20
154.204841
 40
3.553875
  1
０
 41
0.777778
  7
STANDARD
100
AcDbText
  0
TEXT
  5
B8
100
AcDbEntity
  8
M0
 62
     7
100
AcDbText
 10
157.273283
 20
153.579356
 40
3.553875
  1
１０
 41
0.777778
  7
STANDARD
100
AcDbText
  0
TEXT
  5
B9
100
AcDbEntity
  8
M0
 62
     7
100
AcDbText
 10
166.273287
 20
153.579356
 40
3.553875
  1
２０
 41
0.777778
  7
STANDARD
100
AcDbText
  0
TEXT
  5
BA
100
AcDbEntity
  8
M0
 62
     7
100
AcDbText
 10
175.273287
 20
153.579356
 40
3.553875
  1
３０
 41
0.777778
  7
STANDARD
100
AcDbText
  0
TEXT
  5
BB
100
AcDbEntity
  8
M0
 62
     7
100
AcDbText
 10
184.273286
 20
153.579356
 40
3.553875
  1
４０
 41
0.777778
  7
STANDARD
100
AcDbText
  0
TEXT
  5
BC
100
AcDbEntity
  8
M0
 62
     7
100
AcDbText
 10
193.273286
 20
153.579356
 40
3.553875
  1
５０
 41
0.777778
  7
STANDARD
100
AcDbText
  0
TEXT
  5
BD
100
AcDbEntity
  8
M0
 62
     7
100
AcDbText
 10
202.273286
 20
153.579356
 40
3.553875
  1
６０
 41
0.777778
  7
STANDARD
100
AcDbText
  0
TEXT
  5
BE
100
AcDbEntity
  8
M0
 62
     7
100
AcDbText
 10
211.273287
 20
153.579356
 40
3.553875
  1
７０
 41
0.777778
  7
STANDARD
100
AcDbText
  0
TEXT
  5
BF
100
AcDbEntity
  8
M0
 62
     7
100
AcDbText
 10
220.273285
 20
153.579356
 40
3.553875
  1
８０
 41
0.777778
  7
STANDARD
100
AcDbText
  0
TEXT
  5
C0
100
AcDbEntity
  8
M0
 62
     7
100
AcDbText
 10
229.273287
 20
153.579356
 40
3.553875
  1
９０
 41
0.777778
  7
STANDARD
100
AcDbText
  0
TEXT
  5
C1
100
AcDbEntity
  8
M0
 62
     7
100
AcDbText
 10
174.962234
 20
145.134642
 40
5.52825
  1
揚水量
 41
1.666667
  7
STANDARD
100
AcDbText
  0
TEXT
  5
C2
100
AcDbEntity
  8
M0
 62
     7
100
AcDbText
 10
205.937113
 20
146.365901
 40
3.553875
  1
（Ｌ／分）
 41
0.777778
  7
STANDARD
100
AcDbText
  0
TEXT
  5
C3
100
AcDbEntity
  8
M0
 62
     7
100
AcDbText
 10
131.09921
 20
206.929353
 40
5.52825
  1
全
 41
1.388889
  7
STANDARD
100
AcDbText
  0
TEXT
  5
C4
100
AcDbEntity
  8
M0
 62
     7
100
AcDbText
 10
131.09921
 20
195.872853
 40
5.52825
  1
揚
 41
1.388889
  7
STANDARD
100
AcDbText
  0
TEXT
  5
C5
100
AcDbEntity
  8
M0
 62
     7
100
AcDbText
 10
131.09921
 20
184.816354
 40
5.52825
  1
程
 41
1.388889
  7
STANDARD
100
AcDbText
  0
TEXT
  5
C6
100
AcDbEntity
  8
M0
 62
     7
100
AcDbText
 10
130.247992
 20
175.829339
 40
3.553875
  1
（ｍ）
 41
0.777778
  7
STANDARD
100
AcDbText
  0
LINE
  5
C7
100
AcDbEntity
  8
M0
 62
     7
100
AcDbLine
 10
186.656168
 20
222.107612
 11
186.656168
 21
159.107612
  0
LINE
  5
C8
100
AcDbEntity
  8
M0
 62
     7
100
AcDbLine
 10
213.656168
 20
195.107612
 11
213.656168
 21
159.107612
  0
SPLINE
  5
C9
100
AcDbEntity
  8
M0
 62
     4
100
AcDbSpline
210
0.0
220
0.0
230
-1.0
 70
     8
 71
     3
 72
    20
 73
    16
 43
0.0000001
 40
0.0
 40
0.0
 40
0.0
 40
0.0
 40
1.0
 40
1.0
 40
1.0
 40
2.0
 40
2.0
 40
2.0
 40
3.0
 40
3.0
 40
3.0
 40
4.0
 40
4.0
 40
4.0
 40
5.0
 40
5.0
 40
5.0
 40
5.0
 10
150.656168
 20
218.507612
 10
156.703136
 20
215.931606
 10
162.750099
 20
213.355599
 10
168.656168
 20
210.407612
 10
174.562237
 20
207.459624
 10
180.327407
 20
204.139649
 10
186.656168
 20
199.607612
 10
192.984929
 20
195.075574
 10
199.87727
 20
189.331474
 10
204.656168
 20
185.207612
 10
208.421527
 20
181.958364
 10
210.87484
 20
179.71497
 10
213.656168
 20
177.107612
 10
216.437496
 20
174.500253
 10
219.546831
 20
171.528931
 10
222.656168
 20
168.557612
  0
TEXT
  5
CA
100
AcDbEntity
  8
M0
100
AcDbText
 10
164.489501
 20
249.813353
 40
8.0
  1
ＳＦＭ－Ｐ６００Ｊ
 41
0.416667
  7
STANDARD
100
AcDbText
  0
LINE
  5
CB
100
AcDbEntity
  8
M0
 62
     7
100
AcDbLine
 10
126.908136
 20
34.700787
 11
126.908136
 21
115.700787
  0
LINE
  5
CC
100
AcDbEntity
  8
M0
 62
     7
100
AcDbLine
 10
126.908136
 20
115.700787
 11
45.908136
 21
115.700787
  0
LINE
  5
CD
100
AcDbEntity
  8
M0
 62
     7
100
AcDbLine
 10
45.908136
 20
115.700787
 11
45.908136
 21
34.700787
  0
LINE
  5
CE
100
AcDbEntity
  8
M0
 62
     7
100
AcDbLine
 10
45.908136
 20
34.700787
 11
126.908136
 21
34.700787
  0
LINE
  5
CF
100
AcDbEntity
  8
M0
 62
     7
100
AcDbLine
 10
126.908136
 20
43.700787
 11
45.908136
 21
43.700787
  0
LINE
  5
D0
100
AcDbEntity
  8
M0
 62
     7
100
AcDbLine
 10
126.908136
 20
52.700787
 11
45.908136
 21
52.700787
  0
LINE
  5
D1
100
AcDbEntity
  8
M0
 62
     7
100
AcDbLine
 10
126.908136
 20
61.700787
 11
45.908136
 21
61.700787
  0
LINE
  5
D2
100
AcDbEntity
  8
M0
 62
     7
100
AcDbLine
 10
126.908136
 20
70.700787
 11
45.908136
 21
70.700787
  0
LINE
  5
D3
100
AcDbEntity
  8
M0
 62
     7
100
AcDbLine
 10
126.908136
 20
79.700787
 11
45.908136
 21
79.700787
  0
LINE
  5
D4
100
AcDbEntity
  8
M0
 62
     7
100
AcDbLine
 10
126.908136
 20
88.700787
 11
45.908136
 21
88.700787
  0
LINE
  5
D5
100
AcDbEntity
  8
M0
 62
     7
100
AcDbLine
 10
126.908136
 20
97.700787
 11
45.908136
 21
97.700787
  0
LINE
  5
D6
100
AcDbEntity
  8
M0
 62
     7
100
AcDbLine
 10
126.908136
 20
106.700787
 11
45.908136
 21
106.700787
  0
LINE
  5
D7
100
AcDbEntity
  8
M0
 62
     7
100
AcDbLine
 10
54.908136
 20
115.700787
 11
54.908136
 21
34.700787
  0
LINE
  5
D8
100
AcDbEntity
  8
M0
 62
     7
100
AcDbLine
 10
63.908136
 20
115.700787
 11
63.908136
 21
34.700787
  0
LINE
  5
D9
100
AcDbEntity
  8
M0
 62
     7
100
AcDbLine
 10
72.908136
 20
115.700787
 11
72.908136
 21
34.700787
  0
LINE
  5
DA
100
AcDbEntity
  8
M0
 62
     7
100
AcDbLine
 10
81.908136
 20
115.700787
 11
81.908136
 21
34.700787
  0
LINE
  5
DB
100
AcDbEntity
  8
M0
 62
     7
100
AcDbLine
 10
90.908136
 20
115.700787
 11
90.908136
 21
106.700787
  0
LINE
  5
DC
100
AcDbEntity
  8
M0
 62
     7
100
AcDbLine
 10
99.908136
 20
115.700787
 11
99.908136
 21
34.700787
  0
LINE
  5
DD
100
AcDbEntity
  8
M0
 62
     7
100
AcDbLine
 10
108.908136
 20
115.700787
 11
108.908136
 21
88.700787
  0
LINE
  5
DE
100
AcDbEntity
  8
M0
 62
     7
100
AcDbLine
 10
117.908136
 20
115.700787
 11
117.908136
 21
88.700787
  0
TEXT
  5
DF
100
AcDbEntity
  8
M0
 62
     7
100
AcDbText
 10
41.143465
 20
34.125691
 40
3.553875
  1
０
 41
0.777778
  7
STANDARD
100
AcDbText
  0
TEXT
  5
E0
100
AcDbEntity
  8
M0
 62
     7
100
AcDbText
 10
38.208067
 20
41.391854
 40
3.553875
  1
１０
 41
0.777778
  7
STANDARD
100
AcDbText
  0
TEXT
  5
E1
100
AcDbEntity
  8
M0
 62
     7
100
AcDbText
 10
38.208067
 20
51.183749
 40
3.553875
  1
２０
 41
0.777778
  7
STANDARD
100
AcDbText
  0
TEXT
  5
E2
100
AcDbEntity
  8
M0
 62
     7
100
AcDbText
 10
38.208067
 20
60.225133
 40
3.553875
  1
３０
 41
0.777778
  7
STANDARD
100
AcDbText
  0
TEXT
  5
E3
100
AcDbEntity
  8
M0
 62
     7
100
AcDbText
 10
38.208067
 20
68.66068
 40
3.553875
  1
４０
 41
0.777778
  7
STANDARD
100
AcDbText
  0
TEXT
  5
E4
100
AcDbEntity
  8
M0
 62
     7
100
AcDbText
 10
38.208067
 20
77.176351
 40
3.553875
  1
５０
 41
0.777778
  7
STANDARD
100
AcDbText
  0
TEXT
  5
E5
100
AcDbEntity
  8
M0
 62
     7
100
AcDbText
 10
38.208067
 20
85.842477
 40
3.553875
  1
６０
 41
0.777778
  7
STANDARD
100
AcDbText
  0
TEXT
  5
E6
100
AcDbEntity
  8
M0
 62
     7
100
AcDbText
 10
38.208067
 20
94.842477
 40
3.553875
  1
７０
 41
0.777778
  7
STANDARD
100
AcDbText
  0
TEXT
  5
E7
100
AcDbEntity
  8
M0
 62
     7
100
AcDbText
 10
38.208067
 20
103.842477
 40
3.553875
  1
８０
 41
0.777778
  7
STANDARD
100
AcDbText
  0
TEXT
  5
E8
100
AcDbEntity
  8
M0
 62
     7
100
AcDbText
 10
38.208067
 20
112.842477
 40
3.553875
  1
９０
 41
0.777778
  7
STANDARD
100
AcDbText
  0
TEXT
  5
E9
100
AcDbEntity
  8
M0
 62
     7
100
AcDbText
 10
44.059615
 20
29.798016
 40
3.553875
  1
０
 41
0.777778
  7
STANDARD
100
AcDbText
  0
TEXT
  5
EA
100
AcDbEntity
  8
M0
 62
     7
100
AcDbText
 10
52.525252
 20
29.172532
 40
3.553875
  1
１０
 41
0.777778
  7
STANDARD
100
AcDbText
  0
TEXT
  5
EB
100
AcDbEntity
  8
M0
 62
     7
100
AcDbText
 10
61.525256
 20
29.172532
 40
3.553875
  1
２０
 41
0.777778
  7
STANDARD
100
AcDbText
  0
TEXT
  5
EC
100
AcDbEntity
  8
M0
 62
     7
100
AcDbText
 10
70.525256
 20
29.172532
 40
3.553875
  1
３０
 41
0.777778
  7
STANDARD
100
AcDbText
  0
TEXT
  5
ED
100
AcDbEntity
  8
M0
 62
     7
100
AcDbText
 10
79.525255
 20
29.172532
 40
3.553875
  1
４０
 41
0.777778
  7
STANDARD
100
AcDbText
  0
TEXT
  5
EE
100
AcDbEntity
  8
M0
 62
     7
100
AcDbText
 10
88.525254
 20
29.172532
 40
3.553875
  1
５０
 41
0.777778
  7
STANDARD
100
AcDbText
  0
TEXT
  5
EF
100
AcDbEntity
  8
M0
 62
     7
100
AcDbText
 10
97.525255
 20
29.172532
 40
3.553875
  1
６０
 41
0.777778
  7
STANDARD
100
AcDbText
  0
TEXT
  5
F0
100
AcDbEntity
  8
M0
 62
     7
100
AcDbText
 10
106.525256
 20
29.172532
 40
3.553875
  1
７０
 41
0.777778
  7
STANDARD
100
AcDbText
  0
TEXT
  5
F1
100
AcDbEntity
  8
M0
 62
     7
100
AcDbText
 10
115.525254
 20
29.172532
 40
3.553875
  1
８０
 41
0.777778
  7
STANDARD
100
AcDbText
  0
TEXT
  5
F2
100
AcDbEntity
  8
M0
 62
     7
100
AcDbText
 10
124.525256
 20
29.172532
 40
3.553875
  1
９０
 41
0.777778
  7
STANDARD
100
AcDbText
  0
TEXT
  5
F3
100
AcDbEntity
  8
M0
 62
     7
100
AcDbText
 10
70.214201
 20
20.72783
 40
5.52825
  1
揚水量
 41
1.666667
  7
STANDARD
100
AcDbText
  0
TEXT
  5
F4
100
AcDbEntity
  8
M0
 62
     7
100
AcDbText
 10
101.189082
 20
21.959081
 40
3.553875
  1
（Ｌ／分）
 41
0.777778
  7
STANDARD
100
AcDbText
  0
TEXT
  5
F5
100
AcDbEntity
  8
M0
 62
     7
100
AcDbText
 10
26.351182
 20
82.522534
 40
5.52825
  1
全
 41
1.388889
  7
STANDARD
100
AcDbText
  0
TEXT
  5
F6
100
AcDbEntity
  8
M0
 62
     7
100
AcDbText
 10
26.351182
 20
71.466035
 40
5.52825
  1
揚
 41
1.388889
  7
STANDARD
100
AcDbText
  0
TEXT
  5
F7
100
AcDbEntity
  8
M0
 62
     7
100
AcDbText
 10
26.351182
 20
60.409535
 40
5.52825
  1
程
 41
1.388889
  7
STANDARD
100
AcDbText
  0
TEXT
  5
F8
100
AcDbEntity
  8
M0
 62
     7
100
AcDbText
 10
25.49996
 20
51.422519
 40
3.553875
  1
（ｍ）
 41
0.777778
  7
STANDARD
100
AcDbText
  0
LINE
  5
F9
100
AcDbEntity
  8
M0
 62
     7
100
AcDbLine
 10
90.908136
 20
97.700787
 11
90.908136
 21
34.700787
  0
LINE
  5
FA
100
AcDbEntity
  8
M0
 62
     7
100
AcDbLine
 10
108.908136
 20
79.700787
 11
108.908136
 21
34.700787
  0
LINE
  5
FB
100
AcDbEntity
  8
M0
 62
     7
100
AcDbLine
 10
117.908136
 20
79.700787
 11
117.908136
 21
34.700787
  0
TEXT
  5
FC
100
AcDbEntity
  8
M0
100
AcDbText
 10
59.74147
 20
125.406529
 40
8.0
  1
ＳＦＭ－Ｋ７５０Ｊ
 41
0.416667
  7
STANDARD
100
AcDbText
  0
SPLINE
  5
FD
100
AcDbEntity
  8
M0
 62
     1
100
AcDbSpline
210
0.0
220
0.0
230
-1.0
 70
     8
 71
     3
 72
    14
 73
    10
 43
0.0000001
 40
0.0
 40
0.0
 40
0.0
 40
0.0
 40
1.0
 40
1.0
 40
1.0
 40
2.0
 40
2.0
 40
2.0
 40
3.0
 40
3.0
 40
3.0
 40
3.0
 10
45.908136
 20
110.300787
 10
51.904225
 20
107.113167
 10
57.900314
 20
103.925551
 10
63.908136
 20
100.400787
 10
69.915959
 20
96.876023
 10
75.935514
 20
93.014117
 10
81.908136
 20
86.000787
 10
90.066516
 20
76.420842
 10
98.137326
 20
60.960817
 10
106.208136
 20
45.500787
  0
SPLINE
  5
FE
100
AcDbEntity
  8
M0
 62
     4
100
AcDbSpline
210
0.0
220
0.0
230
-1.0
 70
     8
 71
     3
 72
    17
 73
    13
 43
0.0000001
 40
0.0
 40
0.0
 40
0.0
 40
0.0
 40
1.0
 40
1.0
 40
1.0
 40
2.0
 40
2.0
 40
2.0
 40
3.0
 40
3.0
 40
3.0
 40
4.0
 40
4.0
 40
4.0
 40
4.0
 10
45.908136
 20
102.200787
 10
51.908136
 20
99.784715
 10
57.908136
 20
97.368647
 10
63.908136
 20
94.100787
 10
69.908136
 20
90.832928
 10
75.908136
 20
86.713288
 10
81.908136
 20
82.400787
 10
87.908136
 20
78.088287
 10
93.908136
 20
73.582933
 10
99.908136
 20
68.000787
 10
105.908136
 20
62.418642
 10
111.908136
 20
55.759717
 10
117.908136
 20
49.100787
  0
TEXT
  5
FF
100
AcDbEntity
  8
M0
 62
   253
100
AcDbText
 10
241.492591
 20
182.424607
 40
3.250065
  1
圧力センサー読取り範囲
 41
0.841667
  7
STANDARD
100
AcDbText
  0
TEXT
  5
100
100
AcDbEntity
  8
M0
 62
   253
100
AcDbText
 10
252.284356
 20
177.761485
 40
3.250065
  1
自動モード
 41
0.841667
  7
STANDARD
100
AcDbText
  0
TEXT
  5
101
100
AcDbEntity
  8
M0
 62
   253
100
AcDbText
 10
266.787338
 20
172.946321
 40
3.250065
  1
閉
 41
1.666667
  7
STANDARD
100
AcDbText
  0
TEXT
  5
102
100
AcDbEntity
  8
M0
 62
   253
100
AcDbText
 10
266.969499
 20
167.86389
 40
3.250065
  1
開
 41
1.666667
  7
STANDARD
100
AcDbText
  0
TEXT
  5
103
100
AcDbEntity
  8
M0
 62
   253
100
AcDbText
 10
247.192607
 20
162.982815
 40
3.250065
  1
吸込管接続口径
 41
0.841667
  7
STANDARD
100
AcDbText
  0
TEXT
  5
104
100
AcDbEntity
  8
M0
 62
   253
100
AcDbText
 10
247.559032
 20
158.459867
 40
3.250065
  1
吐出管接続口径
 41
0.841667
  7
STANDARD
100
AcDbText
  0
TEXT
  5
105
100
AcDbEntity
  8
M0
 62
   253
100
AcDbText
 10
245.106661
 20
150.996243
 40
3.250065
  1
製品質量
 41
0.841667
  7
STANDARD
100
AcDbText
  0
TEXT
  5
106
100
AcDbEntity
  8
M0
 62
   253
100
AcDbText
 10
262.925527
 20
153.217887
 40
3.250065
  1
ポンプ部
 41
0.841667
  7
STANDARD
100
AcDbText
  0
TEXT
  5
107
100
AcDbEntity
  8
M0
 62
   253
100
AcDbText
 10
263.593688
 20
148.129875
 40
3.250065
  1
地上部
 41
0.841667
  7
STANDARD
100
AcDbText
  0
LINE
  5
108
100
AcDbEntity
  8
M0
 62
   253
100
AcDbLine
 10
240.736692
 20
147.480759
 11
404.199475
 21
147.480759
  0
TEXT
  5
109
100
AcDbEntity
  8
M0
 62
   253
100
AcDbText
 10
330.431656
 20
162.995338
 40
3.033394
  1
２５ｍｍ（Ｇ１）
 41
0.595238
  7
STANDARD
100
AcDbText
  0
TEXT
  5
10A
100
AcDbEntity
  8
M0
 62
   253
100
AcDbText
 10
330.538032
 20
158.579629
 40
3.033394
  1
２５ｍｍ（Ｇ１）
 41
0.595238
  7
STANDARD
100
AcDbText
  0
TEXT
  5
10B
100
AcDbEntity
  8
M0
 62
   253
100
AcDbText
 10
321.834945
 20
177.829447
 40
3.033394
  1
マイコンによる無段階圧力運転
 41
0.595238
  7
STANDARD
100
AcDbText
  0
TEXT
  5
10C
100
AcDbEntity
  8
M0
 62
   253
100
AcDbText
 10
300.839756
 20
183.047601
 40
3.033394
  1
１７０ｋＰａ～６００ｋＰａ｛１．７ｋｇｆ／ｃｍ
 41
0.595238
  7
STANDARD
100
AcDbText
  0
TEXT
  5
10D
100
AcDbEntity
  8
M0
 62
   253
100
AcDbText
 10
350.601864
 20
184.867637
 40
1.820036
  1
２
 41
0.595238
  7
STANDARD
100
AcDbText
  0
TEXT
  5
10E
100
AcDbEntity
  8
M0
 62
   253
100
AcDbText
 10
351.974113
 20
183.047601
 40
3.033394
  1
～６．０ｋｇｆ／ｃｍ
 41
0.595238
  7
STANDARD
100
AcDbText
  0
TEXT
  5
10F
100
AcDbEntity
  8
M0
 62
   253
100
AcDbText
 10
373.568996
 20
184.867637
 40
1.820036
  1
２
 41
0.595238
  7
STANDARD
100
AcDbText
  0
TEXT
  5
110
100
AcDbEntity
  8
M0
 62
   253
100
AcDbText
 10
374.941238
 20
183.047601
 40
3.033394
  1
｝
 41
0.595238
  7
STANDARD
100
AcDbText
  0
LINE
  5
111
100
AcDbEntity
  8
M0
 62
   253
100
AcDbLine
 10
261.622553
 20
152.355857
 11
404.199475
 21
152.355857
  0
LINE
  5
112
100
AcDbEntity
  8
M0
 62
   253
100
AcDbLine
 10
240.736692
 20
157.230954
 11
404.199475
 21
157.230954
  0
LINE
  5
113
100
AcDbEntity
  8
M0
 62
   253
100
AcDbLine
 10
240.736692
 20
162.106052
 11
404.199475
 21
162.106052
  0
LINE
  5
114
100
AcDbEntity
  8
M0
 62
   253
100
AcDbLine
 10
240.736692
 20
166.981149
 11
404.199475
 21
166.981149
  0
LINE
  5
115
100
AcDbEntity
  8
M0
 62
   253
100
AcDbLine
 10
261.622553
 20
157.230954
 11
261.622553
 21
147.480759
  0
LINE
  5
116
100
AcDbEntity
  8
M0
 62
   253
100
AcDbLine
 10
261.263509
 20
176.731344
 11
261.263509
 21
166.981149
  0
LINE
  5
117
100
AcDbEntity
  8
M0
 62
   253
100
AcDbLine
 10
245.9362
 20
176.731344
 11
404.199475
 21
176.731344
  0
LINE
  5
118
100
AcDbEntity
  8
M0
 62
   253
100
AcDbLine
 10
240.736692
 20
181.606442
 11
404.199475
 21
181.606442
  0
LINE
  5
119
100
AcDbEntity
  8
M0
 62
   253
100
AcDbLine
 10
240.736692
 20
186.481539
 11
404.199475
 21
186.481539
  0
LINE
  5
11A
100
AcDbEntity
  8
M0
 62
   253
100
AcDbLine
 10
261.263509
 20
171.856247
 11
404.199475
 21
171.856247
  0
TEXT
  5
11B
100
AcDbEntity
  8
M0
 62
   253
100
AcDbText
 10
247.583571
 20
173.884206
 40
1.950039
  1
＊
 41
0.841667
  7
STANDARD
100
AcDbText
  0
TEXT
  5
11C
100
AcDbEntity
  8
M0
 62
   253
100
AcDbText
 10
249.669029
 20
171.934167
 40
3.250065
  1
固　定
 41
0.841667
  7
STANDARD
100
AcDbText
  0
TEXT
  5
11D
100
AcDbEntity
  8
M0
 62
   253
100
AcDbText
 10
249.307188
 20
168.347829
 40
3.250065
  1
モード
 41
0.841667
  7
STANDARD
100
AcDbText
  0
TEXT
  5
11E
100
AcDbEntity
  8
M0
 62
   253
100
AcDbText
 10
241.942407
 20
177.352939
 40
3.250065
  1
運
 41
0.833333
  7
STANDARD
100
AcDbText
  0
TEXT
  5
11F
100
AcDbEntity
  8
M0
 62
   253
100
AcDbText
 10
241.942407
 20
174.070373
 40
3.250065
  1
転
 41
0.833333
  7
STANDARD
100
AcDbText
  0
TEXT
  5
120
100
AcDbEntity
  8
M0
 62
   253
100
AcDbText
 10
241.942407
 20
170.787807
 40
3.250065
  1
圧
 41
0.833333
  7
STANDARD
100
AcDbText
  0
TEXT
  5
121
100
AcDbEntity
  8
M0
 62
   253
100
AcDbText
 10
241.942407
 20
167.505241
 40
3.250065
  1
力
 41
0.833333
  7
STANDARD
100
AcDbText
  0
TEXT
  5
122
100
AcDbEntity
  8
M0
 62
   253
100
AcDbText
 10
334.643593
 20
148.434819
 40
3.033394
  1
１２ｋｇ
 41
0.595238
  7
STANDARD
100
AcDbText
  0
TEXT
  5
123
100
AcDbEntity
  8
M0
 62
   253
100
AcDbText
 10
282.984581
 20
153.908288
 40
3.033394
  1
１８．５ｋｇ／１７．５ｋｇ
 41
0.595238
  7
STANDARD
100
AcDbText
  0
TEXT
  5
124
100
AcDbEntity
  8
M0
 62
   253
100
AcDbText
 10
329.568855
 20
153.908288
 40
3.033394
  1
２０ｋｇ／１９ｋｇ
 41
0.595238
  7
STANDARD
100
AcDbText
  0
TEXT
  5
125
100
AcDbEntity
  8
M0
 62
   253
100
AcDbText
 10
371.819687
 20
153.908288
 40
3.033394
  1
２３ｋｇ／２１．５ｋｇ
 41
0.595238
  7
STANDARD
100
AcDbText
  0
TEXT
  5
126
100
AcDbEntity
  8
M0
 62
   253
100
AcDbText
 10
300.235996
 20
173.314995
 40
3.033394
  1
１５０ｋＰａ～３５０ｋＰａ｛１．５ｋｇｆ／ｃｍ
 41
0.595238
  7
STANDARD
100
AcDbText
  0
TEXT
  5
127
100
AcDbEntity
  8
M0
 62
   253
100
AcDbText
 10
349.998104
 20
175.135032
 40
1.820036
  1
２
 41
0.595238
  7
STANDARD
100
AcDbText
  0
TEXT
  5
128
100
AcDbEntity
  8
M0
 62
   253
100
AcDbText
 10
351.370353
 20
173.314995
 40
3.033394
  1
～３．５ｋｇｆ／ｃｍ
 41
0.595238
  7
STANDARD
100
AcDbText
  0
TEXT
  5
129
100
AcDbEntity
  8
M0
 62
   253
100
AcDbText
 10
372.965236
 20
175.135032
 40
1.820036
  1
２
 41
0.595238
  7
STANDARD
100
AcDbText
  0
TEXT
  5
12A
100
AcDbEntity
  8
M0
 62
   253
100
AcDbText
 10
374.337478
 20
173.314995
 40
3.033394
  1
｝
 41
0.595238
  7
STANDARD
100
AcDbText
  0
TEXT
  5
12B
100
AcDbEntity
  8
M0
 62
   253
100
AcDbText
 10
300.431205
 20
168.128982
 40
3.033394
  1
１７０ｋＰａ～３７０ｋＰａ｛１．７ｋｇｆ／ｃｍ
 41
0.595238
  7
STANDARD
100
AcDbText
  0
TEXT
  5
12C
100
AcDbEntity
  8
M0
 62
   253
100
AcDbText
 10
350.193309
 20
169.949019
 40
1.820036
  1
２
 41
0.595238
  7
STANDARD
100
AcDbText
  0
TEXT
  5
12D
100
AcDbEntity
  8
M0
 62
   253
100
AcDbText
 10
351.565559
 20
168.128982
 40
3.033394
  1
～３．７ｋｇｆ／ｃｍ
 41
0.595238
  7
STANDARD
100
AcDbText
  0
TEXT
  5
12E
100
AcDbEntity
  8
M0
 62
   253
100
AcDbText
 10
373.160427
 20
169.949019
 40
1.820036
  1
２
 41
0.595238
  7
STANDARD
100
AcDbText
  0
TEXT
  5
12F
100
AcDbEntity
  8
M0
 62
   253
100
AcDbText
 10
374.532669
 20
168.128982
 40
3.033394
  1
｝
 41
0.595238
  7
STANDARD
100
AcDbText
  0
LINE
  5
130
100
AcDbEntity
  8
M0
 62
   253
100
AcDbLine
 10
245.9362
 20
181.606442
 11
245.9362
 21
166.981149
  0
TEXT
  5
131
100
AcDbEntity
  8
M0
 62
   253
100
AcDbText
 10
250.785269
 20
236.387279
 40
3.250065
  1
型　　　式
 41
0.841667
  7
STANDARD
100
AcDbText
  0
TEXT
  5
132
100
AcDbEntity
  8
M0
 62
   253
100
AcDbText
 10
250.916331
 20
229.034083
 40
3.250065
  1
電　　　源
 41
0.841667
  7
STANDARD
100
AcDbText
  0
TEXT
  5
133
100
AcDbEntity
  8
M0
 62
   253
100
AcDbText
 10
249.5448
 20
219.807441
 40
3.250065
  1
モーター
 41
1.25
  7
STANDARD
100
AcDbText
  0
TEXT
  5
134
100
AcDbEntity
  8
M0
 62
   253
100
AcDbText
 10
245.967499
 20
212.241279
 40
3.250065
  1
定格出力
 41
1.666667
  7
STANDARD
100
AcDbText
  0
TEXT
  5
135
100
AcDbEntity
  8
M0
 62
   253
100
AcDbText
 10
245.742669
 20
207.247207
 40
3.250065
  1
消費電力
 41
1.666667
  7
STANDARD
100
AcDbText
  0
TEXT
  5
136
100
AcDbEntity
  8
M0
 62
   253
100
AcDbText
 10
247.674855
 20
202.279742
 40
3.250065
  1
吸上げ高さ範囲
 41
0.841667
  7
STANDARD
100
AcDbText
  0
TEXT
  5
137
100
AcDbEntity
  8
M0
 62
   253
100
AcDbText
 10
250.457029
 20
197.115127
 40
3.250065
  1
押上げ高さ
 41
0.841667
  7
STANDARD
100
AcDbText
  0
TEXT
  5
138
100
AcDbEntity
  8
M0
 62
   253
100
AcDbText
 10
249.356879
 20
192.581025
 40
3.250065
  1
揚水量
 41
1.666667
  7
STANDARD
100
AcDbText
  0
LINE
  5
139
100
AcDbEntity
  8
M0
 62
   253
100
AcDbLine
 10
240.736692
 20
240.107612
 11
404.199475
 21
240.107612
  0
TEXT
  5
13A
100
AcDbEntity
  8
M0
 62
   253
100
AcDbText
 10
250.711073
 20
187.705926
 40
3.250065
  1
（全揚程）
 41
0.833333
  7
STANDARD
100
AcDbText
  0
LINE
  5
13B
100
AcDbEntity
  8
M0
 62
   253
100
AcDbLine
 10
240.736692
 20
240.107612
 11
240.736692
 21
147.480759
  0
LINE
  5
13C
100
AcDbEntity
  8
M0
 62
   253
100
AcDbLine
 10
404.199475
 20
240.107612
 11
404.199475
 21
147.480759
  0
TEXT
  5
13D
100
AcDbEntity
  8
M0
 62
   253
100
AcDbText
 10
288.034153
 20
207.123344
 40
3.033394
  1
６８０Ｗ／６９０Ｗ
 41
0.595238
  7
STANDARD
100
AcDbText
  0
TEXT
  5
13E
100
AcDbEntity
  8
M0
 62
   253
100
AcDbText
 10
365.020805
 20
227.212352
 40
3.033394
  1
５０／６０（Ｈｚ）いずれか専用
 41
0.595238
  7
STANDARD
100
AcDbText
  0
TEXT
  5
13F
100
AcDbEntity
  8
M0
 62
   253
100
AcDbText
 10
365.4421
 20
221.222282
 40
3.033394
  1
キャンド式水中
 41
0.595238
  7
STANDARD
100
AcDbText
  0
TEXT
  5
140
100
AcDbEntity
  8
M0
 62
   253
100
AcDbText
 10
301.102855
 20
231.504741
 40
3.033394
  1
単相　１００（Ｖ）
 41
0.595238
  7
STANDARD
100
AcDbText
  0
TEXT
  5
141
100
AcDbEntity
  8
M0
 62
   253
100
AcDbText
 10
301.102855
 20
227.212352
 40
3.033394
  1
５０／６０（Ｈｚ）いずれか専用
 41
0.595238
  7
STANDARD
100
AcDbText
  0
TEXT
  5
142
100
AcDbEntity
  8
M0
 62
   253
100
AcDbText
 10
301.524154
 20
221.222282
 40
3.033394
  1
キャンド式水中
 41
0.595238
  7
STANDARD
100
AcDbText
  0
TEXT
  5
143
100
AcDbEntity
  8
M0
 62
   253
100
AcDbText
 10
301.628826
 20
217.34365
 40
3.033394
  1
コンデンサ始動コンデンサモーター
 41
0.595238
  7
STANDARD
100
AcDbText
  0
TEXT
  5
144
100
AcDbEntity
  8
M0
 62
   253
100
AcDbText
 10
365.020805
 20
231.504741
 40
3.033394
  1
３相　２００（Ｖ）
 41
0.595238
  7
STANDARD
100
AcDbText
  0
TEXT
  5
145
100
AcDbEntity
  8
M0
 62
   253
100
AcDbText
 10
293.102405
 20
212.151649
 40
3.033394
  1
４５０Ｗ
 41
0.595238
  7
STANDARD
100
AcDbText
  0
TEXT
  5
146
100
AcDbEntity
  8
M0
 62
   253
100
AcDbText
 10
335.353248
 20
212.151649
 40
3.033394
  1
６００Ｗ
 41
0.595238
  7
STANDARD
100
AcDbText
  0
TEXT
  5
147
100
AcDbEntity
  8
M0
 62
   253
100
AcDbText
 10
330.284988
 20
207.123344
 40
3.033394
  1
８７０Ｗ／７５０Ｗ
 41
0.595238
  7
STANDARD
100
AcDbText
  0
TEXT
  5
148
100
AcDbEntity
  8
M0
 62
   253
100
AcDbText
 10
337.525932
 20
197.012527
 40
3.033394
  1
１５ｍ
 41
0.595238
  7
STANDARD
100
AcDbText
  0
TEXT
  5
149
100
AcDbEntity
  8
M0
 62
   253
100
AcDbText
 10
292.473987
 20
192.254336
 40
3.033394
  1
４０Ｌ／分
 41
0.595238
  7
STANDARD
100
AcDbText
  0
TEXT
  5
14A
100
AcDbEntity
  8
M0
 62
   253
100
AcDbText
 10
334.72483
 20
192.254336
 40
3.033394
  1
３６Ｌ／分
 41
0.595238
  7
STANDARD
100
AcDbText
  0
TEXT
  5
14B
100
AcDbEntity
  8
M0
 62
   253
100
AcDbText
 10
294.91452
 20
187.705926
 40
3.033394
  1
３４ｍ
 41
0.595238
  7
STANDARD
100
AcDbText
  0
TEXT
  5
14C
100
AcDbEntity
  8
M0
 62
   253
100
AcDbText
 10
337.165367
 20
187.705926
 40
3.033394
  1
４７ｍ
 41
0.595238
  7
STANDARD
100
AcDbText
  0
TEXT
  5
14D
100
AcDbEntity
  8
M0
 62
   253
100
AcDbText
 10
291.092628
 20
236.234134
 40
3.033394
  1
ＳＦＭ－Ｐ４５０Ｊ
 41
0.595238
  7
STANDARD
100
AcDbText
  0
TEXT
  5
14E
100
AcDbEntity
  8
M0
 62
   253
100
AcDbText
 10
333.343467
 20
236.234134
 40
3.033394
  1
ＳＦＭ－Ｐ６００Ｊ
 41
0.595238
  7
STANDARD
100
AcDbText
  0
TEXT
  5
14F
100
AcDbEntity
  8
M0
 62
   253
100
AcDbText
 10
374.510971
 20
236.234134
 40
3.033394
  1
ＳＦＭ－Ｋ７５０Ｊ
 41
0.595238
  7
STANDARD
100
AcDbText
  0
LINE
  5
150
100
AcDbEntity
  8
M0
 62
   253
100
AcDbLine
 10
240.736692
 20
196.231734
 11
404.199475
 21
196.231734
  0
LINE
  5
151
100
AcDbEntity
  8
M0
 62
   253
100
AcDbLine
 10
240.736692
 20
201.106832
 11
404.199475
 21
201.106832
  0
LINE
  5
152
100
AcDbEntity
  8
M0
 62
   253
100
AcDbLine
 10
240.736692
 20
205.981929
 11
404.199475
 21
205.981929
  0
LINE
  5
153
100
AcDbEntity
  8
M0
 62
   253
100
AcDbLine
 10
240.736692
 20
210.857027
 11
404.199475
 21
210.857027
  0
LINE
  5
154
100
AcDbEntity
  8
M0
 62
   253
100
AcDbLine
 10
240.736692
 20
215.732124
 11
404.199475
 21
215.732124
  0
LINE
  5
155
100
AcDbEntity
  8
M0
 62
   253
100
AcDbLine
 10
240.736692
 20
225.482319
 11
404.199475
 21
225.482319
  0
LINE
  5
156
100
AcDbEntity
  8
M0
 62
   253
100
AcDbLine
 10
240.736692
 20
235.232514
 11
404.199475
 21
235.232514
  0
LINE
  5
157
100
AcDbEntity
  8
M0
 62
   253
100
AcDbLine
 10
277.44694
 20
240.107612
 11
277.44694
 21
147.480759
  0
LINE
  5
158
100
AcDbEntity
  8
M0
 62
   253
100
AcDbLine
 10
319.697785
 20
240.107612
 11
319.697785
 21
235.232514
  0
LINE
  5
159
100
AcDbEntity
  8
M0
 62
   253
100
AcDbLine
 10
361.94863
 20
240.107612
 11
361.94863
 21
201.106832
  0
LINE
  5
15A
100
AcDbEntity
  8
M0
 62
   253
100
AcDbLine
 10
361.94863
 20
157.230954
 11
361.94863
 21
152.355857
  0
LINE
  5
15B
100
AcDbEntity
  8
M0
 62
   253
100
AcDbLine
 10
319.697785
 20
157.230954
 11
319.697785
 21
152.355857
  0
TEXT
  5
15C
100
AcDbEntity
  8
M0
 62
   253
100
AcDbText
 10
365.546768
 20
217.34365
 40
3.033394
  1
３相誘導モーター
 41
0.595238
  7
STANDARD
100
AcDbText
  0
TEXT
  5
15D
100
AcDbEntity
  8
M0
 62
   253
100
AcDbText
 10
378.687454
 20
212.151649
 40
3.033394
  1
７５０Ｗ
 41
0.595238
  7
STANDARD
100
AcDbText
  0
TEXT
  5
15E
100
AcDbEntity
  8
M0
 62
   253
100
AcDbText
 10
291.207603
 20
201.986491
 40
3.033394
  1
４ｍ～２４ｍ／３０ｍ
 41
0.595238
  7
STANDARD
100
AcDbText
  0
TEXT
  5
15F
100
AcDbEntity
  8
M0
 62
   253
100
AcDbText
 10
333.45845
 20
201.986491
 40
3.033394
  1
１２ｍ～４０ｍ
 41
0.595238
  7
STANDARD
100
AcDbText
  0
TEXT
  5
160
100
AcDbEntity
  8
M0
 62
   253
100
AcDbText
 10
376.792648
 20
201.986491
 40
3.033394
  1
２４ｍ～４２ｍ
 41
0.595238
  7
STANDARD
100
AcDbText
  0
TEXT
  5
161
100
AcDbEntity
  8
M0
 62
   253
100
AcDbText
 10
378.059036
 20
192.254336
 40
3.033394
  1
４２Ｌ／分
 41
0.595238
  7
STANDARD
100
AcDbText
  0
TEXT
  5
162
100
AcDbEntity
  8
M0
 62
   253
100
AcDbText
 10
380.499557
 20
187.705926
 40
3.033394
  1
４７ｍ
 41
0.595238
  7
STANDARD
100
AcDbText
  0
TEXT
  5
163
100
AcDbEntity
  8
M0
 62
   253
100
AcDbText
 10
377.952621
 20
207.123344
 40
3.033394
  1
１０３０Ｗ
 41
0.595238
  7
STANDARD
100
AcDbText
  0
LINE
  5
164
100
AcDbEntity
  8
M0
 62
   253
100
AcDbLine
 10
319.697785
 20
215.732124
 11
319.697785
 21
201.106832
  0
LINE
  5
165
100
AcDbEntity
  8
M0
 62
   253
100
AcDbLine
 10
319.697785
 20
196.231734
 11
319.697785
 21
186.481539
  0
LINE
  5
166
100
AcDbEntity
  8
M0
 62
   253
100
AcDbLine
 10
361.94863
 20
196.231734
 11
361.94863
 21
186.481539
  0
TEXT
  5
167
100
AcDbEntity
  8
M0
100
AcDbText
 10
242.493826
 20
139.173024
 40
3.250065
  1
＊「固定モード」時のポンプを運転させる点を「閉」、停止させる点を「開」として表わしています。
 41
0.844444
  7
STANDARD
100
AcDbText
  0
TEXT
  5
168
100
AcDbEntity
  8
M0
100
AcDbText
 10
246.537767
 20
134.725165
 40
3.250065
  1
通常は「自動モード」で運転しますので圧力センサーの「閉」「開」圧力は無視されます。
 41
0.844444
  7
STANDARD
100
AcDbText
  0
ENDSEC
  0
SECTION
  2
OBJECTS
  0
DICTIONARY
  5
C
100
AcDbDictionary
  3
ACAD_GROUP
350
D
  3
ACAD_MLINESTYLE
350
E
  0
DICTIONARY
  5
D
102
{ACAD_REACTORS
330
C
102
}
100
AcDbDictionary
  0
DICTIONARY
  5
E
102
{ACAD_REACTORS
330
C
102
}
100
AcDbDictionary
  3
STANDARD
350
13
  0
MLINESTYLE
  5
13
102
{ACAD_REACTORS
330
E
102
}
100
AcDbMlineStyle
  2
STANDARD
 70
     0
  3

 62
     0
 51
90.0
 52
90.0
 71
     2
 49
0.5
 62
   256
  6
BYLAYER
 49
-0.5
 62
   256
  6
BYLAYER
  0
ENDSEC
  0
EOF
