  0
SECTION
  2
HEADER
  9
$ACADVER
  1
AC1012
  9
$INSBASE
 10
0.0
 20
0.0
  9
$VIEWCTR
 10
7.531722
 20
4.5
  9
$VIEWSIZE
 40
9.0
  9
$SNAPMODE
 70
     0
  9
$SNAPUNIT
 10
1.0
 20
1.0
  9
$SNAPBASE
 10
0.0
 20
0.0
  9
$SNAPANG
 50
0.0
  9
$SNAPSTYLE
 70
     0
  9
$SNAPISOPAIR
 70
     0
  9
$GRIDMODE
 70
     0
  9
$GRIDUNIT
 10
0.0
 20
0.0
  9
$ORTHOMODE
 70
     0
  9
$REGENMODE
 70
     1
  9
$FILLMODE
 70
     1
  9
$QTEXTMODE
 70
     0
  9
$DRAGMODE
 70
     2
  9
$LTSCALE
 40
1.0
  9
$OSMODE
 70
     0
  9
$ATTMODE
 70
     1
  9
$TEXTSIZE
 40
0.2
  9
$TRACEWID
 40
0.05
  9
$TEXTSTYLE
  7
STANDARD
  9
$CELTYPE
  6
BYLAYER
  9
$CECOLOR
 62
   256
  9
$DIMSCALE
 40
1.0
  9
$DIMASZ
 40
0.18
  9
$DIMEXO
 40
0.0625
  9
$DIMDLI
 40
0.38
  9
$DIMRND
 40
0.0
  9
$DIMDLE
 40
0.0
  9
$DIMEXE
 40
0.18
  9
$DIMTP
 40
0.0
  9
$DIMTM
 40
0.0
  9
$DIMTXT
 40
0.18
  9
$DIMCEN
 40
0.09
  9
$DIMTSZ
 40
0.0
  9
$DIMTOL
 70
     0
  9
$DIMLIM
 70
     0
  9
$DIMTIH
 70
     1
  9
$DIMTOH
 70
     1
  9
$DIMSE1
 70
     0
  9
$DIMSE2
 70
     0
  9
$DIMTAD
 70
     0
  9
$DIMZIN
 70
     0
  9
$DIMBLK
  1

  9
$LUNITS
 70
     2
  9
$LUPREC
 70
     4
  9
$AXISMODE
 70
     0
  9
$AXISUNIT
 10
0.0
 20
0.0
  9
$SKETCHINC
 40
0.1
  9
$FILLETRAD
 40
0.0
  9
$AUNITS
 70
     0
  9
$AUPREC
 70
     0
  9
$MENU
  1
ACAD
  9
$ELEVATION
 40
0.0
  9
$THICKNESS
 40
0.0
  9
$VIEWDIR
 10
0.0
 20
0.0
 30
1.0
  9
$LIMCHECK
 70
     0
  9
$BLIPMODE
 70
     1
  9
$CHAMFERA
 40
0.0
  9
$CHAMFERB
 40
0.0
  9
$FASTZOOM
 70
     1
  9
$SKPOLY
 70
     0
  9
$TDCREATE
 40
0000000.0000000000
  9
$TDUPDATE
 40
0000000.0000000000
  9
$TDINDWG
 40
0.0000000000
  9
$TDUSRTIMER
 40
0.0000000000
  9
$USRTIMER
 70
     1
  9
$ANGBASE
 50
0.0
  9
$ANGDIR
 70
     0
  9
$PDMODE
 70
     0
  9
$PDSIZE
 40
0.0
  9
$PLINEWID
 40
0.0
  9
$COORDS
 70
     0
  9
$USERI1
 70
     0
  9
$USERI2
 70
     0
  9
$USERI3
 70
     0
  9
$USERI4
 70
     0
  9
$USERI5
 70
     0
  9
$USERR1
 40
0.0
  9
$USERR2
 40
0.0
  9
$USERR3
 40
0.0
  9
$USERR4
 40
0.0
  9
$USERR5
 40
0.0
  9
$CLAYER
  8
M0
  9
$EXTMIN
 10
0.0
 20
0.0
  9
$EXTMAX
 10
420.0
 20
297.0
  9
$LIMMIN
 10
0.0
 20
0.0
  9
$LIMMAX
 10
420.0
 20
297.0
  9
$HANDSEED
  5
42E
  0
ENDSEC
  0
SECTION
  2
CLASSES
  0
ENDSEC
  0
SECTION
  2
TABLES
  0
TABLE
  2
VPORT
  5
8
100
AcDbSymbolTable
 70
     2
  0
VPORT
  5
14
100
AcDbSymbolTableRecord
100
AcDbViewportTableRecord
  2
*ACTIVE
 70
     0
 10
0.0
 20
0.0
 11
1.0
 21
1.0
 12
484.0
 22
297.0
 13
0.0
 23
0.0
 14
1.0
 24
1.0
 15
0.0
 25
0.0
 16
0.0
 26
0.0
 36
1.0
 17
0.0
 27
0.0
 37
0.0
 40
594.0
 41
2.0
 42
50.0
 43
0.0
 44
0.0
 50
0.0
 51
0.0
 71
     0
 72
   100
 73
     1
 74
     1
 75
     0
 76
     0
 77
     0
 78
     0
  0
ENDTAB
  0
TABLE
  2
LTYPE
  5
5
100
AcDbSymbolTable
 70
     5
  0
LTYPE
  5
15
100
AcDbSymbolTableRecord
100
AcDbLinetypeTableRecord
  2
BYBLOCK
 70
     0
  3

 72
    65
 73
     0
 40
0.0
  0
LTYPE
  5
16
100
AcDbSymbolTableRecord
100
AcDbLinetypeTableRecord
  2
BYLAYER
 70
     0
  3

 72
    65
 73
     0
 40
0.0
  0
LTYPE
  5
17
100
AcDbSymbolTableRecord
100
AcDbLinetypeTableRecord
  2
CONTINUOUS
 70
    64
  3
Solid line
 72
    65
 73
     0
 40
0.0
  0
LTYPE
  5
18
100
AcDbSymbolTableRecord
100
AcDbLinetypeTableRecord
  2
DASHED
 70
    64
  3
__ __ __ __ __ __ __ __ __ __ __ __ __ __ __ __
 72
    65
 73
     2
 40
0.75
 49
0.5
 74
     0
 49
-0.25
 74
     0
  0
LTYPE
  5
19
100
AcDbSymbolTableRecord
100
AcDbLinetypeTableRecord
  2
DASHDOT
 70
    64
  3
__ . __ . __ . __ . __ . __ . __ . __ . __ . __
 72
    65
 73
     4
 40
1.0
 49
0.5
 74
     0
 49
-0.25
 74
     0
 49
0.0
 74
     0
 49
-0.25
 74
     0
  0
LTYPE
  5
1A
100
AcDbSymbolTableRecord
100
AcDbLinetypeTableRecord
  2
DIVIDE
 70
    64
  3
____ . . ____ . . ____ . . ____ . . ____ . . __
 72
    65
 73
     6
 40
1.25
 49
0.5
 74
     0
 49
-0.25
 74
     0
 49
0.0
 74
     0
 49
-0.25
 74
     0
 49
0.0
 74
     0
 49
-0.25
 74
     0
  0
LTYPE
  5
1B
100
AcDbSymbolTableRecord
100
AcDbLinetypeTableRecord
  2
DOT
 70
    64
  3
. . . . . . . . . . . . . . . . . . . . . . . .
 72
    65
 73
     2
 40
0.25
 49
0.0
 74
     0
 49
-0.25
 74
     0
  0
ENDTAB
  0
TABLE
  2
LAYER
  5
2
100
AcDbSymbolTable
 70
   102
  0
LAYER
  5
F
100
AcDbSymbolTableRecord
100
AcDbLayerTableRecord
  2
0
 70
     0
 62
     7
  6
CONTINUOUS
  0
LAYER
  5
1C
100
AcDbSymbolTableRecord
100
AcDbLayerTableRecord
  2
DEFPOINTS
 70
     0
 62
     7
  6
CONTINUOUS
  0
LAYER
  5
1D
100
AcDbSymbolTableRecord
100
AcDbLayerTableRecord
  2
M0
 70
     0
 62
     3
  6
CONTINUOUS
  0
LAYER
  5
1E
100
AcDbSymbolTableRecord
100
AcDbLayerTableRecord
  2
DD0
 70
     0
 62
     4
  6
CONTINUOUS
  0
ENDTAB
  0
TABLE
  2
STYLE
  5
3
100
AcDbSymbolTable
 70
     2
  0
STYLE
  5
10
100
AcDbSymbolTableRecord
100
AcDbTextStyleTableRecord
  2
STANDARD
 70
     0
 40
0.0
 41
1.0
 50
0.0
 71
     0
 42
0.2
  3
txt
  4
BIGFONT
  0
ENDTAB
  0
TABLE
  2
VIEW
  5
6
100
AcDbSymbolTable
 70
     0
  0
ENDTAB
  0
TABLE
  2
UCS
  5
7
100
AcDbSymbolTable
 70
     0
  0
ENDTAB
  0
TABLE
  2
APPID
  5
9
100
AcDbSymbolTable
 70
     1
  0
APPID
  5
11
100
AcDbSymbolTableRecord
100
AcDbRegAppTableRecord
  2
ACAD
 70
     0
  0
ENDTAB
  0
TABLE
  2
DIMSTYLE
  5
A
100
AcDbSymbolTable
 70
     2
  0
DIMSTYLE
105
25
100
AcDbSymbolTableRecord
100
AcDbDimStyleTableRecord
  2
STANDARD
 70
     0
  3

  4

  5

  6
_OPEN
  7
_OPEN
 40
1.0
 41
3.0
 42
0.0
 43
8.0
 44
1.5
 45
0.0
 46
0.0
 47
0.0
 48
0.0
140
3.5
141
0.09
142
0.0
143
0.03937
144
1.0
145
0.0
146
1.0
147
1.0
 71
     0
 72
     0
 73
     0
 74
     0
 75
     0
 76
     0
 77
     3
 78
     8
170
     0
171
     2
172
     0
173
     1
174
     0
175
     0
176
     0
177
     0
178
     0
270
     2
271
     2
272
     4
273
     2
274
     2
340
10
275
     0
280
     0
281
     0
282
     0
283
     1
284
     0
285
     0
286
     0
287
     3
288
     0
  0
DIMSTYLE
105
26
100
AcDbSymbolTableRecord
100
AcDbDimStyleTableRecord
  2
LEADSTYL
 70
     0
  3

  4

  5

  6
_OPEN
  7
_OPEN
 40
1.0
 41
3.0
 42
0.0625
 43
0.38
 44
0.18
 45
0.0
 46
0.0
 47
0.0
 48
0.0
140
3.5
141
0.09
142
0.0
143
25.4
144
1.0
145
0.0
146
1.0
147
1.0
 71
     0
 72
     0
 73
     1
 74
     1
 75
     0
 76
     0
 77
     0
 78
     0
170
     0
171
     2
172
     0
173
     1
174
     0
175
     0
176
     0
177
     0
178
     0
270
     2
271
     4
272
     4
273
     2
274
     2
340
10
275
     0
280
     0
281
     0
282
     0
283
     1
284
     0
285
     0
286
     0
287
     3
288
     0
  0
ENDTAB
  0
TABLE
  2
BLOCK_RECORD
  5
1
100
AcDbSymbolTable
 70
     6
  0
BLOCK_RECORD
  5
1F
100
AcDbSymbolTableRecord
100
AcDbBlockTableRecord
  2
*MODEL_SPACE
  0
BLOCK_RECORD
  5
22
100
AcDbSymbolTableRecord
100
AcDbBlockTableRecord
  2
*PAPER_SPACE
  0
BLOCK_RECORD
  5
27
100
AcDbSymbolTableRecord
100
AcDbBlockTableRecord
  2
_NONE
  0
BLOCK_RECORD
  5
2B
100
AcDbSymbolTableRecord
100
AcDbBlockTableRecord
  2
_OPEN
  0
BLOCK_RECORD
  5
31
100
AcDbSymbolTableRecord
100
AcDbBlockTableRecord
  2
_CLOSED
  0
BLOCK_RECORD
  5
38
100
AcDbSymbolTableRecord
100
AcDbBlockTableRecord
  2
_ORIGIN
  0
BLOCK_RECORD
  5
3D
100
AcDbSymbolTableRecord
100
AcDbBlockTableRecord
  2
_DOT
  0
BLOCK_RECORD
  5
45
100
AcDbSymbolTableRecord
100
AcDbBlockTableRecord
  2
_OBLIQUE
  0
ENDTAB
  0
ENDSEC
  0
SECTION
  2
BLOCKS
  0
BLOCK
  5
20
100
AcDbEntity
  8
0
100
AcDbBlockBegin
  2
*MODEL_SPACE
 70
     0
 10
0.0
 20
0.0
 30
0.0
  3
*MODEL_SPACE
  1

  0
ENDBLK
  5
21
100
AcDbEntity
  8
0
100
AcDbBlockEnd
  0
BLOCK
  5
23
100
AcDbEntity
 67
     1
  8
0
100
AcDbBlockBegin
  2
*PAPER_SPACE
 70
     0
 10
0.0
 20
0.0
 30
0.0
  3
*PAPER_SPACE
  1

  0
ENDBLK
  5
24
100
AcDbEntity
 67
     1
  8
0
100
AcDbBlockEnd
  0
BLOCK
  5
28
100
AcDbEntity
  8
0
100
AcDbBlockBegin
  2
_NONE
 70
     0
 10
0.0
 20
0.0
  0
CIRCLE
  5
29
100
AcDbEntity
  8
0
 62
     0
100
AcDbCircle
 10
0.0
 20
0.0
 40
0.25
  0
ENDBLK
  5
2A
100
AcDbEntity
  8
0
100
AcDbBlockEnd
  0
BLOCK
  5
2C
100
AcDbEntity
  8
0
100
AcDbBlockBegin
  2
_OPEN
 70
     0
 10
0.0
 20
0.0
  0
LINE
  5
2D
100
AcDbEntity
  8
0
 62
     0
100
AcDbLine
 10
-0.965926
 20
0.25882
 11
0.0
 21
0.0
  0
LINE
  5
2E
100
AcDbEntity
  8
0
 62
     0
100
AcDbLine
 10
0.0
 20
0.0
 11
-0.965926
 21
-0.25882
  0
LINE
  5
2F
100
AcDbEntity
  8
0
 62
     0
100
AcDbLine
 10
0.0
 20
0.0
 11
-1.0
 21
0.0
  0
ENDBLK
  5
30
100
AcDbEntity
  8
0
100
AcDbBlockEnd
  0
BLOCK
  5
32
100
AcDbEntity
  8
0
100
AcDbBlockBegin
  2
_CLOSED
 70
     0
 10
0.0
 20
0.0
  0
LINE
  5
33
100
AcDbEntity
  8
0
 62
     0
100
AcDbLine
 10
-0.965926
 20
0.25882
 11
0.0
 21
0.0
  0
LINE
  5
34
100
AcDbEntity
  8
0
 62
     0
100
AcDbLine
 10
0.0
 20
0.0
 11
-0.965926
 21
-0.25882
  0
LINE
  5
35
100
AcDbEntity
  8
0
 62
     0
100
AcDbLine
 10
-0.965926
 20
0.25882
 11
-0.965926
 21
-0.25882
  0
LINE
  5
36
100
AcDbEntity
  8
0
 62
     0
100
AcDbLine
 10
0.0
 20
0.0
 11
-1.0
 21
0.0
  0
ENDBLK
  5
37
100
AcDbEntity
  8
0
100
AcDbBlockEnd
  0
BLOCK
  5
39
100
AcDbEntity
  8
0
100
AcDbBlockBegin
  2
_ORIGIN
 70
     0
 10
0.0
 20
0.0
  0
CIRCLE
  5
3A
100
AcDbEntity
  8
0
 62
     0
100
AcDbCircle
 10
0.0
 20
0.0
 40
0.5
  0
LINE
  5
3B
100
AcDbEntity
  8
0
 62
     0
100
AcDbLine
 10
0.0
 20
0.0
 11
-1.0
 21
0.0
  0
ENDBLK
  5
3C
100
AcDbEntity
  8
0
100
AcDbBlockEnd
  0
BLOCK
  5
3E
100
AcDbEntity
  8
0
100
AcDbBlockBegin
  2
_DOT
 70
     0
 10
0.0
 20
0.0
  0
POLYLINE
  5
3F
100
AcDbEntity
  8
0
 62
     0
100
AcDb2dPolyline
 66
     1
 70
     1
 40
0.5
 41
0.5
  0
VERTEX
  5
40
100
AcDbEntity
  8
0
 62
     0
100
AcDbVertex
100
AcDb2dVertex
 10
-0.25
 20
0.0
 42
1.0
  0
VERTEX
  5
41
100
AcDbEntity
  8
0
 62
     0
100
AcDbVertex
100
AcDb2dVertex
 10
0.25
 20
0.0
 42
1.0
  0
SEQEND
  5
42
100
AcDbEntity
  8
0
 62
     0
  0
LINE
  5
43
100
AcDbEntity
  8
0
 62
     0
100
AcDbLine
 10
-0.5
 20
0.0
 11
-1.0
 21
0.0
  0
ENDBLK
  5
44
100
AcDbEntity
  8
0
100
AcDbBlockEnd
  0
BLOCK
  5
46
100
AcDbEntity
  8
0
100
AcDbBlockBegin
  2
_OBLIQUE
 70
     0
 10
0.0
 20
0.0
  0
LINE
  5
47
100
AcDbEntity
  8
0
 62
     0
100
AcDbLine
 10
-0.353553
 20
-0.353553
 11
0.353553
 21
0.353553
  0
ENDBLK
  5
48
100
AcDbEntity
  8
0
100
AcDbBlockEnd
  0
ENDSEC
  0
SECTION
  2
ENTITIES
  0
LEADER
  5
49
100
AcDbEntity
  8
DD0
100
AcDbLeader
  3
LEADSTYL
 76
     3
 10
136.610687
 20
141.261978
 10
141.461639
 20
146.304291
 10
168.461639
 20
146.304291
340
4A
 77
     4
  0
TEXT
  5
4A
100
AcDbEntity
  8
DD0
100
AcDbText
 10
142.669965
 20
147.004288
 40
2.5
  1
ＷＴ－Ｐ３００Ｈ，Ｊ
 41
0.833333
  7
STANDARD
100
AcDbText
  0
LEADER
  5
4B
100
AcDbEntity
  8
DD0
100
AcDbLeader
  3
LEADSTYL
 76
     3
 10
121.624878
 20
143.131927
 10
119.144341
 20
131.975601
 10
146.144333
 20
131.975601
340
4C
 77
     4
  0
TEXT
  5
4C
100
AcDbEntity
  8
DD0
100
AcDbText
 10
120.352674
 20
132.675598
 40
2.5
  1
ＷＴ－Ｐ２００Ｈ，Ｊ
 41
0.833333
  7
STANDARD
100
AcDbText
  0
LEADER
  5
4D
100
AcDbEntity
  8
DD0
100
AcDbLeader
  3
LEADSTYL
 76
     3
 10
78.365196
 20
164.64151
 10
86.834869
 20
181.156631
 10
113.834869
 20
181.156631
340
4E
 77
     4
  0
TEXT
  5
4E
100
AcDbEntity
  8
DD0
100
AcDbText
 10
88.043203
 20
181.856628
 40
2.5
  1
ＷＴ－Ｐ１２５Ｈ，Ｊ
 41
0.833333
  7
STANDARD
100
AcDbText
  0
LEADER
  5
4F
100
AcDbEntity
  8
DD0
100
AcDbLeader
  3
LEADSTYL
 76
     3
 10
178.69873
 20
59.441849
 10
191.044403
 20
43.764797
 10
213.044403
 20
43.764797
340
50
 77
     4
  0
TEXT
  5
50
100
AcDbEntity
  8
DD0
100
AcDbText
 10
192.252729
 20
44.464798
 40
2.5
  1
圧力スイッチ閉時
 41
0.833333
  7
STANDARD
100
AcDbText
  0
LEADER
  5
51
100
AcDbEntity
  8
DD0
100
AcDbLeader
  3
LEADSTYL
 76
     3
 10
57.711685
 20
59.647781
 10
59.774727
 20
53.882591
 10
81.774727
 20
53.882591
340
52
 77
     4
  0
TEXT
  5
52
100
AcDbEntity
  8
DD0
100
AcDbText
 10
60.983061
 20
54.582592
 40
2.5
  1
圧力スイッチ閉時
 41
0.833333
  7
STANDARD
100
AcDbText
  0
LEADER
  5
53
100
AcDbEntity
  8
DD0
100
AcDbLeader
  3
LEADSTYL
 76
     3
 10
127.365791
 20
158.200333
 10
138.118942
 20
152.18251
 10
157.618942
 20
152.18251
340
54
 77
     4
  0
TEXT
  5
54
100
AcDbEntity
  8
DD0
100
AcDbText
 10
139.410609
 20
153.18251
 40
3.5
  1
　　　　　
 41
0.833333
  7
STANDARD
100
AcDbText
  0
LEADER
  5
55
100
AcDbEntity
  8
DD0
100
AcDbLeader
  3
LEADSTYL
 76
     3
 10
82.634644
 20
157.555115
 10
96.681519
 20
171.676971
 10
121.181519
 20
171.676971
340
56
 77
     4
  0
TEXT
  5
56
100
AcDbEntity
  8
DD0
100
AcDbText
 10
97.889852
 20
172.376968
 40
2.5
  1
ＷＴ－Ｐ８０Ｈ，Ｊ
 41
0.833333
  7
STANDARD
100
AcDbText
  0
LEADER
  5
57
100
AcDbEntity
  8
DD0
100
AcDbLeader
  3
LEADSTYL
 76
     3
 10
89.213921
 20
154.118179
 10
101.386627
 20
165.425003
 10
128.386627
 20
165.425003
340
58
 77
     4
  0
TEXT
  5
58
100
AcDbEntity
  8
DD0
100
AcDbText
 10
102.594961
 20
166.125
 40
2.5
  1
ＷＭ－Ｐ１２５Ｈ，Ｊ
 41
0.833333
  7
STANDARD
100
AcDbText
  0
LEADER
  5
59
100
AcDbEntity
  8
DD0
100
AcDbLeader
  3
LEADSTYL
 76
     3
 10
218.215469
 20
66.836777
 10
228.5522
 20
62.351028
 10
248.0522
 20
62.351028
340
5A
 77
     4
  0
TEXT
  5
5A
100
AcDbEntity
  8
DD0
100
AcDbText
 10
229.843867
 20
63.351028
 40
3.5
  1
　　　　　
 41
0.833333
  7
STANDARD
100
AcDbText
  0
LEADER
  5
5B
100
AcDbEntity
  8
DD0
100
AcDbLeader
  3
LEADSTYL
 76
     3
 10
178.912338
 20
64.678177
 10
192.653259
 20
74.075203
 10
214.653259
 20
74.075203
340
5C
 77
     4
  0
TEXT
  5
5C
100
AcDbEntity
  8
DD0
100
AcDbText
 10
193.861585
 20
74.7752
 40
2.5
  1
圧力スイッチ開時
 41
0.833333
  7
STANDARD
100
AcDbText
  0
LEADER
  5
5D
100
AcDbEntity
  8
DD0
100
AcDbLeader
  3
LEADSTYL
 76
     3
 10
124.059311
 20
62.85989
 10
119.572067
 20
67.057297
 10
100.072067
 20
67.057297
340
5E
 77
     4
  0
TEXT
  5
5E
100
AcDbEntity
  8
DD0
100
AcDbText
 10
101.363734
 20
68.057297
 40
3.5
  1
　　　　　
 41
0.833333
  7
STANDARD
100
AcDbText
  0
LEADER
  5
5F
100
AcDbEntity
  8
DD0
100
AcDbLeader
  3
LEADSTYL
 76
     3
 10
55.239395
 20
66.403229
 10
59.680614
 20
72.239693
 10
79.180618
 20
72.239693
340
60
 77
     4
  0
TEXT
  5
60
100
AcDbEntity
  8
DD0
100
AcDbText
 10
60.972281
 20
73.239693
 40
3.5
  1
　　　　　
 41
0.833333
  7
STANDARD
100
AcDbText
  0
LEADER
  5
61
100
AcDbEntity
  8
DD0
100
AcDbLeader
  3
LEADSTYL
 76
     3
 10
78.836678
 20
161.141159
 10
87.057686
 20
176.173843
 10
114.057686
 20
176.173843
340
62
 77
     4
  0
TEXT
  5
62
100
AcDbEntity
  8
DD0
100
AcDbText
 10
88.26602
 20
176.87384
 40
2.5
  1
ＷＭ－Ｐ２００Ｈ，Ｊ
 41
0.833333
  7
STANDARD
100
AcDbText
  0
LINE
  5
63
100
AcDbEntity
  8
M0
100
AcDbLine
 10
336.398527
 20
209.576115
 11
336.398527
 21
199.076115
  0
LINE
  5
64
100
AcDbEntity
  8
M0
100
AcDbLine
 10
335.398527
 20
215.012935
 11
335.398527
 21
212.32443
  0
LINE
  5
65
100
AcDbEntity
  8
M0
100
AcDbLine
 10
326.098527
 20
212.576115
 11
326.098527
 21
215.012935
  0
LINE
  5
66
100
AcDbEntity
  8
M0
100
AcDbLine
 10
340.898527
 20
196.676115
 11
340.898527
 21
215.012935
  0
LINE
  5
67
100
AcDbEntity
  8
M0
100
AcDbLine
 10
307.056168
 20
220.95201
 11
307.056168
 21
226.412587
  0
ARC
  5
68
100
AcDbEntity
  8
M0
100
AcDbCircle
 10
303.466371
 20
218.95201
 40
1.0
100
AcDbArc
 50
0.0
 51
180.0
  0
LINE
  5
69
100
AcDbEntity
  8
M0
100
AcDbLine
 10
303.466371
 20
202.316698
 11
303.466371
 21
226.412587
  0
TEXT
  5
6A
100
AcDbEntity
  8
M0
100
AcDbText
 10
301.497792
 20
213.402621
 40
2.0
  1
シ
 41
0.833333
  7
STANDARD
100
AcDbText
  0
TEXT
  5
6B
100
AcDbEntity
  8
M0
100
AcDbText
 10
301.497792
 20
211.402621
 40
2.0
  1
ロ
 41
0.833333
  7
STANDARD
100
AcDbText
  0
LINE
  5
6C
100
AcDbEntity
  8
M0
100
AcDbLine
 10
295.856168
 20
226.412587
 11
295.856168
 21
210.350299
  0
LINE
  5
6D
100
AcDbEntity
  8
M0
100
AcDbLine
 10
321.056168
 20
234.407657
 11
321.056168
 21
230.412587
  0
LINE
  5
6E
100
AcDbEntity
  8
M0
100
AcDbLine
 10
321.056168
 20
230.412587
 11
319.456168
 21
230.412587
  0
CIRCLE
  5
6F
100
AcDbEntity
  8
M0
100
AcDbCircle
 10
293.356168
 20
233.964749
 40
0.75
  0
CIRCLE
  5
70
100
AcDbEntity
  8
M0
100
AcDbCircle
 10
301.356168
 20
233.964749
 40
0.75
  0
CIRCLE
  5
71
100
AcDbEntity
  8
M0
100
AcDbCircle
 10
309.356168
 20
233.964749
 40
0.75
  0
CIRCLE
  5
72
100
AcDbEntity
  8
M0
100
AcDbCircle
 10
317.356168
 20
233.964749
 40
0.75
  0
TEXT
  5
73
100
AcDbEntity
  8
M0
100
AcDbText
 10
292.30216
 20
205.383438
 40
3.0
  1
圧
 41
0.833333
  7
STANDARD
100
AcDbText
  0
TEXT
  5
74
100
AcDbEntity
  8
M0
100
AcDbText
 10
292.30216
 20
202.383438
 40
3.0
  1
力
 41
0.833333
  7
STANDARD
100
AcDbText
  0
LINE
  5
75
100
AcDbEntity
  8
M0
100
AcDbLine
 10
291.746168
 20
195.566698
 11
291.746168
 21
208.600299
  0
LINE
  5
76
100
AcDbEntity
  8
M0
100
AcDbLine
 10
291.746168
 20
208.600299
 11
298.746168
 21
208.600299
  0
LINE
  5
77
100
AcDbEntity
  8
M0
100
AcDbLine
 10
298.746168
 20
208.600299
 11
298.746168
 21
195.566698
  0
TEXT
  5
78
100
AcDbEntity
  8
M0
100
AcDbText
 10
295.425757
 20
204.97601
 40
3.0
  1
ス
 41
0.833333
  7
STANDARD
100
AcDbText
  0
TEXT
  5
79
100
AcDbEntity
  8
M0
100
AcDbText
 10
295.425757
 20
201.97601
 40
3.0
  1
イ
 41
0.833333
  7
STANDARD
100
AcDbText
  0
TEXT
  5
7A
100
AcDbEntity
  8
M0
100
AcDbText
 10
295.425757
 20
198.97601
 40
3.0
  1
ッ
 41
0.833333
  7
STANDARD
100
AcDbText
  0
TEXT
  5
7B
100
AcDbEntity
  8
M0
100
AcDbText
 10
295.425757
 20
195.97601
 40
3.0
  1
チ
 41
0.833333
  7
STANDARD
100
AcDbText
  0
LINE
  5
7C
100
AcDbEntity
  8
M0
100
AcDbLine
 10
291.746168
 20
195.566698
 11
298.746168
 21
195.566698
  0
LINE
  5
7D
100
AcDbEntity
  8
M0
100
AcDbLine
 10
329.902838
 20
206.076115
 11
331.902838
 21
206.076115
  0
LINE
  5
7E
100
AcDbEntity
  8
M0
100
AcDbLine
 10
329.902838
 20
203.576115
 11
331.902838
 21
203.576115
  0
LINE
  5
7F
100
AcDbEntity
  8
M0
100
AcDbLine
 10
331.902838
 20
206.076115
 11
331.902838
 21
205.576115
  0
LINE
  5
80
100
AcDbEntity
  8
M0
100
AcDbLine
 10
331.902838
 20
204.076115
 11
331.902838
 21
203.576115
  0
LINE
  5
81
100
AcDbEntity
  8
M0
100
AcDbLine
 10
333.048527
 20
206.471804
 11
332.402838
 21
205.826115
  0
LINE
  5
82
100
AcDbEntity
  8
M0
100
AcDbLine
 10
333.048527
 20
204.471804
 11
332.402838
 21
203.826115
  0
LINE
  5
83
100
AcDbEntity
  8
M0
100
AcDbLine
 10
333.048527
 20
203.180427
 11
332.402838
 21
203.826115
  0
LINE
  5
84
100
AcDbEntity
  8
M0
100
AcDbLine
 10
333.048527
 20
205.180427
 11
332.402838
 21
205.826115
  0
LINE
  5
85
100
AcDbEntity
  8
M0
100
AcDbLine
 10
331.902838
 20
206.076115
 11
329.902838
 21
206.076115
  0
LINE
  5
86
100
AcDbEntity
  8
M0
100
AcDbLine
 10
331.902838
 20
203.576115
 11
329.902838
 21
203.576115
  0
LINE
  5
87
100
AcDbEntity
  8
M0
100
AcDbLine
 10
333.048527
 20
205.426115
 11
333.048527
 21
205.180427
  0
LINE
  5
88
100
AcDbEntity
  8
M0
100
AcDbLine
 10
309.902838
 20
207.076115
 11
329.902838
 21
207.076115
  0
LINE
  5
89
100
AcDbEntity
  8
M0
100
AcDbLine
 10
329.902838
 20
204.076115
 11
331.902838
 21
204.076115
  0
LINE
  5
8A
100
AcDbEntity
  8
M0
100
AcDbLine
 10
329.902838
 20
205.576115
 11
331.902838
 21
205.576115
  0
LINE
  5
8B
100
AcDbEntity
  8
M0
100
AcDbLine
 10
333.048527
 20
206.471804
 11
333.048527
 21
205.426115
  0
LINE
  5
8C
100
AcDbEntity
  8
M0
100
AcDbLine
 10
333.048527
 20
204.471804
 11
333.048527
 21
203.180427
  0
LINE
  5
8D
100
AcDbEntity
  8
M0
100
AcDbLine
 10
300.246168
 20
204.316698
 11
298.746168
 21
204.316698
  0
LINE
  5
8E
100
AcDbEntity
  8
M0
100
AcDbLine
 10
300.246168
 20
210.350299
 11
300.246168
 21
204.316698
  0
LINE
  5
8F
100
AcDbEntity
  8
M0
100
AcDbLine
 10
295.456168
 20
230.079253
 11
295.456168
 21
231.079253
  0
LINE
  5
90
100
AcDbEntity
  8
M0
100
AcDbLine
 10
309.902838
 20
203.076115
 11
309.902838
 21
207.076115
  0
LINE
  5
91
100
AcDbEntity
  8
M0
100
AcDbLine
 10
329.902838
 20
207.076115
 11
329.902838
 21
203.076115
  0
LINE
  5
92
100
AcDbEntity
  8
M0
100
AcDbLine
 10
323.148527
 20
218.95201
 11
323.148527
 21
227.907657
  0
LINE
  5
93
100
AcDbEntity
  8
M0
100
AcDbLine
 10
321.306168
 20
229.407657
 11
321.306168
 21
220.95201
  0
LINE
  5
94
100
AcDbEntity
  8
M0
100
AcDbLine
 10
357.098527
 20
217.30424
 11
357.098527
 21
239.907657
  0
LINE
  5
95
100
AcDbEntity
  8
M0
100
AcDbLine
 10
333.048527
 20
203.826115
 11
333.548527
 21
203.826115
  0
LINE
  5
96
100
AcDbEntity
  8
M0
100
AcDbLine
 10
334.498527
 20
205.826115
 11
333.048527
 21
205.826115
  0
LINE
  5
97
100
AcDbEntity
  8
M0
100
AcDbLine
 10
311.456168
 20
228.912587
 11
311.456168
 21
230.079253
  0
LINE
  5
98
100
AcDbEntity
  8
M0
100
AcDbLine
 10
312.756168
 20
236.407657
 11
312.756168
 21
230.079253
  0
LINE
  5
99
100
AcDbEntity
  8
M0
100
AcDbLine
 10
312.756168
 20
242.907657
 11
312.756168
 21
238.407657
  0
LINE
  5
9A
100
AcDbEntity
  8
M0
100
AcDbLine
 10
307.256168
 20
236.407657
 11
307.256168
 21
233.579253
  0
LINE
  5
9B
100
AcDbEntity
  8
M0
100
AcDbLine
 10
299.256168
 20
241.965523
 11
299.256168
 21
233.579253
  0
LINE
  5
9C
100
AcDbEntity
  8
M0
100
AcDbLine
 10
307.256168
 20
241.965523
 11
307.256168
 21
238.407657
  0
LINE
  5
9D
100
AcDbEntity
  8
M0
100
AcDbLine
 10
295.856168
 20
210.350299
 11
300.246168
 21
210.350299
  0
LINE
  5
9E
100
AcDbEntity
  8
M0
100
AcDbLine
 10
303.466371
 20
202.316698
 11
298.746168
 21
202.316698
  0
TEXT
  5
9F
100
AcDbEntity
  8
M0
100
AcDbText
 10
300.366635
 20
200.316699
 40
2.0
  1
ハイ
 41
0.833333
  7
STANDARD
100
AcDbText
  0
TEXT
  5
A0
100
AcDbEntity
  8
M0
100
AcDbText
 10
300.366635
 20
198.316698
 40
2.0
  1
ハイ
 41
0.833333
  7
STANDARD
100
AcDbText
  0
TEXT
  5
A1
100
AcDbEntity
  8
M0
100
AcDbText
 10
314.776734
 20
209.576117
 40
2.0
  1
コネクタ－
 41
0.833333
  7
STANDARD
100
AcDbText
  0
LINE
  5
A2
100
AcDbEntity
  8
M0
100
AcDbLine
 10
323.148527
 20
227.907657
 11
342.598527
 21
227.907657
  0
LINE
  5
A3
100
AcDbEntity
  8
M0
100
AcDbLine
 10
321.306168
 20
229.407657
 11
344.598527
 21
229.407657
  0
LINE
  5
A4
100
AcDbEntity
  8
M0
100
AcDbLine
 10
333.548527
 20
203.826115
 11
333.548527
 21
201.476115
  0
LINE
  5
A5
100
AcDbEntity
  8
M0
100
AcDbLine
 10
334.498527
 20
200.276115
 11
334.498527
 21
205.826115
  0
LINE
  5
A6
100
AcDbEntity
  8
M0
100
AcDbLine
 10
342.598527
 20
227.907657
 11
342.598527
 21
194.076115
  0
LINE
  5
A7
100
AcDbEntity
  8
M0
100
AcDbLine
 10
344.598527
 20
192.076115
 11
344.598527
 21
229.407657
  0
TEXT
  5
A8
100
AcDbEntity
  8
M0
100
AcDbText
 10
347.410349
 20
234.150304
 40
2.5
  1
自
  7
STANDARD
100
AcDbText
  0
TEXT
  5
A9
100
AcDbEntity
  8
M0
100
AcDbText
 10
347.410349
 20
231.650304
 40
2.5
  1
動
  7
STANDARD
100
AcDbText
  0
TEXT
  5
AA
100
AcDbEntity
  8
M0
100
AcDbText
 10
347.410349
 20
229.150304
 40
2.5
  1
凍
  7
STANDARD
100
AcDbText
  0
TEXT
  5
AB
100
AcDbEntity
  8
M0
100
AcDbText
 10
347.410349
 20
226.650304
 40
2.5
  1
結
  7
STANDARD
100
AcDbText
  0
TEXT
  5
AC
100
AcDbEntity
  8
M0
100
AcDbText
 10
347.410349
 20
224.150304
 40
2.5
  1
防
  7
STANDARD
100
AcDbText
  0
TEXT
  5
AD
100
AcDbEntity
  8
M0
100
AcDbText
 10
347.410349
 20
221.650304
 40
2.5
  1
止
  7
STANDARD
100
AcDbText
  0
TEXT
  5
AE
100
AcDbEntity
  8
M0
100
AcDbText
 10
347.410349
 20
219.150304
 40
2.5
  1
用
  7
STANDARD
100
AcDbText
  0
TEXT
  5
AF
100
AcDbEntity
  8
M0
100
AcDbText
 10
351.06016
 20
234.150304
 40
2.5
  1
　
  7
STANDARD
100
AcDbText
  0
TEXT
  5
B0
100
AcDbEntity
  8
M0
100
AcDbText
 10
351.06016
 20
231.650304
 40
2.5
  1
　
  7
STANDARD
100
AcDbText
  0
TEXT
  5
B1
100
AcDbEntity
  8
M0
100
AcDbText
 10
351.06016
 20
229.150304
 40
2.5
  1
温
  7
STANDARD
100
AcDbText
  0
TEXT
  5
B2
100
AcDbEntity
  8
M0
100
AcDbText
 10
351.06016
 20
226.650304
 40
2.5
  1
度
  7
STANDARD
100
AcDbText
  0
TEXT
  5
B3
100
AcDbEntity
  8
M0
100
AcDbText
 10
351.06016
 20
224.150304
 40
2.5
  1
リ
  7
STANDARD
100
AcDbText
  0
TEXT
  5
B4
100
AcDbEntity
  8
M0
100
AcDbText
 10
351.06016
 20
221.650304
 40
2.5
  1
レ
  7
STANDARD
100
AcDbText
  0
LINE
  5
B5
100
AcDbEntity
  8
M0
100
AcDbLine
 10
352.398527
 20
219.404283
 11
352.398527
 21
221.323595
  0
LINE
  5
B6
100
AcDbEntity
  8
M0
100
AcDbLine
 10
346.598527
 20
218.80424
 11
346.598527
 21
237.80424
  0
LINE
  5
B7
100
AcDbEntity
  8
M0
100
AcDbLine
 10
346.598527
 20
218.80424
 11
354.598527
 21
218.80424
  0
LINE
  5
B8
100
AcDbEntity
  8
M0
100
AcDbLine
 10
354.598527
 20
237.80424
 11
354.598527
 21
218.80424
  0
LINE
  5
B9
100
AcDbEntity
  8
M0
100
AcDbLine
 10
354.598527
 20
237.80424
 11
346.598527
 21
237.80424
  0
LINE
  5
BA
100
AcDbEntity
  8
M0
100
AcDbLine
 10
350.098527
 20
215.80424
 11
350.098527
 21
211.30424
  0
LINE
  5
BB
100
AcDbEntity
  8
M0
100
AcDbLine
 10
348.098527
 20
217.30424
 11
348.098527
 21
211.30424
  0
LINE
  5
BC
100
AcDbEntity
  8
M0
100
AcDbLine
 10
357.098527
 20
217.30424
 11
348.098527
 21
217.30424
  0
LINE
  5
BD
100
AcDbEntity
  8
M0
100
AcDbLine
 10
311.456168
 20
230.079253
 11
312.756168
 21
230.079253
  0
LINE
  5
BE
100
AcDbEntity
  8
M0
100
AcDbLine
 10
312.756168
 20
242.907657
 11
359.098527
 21
242.907657
  0
LINE
  5
BF
100
AcDbEntity
  8
M0
100
AcDbLine
 10
346.598527
 20
237.407657
 11
303.456168
 21
237.407657
  0
ARC
  5
C0
100
AcDbEntity
  8
M0
100
AcDbCircle
 10
307.256168
 20
237.407657
 40
1.0
100
AcDbArc
 50
270.0
 51
450.0
  0
ARC
  5
C1
100
AcDbEntity
  8
M0
100
AcDbCircle
 10
312.756168
 20
237.407657
 40
1.0
100
AcDbArc
 50
270.0
 51
450.0
  0
TEXT
  5
C2
100
AcDbEntity
  8
M0
100
AcDbText
 10
341.392514
 20
237.407659
 40
2.0
  1
シロ
 41
0.833333
  7
STANDARD
100
AcDbText
  0
LINE
  5
C3
100
AcDbEntity
  8
M0
100
AcDbLine
 10
303.456168
 20
237.407657
 11
303.456168
 21
233.579253
  0
LINE
  5
C4
100
AcDbEntity
  8
M0
100
AcDbLine
 10
291.856168
 20
232.079253
 11
291.856168
 21
235.74592
  0
LINE
  5
C5
100
AcDbEntity
  8
M0
100
AcDbLine
 10
290.598281
 20
231.079253
 11
291.856168
 21
231.079253
  0
LINE
  5
C6
100
AcDbEntity
  8
M0
100
AcDbLine
 10
290.656168
 20
228.912587
 11
291.856168
 21
228.912587
  0
LINE
  5
C7
100
AcDbEntity
  8
M0
100
AcDbLine
 10
290.656168
 20
228.912587
 11
290.656168
 21
226.412587
  0
LINE
  5
C8
100
AcDbEntity
  8
M0
100
AcDbLine
 10
290.656168
 20
226.412587
 11
296.056168
 21
226.412587
  0
LINE
  5
C9
100
AcDbEntity
  8
M0
100
AcDbLine
 10
291.856168
 20
232.079253
 11
291.856168
 21
226.412587
  0
LINE
  5
CA
100
AcDbEntity
  8
M0
100
AcDbLine
 10
294.856168
 20
235.74592
 11
291.856168
 21
235.74592
  0
CIRCLE
  5
CB
100
AcDbEntity
  8
M0
100
AcDbCircle
 10
293.356168
 20
233.964749
 40
1.25
  0
LINE
  5
CC
100
AcDbEntity
  8
M0
100
AcDbLine
 10
294.856168
 20
235.74592
 11
294.856168
 21
226.412587
  0
LINE
  5
CD
100
AcDbEntity
  8
M0
100
AcDbLine
 10
294.856168
 20
233.579253
 11
296.056168
 21
233.579253
  0
LINE
  5
CE
100
AcDbEntity
  8
M0
100
AcDbLine
 10
296.056168
 20
233.579253
 11
296.056168
 21
231.079253
  0
LINE
  5
CF
100
AcDbEntity
  8
M0
100
AcDbLine
 10
294.856168
 20
231.079253
 11
296.056168
 21
231.079253
  0
LINE
  5
D0
100
AcDbEntity
  8
M0
100
AcDbLine
 10
294.856168
 20
228.912587
 11
296.056168
 21
228.912587
  0
LINE
  5
D1
100
AcDbEntity
  8
M0
100
AcDbLine
 10
296.056168
 20
228.912587
 11
296.056168
 21
226.412587
  0
CIRCLE
  5
D2
100
AcDbEntity
  8
M0
100
AcDbCircle
 10
293.356168
 20
229.375137
 40
1.433333
  0
LINE
  5
D3
100
AcDbEntity
  8
M0
100
AcDbLine
 10
294.006017
 20
228.725288
 11
292.770764
 21
229.96054
  0
LINE
  5
D4
100
AcDbEntity
  8
M0
100
AcDbLine
 10
292.706319
 20
228.725288
 11
293.941572
 21
229.96054
  0
LINE
  5
D5
100
AcDbEntity
  8
M0
100
AcDbLine
 10
298.656168
 20
233.579253
 11
298.656168
 21
231.079253
  0
LINE
  5
D6
100
AcDbEntity
  8
M0
100
AcDbLine
 10
298.656168
 20
233.579253
 11
299.856168
 21
233.579253
  0
LINE
  5
D7
100
AcDbEntity
  8
M0
100
AcDbLine
 10
321.056168
 20
234.407657
 11
346.598527
 21
234.407657
  0
LINE
  5
D8
100
AcDbEntity
  8
M0
100
AcDbLine
 10
319.374583
 20
239.907657
 11
357.098527
 21
239.907657
  0
LINE
  5
D9
100
AcDbEntity
  8
M0
100
AcDbLine
 10
307.572346
 20
198.316698
 11
298.746168
 21
198.316698
  0
LINE
  5
DA
100
AcDbEntity
  8
M0
100
AcDbLine
 10
305.572346
 20
200.316698
 11
298.746168
 21
200.316698
  0
LINE
  5
DB
100
AcDbEntity
  8
M0
100
AcDbLine
 10
305.572346
 20
212.576115
 11
326.098527
 21
212.576115
  0
LINE
  5
DC
100
AcDbEntity
  8
M0
100
AcDbLine
 10
359.098527
 20
215.80424
 11
359.098527
 21
242.907657
  0
LINE
  5
DD
100
AcDbEntity
  8
M0
100
AcDbLine
 10
298.656168
 20
231.079253
 11
299.856168
 21
231.079253
  0
LINE
  5
DE
100
AcDbEntity
  8
M0
100
AcDbLine
 10
299.856168
 20
235.74592
 11
299.856168
 21
226.412587
  0
CIRCLE
  5
DF
100
AcDbEntity
  8
M0
100
AcDbCircle
 10
301.356168
 20
233.964749
 40
1.25
  0
LINE
  5
E0
100
AcDbEntity
  8
M0
100
AcDbLine
 10
302.856168
 20
235.74592
 11
299.856168
 21
235.74592
  0
LINE
  5
E1
100
AcDbEntity
  8
M0
100
AcDbLine
 10
302.856168
 20
235.74592
 11
302.856168
 21
226.412587
  0
LINE
  5
E2
100
AcDbEntity
  8
M0
100
AcDbLine
 10
302.856168
 20
233.579253
 11
304.056168
 21
233.579253
  0
LINE
  5
E3
100
AcDbEntity
  8
M0
100
AcDbLine
 10
304.056168
 20
231.079253
 11
304.056168
 21
233.579253
  0
LINE
  5
E4
100
AcDbEntity
  8
M0
100
AcDbLine
 10
302.856168
 20
231.079253
 11
304.056168
 21
231.079253
  0
LINE
  5
E5
100
AcDbEntity
  8
M0
100
AcDbLine
 10
300.794679
 20
228.813647
 11
301.972723
 21
229.991692
  0
LINE
  5
E6
100
AcDbEntity
  8
M0
100
AcDbLine
 10
301.917657
 20
228.813647
 11
300.739613
 21
229.991692
  0
CIRCLE
  5
E7
100
AcDbEntity
  8
M0
100
AcDbCircle
 10
301.356168
 20
229.375137
 40
1.433333
  0
LINE
  5
E8
100
AcDbEntity
  8
M0
100
AcDbLine
 10
298.656168
 20
228.912587
 11
299.856168
 21
228.912587
  0
LINE
  5
E9
100
AcDbEntity
  8
M0
100
AcDbLine
 10
298.656168
 20
228.912587
 11
298.656168
 21
226.412587
  0
LINE
  5
EA
100
AcDbEntity
  8
M0
100
AcDbLine
 10
298.656168
 20
226.412587
 11
304.056168
 21
226.412587
  0
LINE
  5
EB
100
AcDbEntity
  8
M0
100
AcDbLine
 10
304.056168
 20
226.412587
 11
304.056168
 21
228.912587
  0
LINE
  5
EC
100
AcDbEntity
  8
M0
100
AcDbLine
 10
302.856168
 20
228.912587
 11
304.056168
 21
228.912587
  0
LINE
  5
ED
100
AcDbEntity
  8
M0
100
AcDbLine
 10
306.656168
 20
228.912587
 11
306.656168
 21
226.412587
  0
LINE
  5
EE
100
AcDbEntity
  8
M0
100
AcDbLine
 10
306.656168
 20
226.412587
 11
312.056168
 21
226.412587
  0
LINE
  5
EF
100
AcDbEntity
  8
M0
100
AcDbLine
 10
307.856168
 20
235.74592
 11
307.856168
 21
226.412587
  0
CIRCLE
  5
F0
100
AcDbEntity
  8
M0
100
AcDbCircle
 10
309.356168
 20
229.375137
 40
1.433333
  0
LINE
  5
F1
100
AcDbEntity
  8
M0
100
AcDbLine
 10
310.856168
 20
235.74592
 11
310.856168
 21
226.412587
  0
LINE
  5
F2
100
AcDbEntity
  8
M0
100
AcDbLine
 10
312.056168
 20
228.912587
 11
312.056168
 21
226.412587
  0
LINE
  5
F3
100
AcDbEntity
  8
M0
100
AcDbLine
 10
310.856168
 20
228.912587
 11
312.056168
 21
228.912587
  0
LINE
  5
F4
100
AcDbEntity
  8
M0
100
AcDbLine
 10
308.829515
 20
228.848484
 11
309.866583
 21
229.885552
  0
LINE
  5
F5
100
AcDbEntity
  8
M0
100
AcDbLine
 10
309.882821
 20
228.848484
 11
308.845753
 21
229.885552
  0
LINE
  5
F6
100
AcDbEntity
  8
M0
100
AcDbLine
 10
306.656168
 20
231.079253
 11
307.856168
 21
231.079253
  0
LINE
  5
F7
100
AcDbEntity
  8
M0
100
AcDbLine
 10
306.656168
 20
233.579253
 11
306.656168
 21
231.079253
  0
LINE
  5
F8
100
AcDbEntity
  8
M0
100
AcDbLine
 10
306.656168
 20
233.579253
 11
307.856168
 21
233.579253
  0
CIRCLE
  5
F9
100
AcDbEntity
  8
M0
100
AcDbCircle
 10
309.356168
 20
233.964749
 40
1.25
  0
LINE
  5
FA
100
AcDbEntity
  8
M0
100
AcDbLine
 10
306.656168
 20
228.912587
 11
307.856168
 21
228.912587
  0
LINE
  5
FB
100
AcDbEntity
  8
M0
100
AcDbLine
 10
307.856168
 20
235.74592
 11
310.856168
 21
235.74592
  0
LINE
  5
FC
100
AcDbEntity
  8
M0
100
AcDbLine
 10
312.056168
 20
233.579253
 11
312.056168
 21
231.079253
  0
LINE
  5
FD
100
AcDbEntity
  8
M0
100
AcDbLine
 10
310.856168
 20
231.079253
 11
312.056168
 21
231.079253
  0
LINE
  5
FE
100
AcDbEntity
  8
M0
100
AcDbLine
 10
310.856168
 20
233.579253
 11
312.056168
 21
233.579253
  0
LINE
  5
FF
100
AcDbEntity
  8
M0
100
AcDbLine
 10
315.856168
 20
235.74592
 11
315.856168
 21
226.412587
  0
CIRCLE
  5
100
100
AcDbEntity
  8
M0
100
AcDbCircle
 10
317.356168
 20
229.375137
 40
1.433333
  0
LINE
  5
101
100
AcDbEntity
  8
M0
100
AcDbLine
 10
318.051239
 20
228.680065
 11
316.735459
 21
229.995845
  0
LINE
  5
102
100
AcDbEntity
  8
M0
100
AcDbLine
 10
316.661097
 20
228.680065
 11
317.976877
 21
229.995845
  0
LINE
  5
103
100
AcDbEntity
  8
M0
100
AcDbLine
 10
314.656168
 20
228.912587
 11
314.656168
 21
226.412587
  0
LINE
  5
104
100
AcDbEntity
  8
M0
100
AcDbLine
 10
314.656168
 20
226.412587
 11
320.056168
 21
226.412587
  0
LINE
  5
105
100
AcDbEntity
  8
M0
100
AcDbLine
 10
320.056168
 20
228.912587
 11
320.056168
 21
226.412587
  0
LINE
  5
106
100
AcDbEntity
  8
M0
100
AcDbLine
 10
318.856168
 20
228.912587
 11
320.056168
 21
228.912587
  0
LINE
  5
107
100
AcDbEntity
  8
M0
100
AcDbLine
 10
314.656168
 20
228.912587
 11
315.856168
 21
228.912587
  0
LINE
  5
108
100
AcDbEntity
  8
M0
100
AcDbLine
 10
318.856168
 20
235.74592
 11
318.856168
 21
226.412587
  0
LINE
  5
109
100
AcDbEntity
  8
M0
100
AcDbLine
 10
318.856168
 20
231.079253
 11
320.056168
 21
231.079253
  0
LINE
  5
10A
100
AcDbEntity
  8
M0
100
AcDbLine
 10
290.656168
 20
233.579253
 11
291.856168
 21
233.579253
  0
LINE
  5
10B
100
AcDbEntity
  8
M0
100
AcDbLine
 10
290.656168
 20
233.579253
 11
290.656168
 21
231.079253
  0
CIRCLE
  5
10C
100
AcDbEntity
  8
M0
100
AcDbCircle
 10
317.356168
 20
233.964749
 40
1.25
  0
LINE
  5
10D
100
AcDbEntity
  8
M0
100
AcDbLine
 10
315.856168
 20
235.74592
 11
318.856168
 21
235.74592
  0
LINE
  5
10E
100
AcDbEntity
  8
M0
100
AcDbLine
 10
314.656168
 20
233.579253
 11
315.856168
 21
233.579253
  0
LINE
  5
10F
100
AcDbEntity
  8
M0
100
AcDbLine
 10
314.656168
 20
233.579253
 11
314.656168
 21
231.079253
  0
LINE
  5
110
100
AcDbEntity
  8
M0
100
AcDbLine
 10
314.656168
 20
231.079253
 11
315.856168
 21
231.079253
  0
LINE
  5
111
100
AcDbEntity
  8
M0
100
AcDbLine
 10
320.056168
 20
233.579253
 11
320.056168
 21
231.079253
  0
LINE
  5
112
100
AcDbEntity
  8
M0
100
AcDbLine
 10
318.856168
 20
233.579253
 11
320.056168
 21
233.579253
  0
TEXT
  5
113
100
AcDbEntity
  8
M0
100
AcDbText
 10
311.382929
 20
203.684481
 40
3.0
  1
コンデンサー
 50
-6.832453E-007
 41
0.833333
  7
STANDARD
100
AcDbText
  0
TEXT
  5
114
100
AcDbEntity
  8
M0
100
AcDbText
 10
311.596399
 20
197.404779
 40
3.0
  1
モ－タ－
 41
0.833333
  7
STANDARD
100
AcDbText
  0
LINE
  5
115
100
AcDbEntity
  8
M0
100
AcDbLine
 10
309.902838
 20
203.076115
 11
329.902838
 21
203.076115
  0
LINE
  5
116
100
AcDbEntity
  8
M0
100
AcDbLine
 10
309.902838
 20
196.576115
 11
309.902838
 21
201.576115
  0
TEXT
  5
117
100
AcDbEntity
  8
M0
100
AcDbText
 10
310.890478
 20
191.641927
 40
3.0
  1
水温リレー
 41
0.833333
  7
STANDARD
100
AcDbText
  0
LINE
  5
118
100
AcDbEntity
  8
M0
100
AcDbLine
 10
309.902838
 20
191.076115
 11
309.902838
 21
195.076115
  0
LINE
  5
119
100
AcDbEntity
  8
M0
100
AcDbLine
 10
309.902838
 20
195.076115
 11
326.402838
 21
195.076115
  0
LINE
  5
11A
100
AcDbEntity
  8
M0
100
AcDbLine
 10
309.902838
 20
191.076115
 11
326.402838
 21
191.076115
  0
LINE
  5
11B
100
AcDbEntity
  8
M0
100
AcDbLine
 10
326.402838
 20
195.076115
 11
326.402838
 21
191.076115
  0
LINE
  5
11C
100
AcDbEntity
  8
M0
100
AcDbLine
 10
342.598527
 20
194.076115
 11
326.402838
 21
194.076115
  0
LINE
  5
11D
100
AcDbEntity
  8
M0
100
AcDbLine
 10
344.598527
 20
192.076115
 11
326.402838
 21
192.076115
  0
TEXT
  5
11E
100
AcDbEntity
  8
M0
100
AcDbText
 10
331.388959
 20
194.076114
 40
2.0
  1
シロ
 41
0.833333
  7
STANDARD
100
AcDbText
  0
LINE
  5
11F
100
AcDbEntity
  8
M0
100
AcDbLine
 10
338.398527
 20
212.32443
 11
338.398527
 21
197.876115
  0
LINE
  5
120
100
AcDbEntity
  8
M0
100
AcDbLine
 10
309.902838
 20
201.576115
 11
326.402838
 21
201.576115
  0
LINE
  5
121
100
AcDbEntity
  8
M0
100
AcDbLine
 10
326.402838
 20
196.576115
 11
309.902838
 21
196.576115
  0
LINE
  5
122
100
AcDbEntity
  8
M0
100
AcDbLine
 10
326.402838
 20
201.476115
 11
333.548527
 21
201.476115
  0
LINE
  5
123
100
AcDbEntity
  8
M0
100
AcDbLine
 10
326.402838
 20
200.276115
 11
334.498527
 21
200.276115
  0
LINE
  5
124
100
AcDbEntity
  8
M0
100
AcDbLine
 10
336.398527
 20
199.076115
 11
326.402838
 21
199.076115
  0
LINE
  5
125
100
AcDbEntity
  8
M0
100
AcDbLine
 10
338.398527
 20
197.876115
 11
326.402838
 21
197.876115
  0
LINE
  5
126
100
AcDbEntity
  8
M0
100
AcDbLine
 10
326.402838
 20
196.676115
 11
340.898527
 21
196.676115
  0
LINE
  5
127
100
AcDbEntity
  8
M0
100
AcDbLine
 10
326.402838
 20
201.576115
 11
326.402838
 21
196.576115
  0
TEXT
  5
128
100
AcDbEntity
  8
M0
100
AcDbText
 10
326.422468
 20
221.996164
 40
3.0
  1
保護リレー
 41
0.833333
  7
STANDARD
100
AcDbText
  0
LINE
  5
129
100
AcDbEntity
  8
M0
100
AcDbLine
 10
325.698527
 20
225.996163
 11
341.198527
 21
225.996163
  0
LINE
  5
12A
100
AcDbEntity
  8
M0
100
AcDbLine
 10
325.698527
 20
220.996163
 11
325.698527
 21
225.996163
  0
LINE
  5
12B
100
AcDbEntity
  8
M0
100
AcDbLine
 10
341.198527
 20
220.996163
 11
325.698527
 21
220.996163
  0
LINE
  5
12C
100
AcDbEntity
  8
M0
100
AcDbLine
 10
326.898527
 20
215.012935
 11
326.898527
 21
220.996163
  0
LINE
  5
12D
100
AcDbEntity
  8
M0
100
AcDbLine
 10
325.698527
 20
218.012935
 11
326.898527
 21
218.012935
  0
LINE
  5
12E
100
AcDbEntity
  8
M0
100
AcDbLine
 10
325.698527
 20
218.012935
 11
325.698527
 21
215.012935
  0
LINE
  5
12F
100
AcDbEntity
  8
M0
100
AcDbLine
 10
325.698527
 20
215.012935
 11
331.998527
 21
215.012935
  0
CIRCLE
  5
130
100
AcDbEntity
  8
M0
100
AcDbCircle
 10
328.698527
 20
218.50334
 40
1.5
  0
LINE
  5
131
100
AcDbEntity
  8
M0
100
AcDbLine
 10
329.479108
 20
217.722759
 11
327.969512
 21
219.232354
  0
LINE
  5
132
100
AcDbEntity
  8
M0
100
AcDbLine
 10
327.917946
 20
217.722759
 11
329.427542
 21
219.232354
  0
LINE
  5
133
100
AcDbEntity
  8
M0
100
AcDbLine
 10
330.698527
 20
220.996163
 11
330.698527
 21
215.012935
  0
LINE
  5
134
100
AcDbEntity
  8
M0
100
AcDbLine
 10
330.698527
 20
218.012935
 11
331.998527
 21
218.012935
  0
LINE
  5
135
100
AcDbEntity
  8
M0
100
AcDbLine
 10
331.998527
 20
218.012935
 11
331.998527
 21
215.012935
  0
LINE
  5
136
100
AcDbEntity
  8
M0
100
AcDbLine
 10
335.098527
 20
218.012935
 11
335.098527
 21
215.012935
  0
LINE
  5
137
100
AcDbEntity
  8
M0
100
AcDbLine
 10
336.198527
 20
218.012935
 11
335.098527
 21
218.012935
  0
LINE
  5
138
100
AcDbEntity
  8
M0
100
AcDbLine
 10
336.198527
 20
215.012935
 11
336.198527
 21
220.996163
  0
LINE
  5
139
100
AcDbEntity
  8
M0
100
AcDbLine
 10
340.098527
 20
215.012935
 11
340.098527
 21
220.996163
  0
LINE
  5
13A
100
AcDbEntity
  8
M0
100
AcDbLine
 10
341.198527
 20
220.996163
 11
341.198527
 21
225.996163
  0
CIRCLE
  5
13B
100
AcDbEntity
  8
M0
100
AcDbCircle
 10
338.398527
 20
218.50334
 40
1.5
  0
LINE
  5
13C
100
AcDbEntity
  8
M0
100
AcDbLine
 10
337.656329
 20
217.761141
 11
339.165925
 21
219.270737
  0
LINE
  5
13D
100
AcDbEntity
  8
M0
100
AcDbLine
 10
339.140725
 20
217.761141
 11
337.63113
 21
219.270737
  0
LINE
  5
13E
100
AcDbEntity
  8
M0
100
AcDbLine
 10
341.198527
 20
218.012935
 11
340.098527
 21
218.012935
  0
LINE
  5
13F
100
AcDbEntity
  8
M0
100
AcDbLine
 10
341.198527
 20
218.012935
 11
341.198527
 21
215.012935
  0
LINE
  5
140
100
AcDbEntity
  8
M0
100
AcDbLine
 10
335.098527
 20
215.012935
 11
341.198527
 21
215.012935
  0
TEXT
  5
141
100
AcDbEntity
  8
M0
100
AcDbText
 10
331.388959
 20
189.805311
 40
2.0
  1
クロ
 41
0.833333
  7
STANDARD
100
AcDbText
  0
TEXT
  5
142
100
AcDbEntity
  8
M0
100
AcDbText
 10
341.392514
 20
232.305215
 40
2.0
  1
クロ
 41
0.833333
  7
STANDARD
100
AcDbText
  0
LINE
  5
143
100
AcDbEntity
  8
M0
100
AcDbLine
 10
350.098527
 20
215.80424
 11
359.098527
 21
215.80424
  0
LINE
  5
144
100
AcDbEntity
  8
M0
100
AcDbLine
 10
297.056168
 20
230.079253
 11
297.056168
 21
218.95201
  0
LINE
  5
145
100
AcDbEntity
  8
M0
100
AcDbLine
 10
295.487456
 20
230.079253
 11
297.056168
 21
230.079253
  0
LINE
  5
146
100
AcDbEntity
  8
M0
100
AcDbLine
 10
335.398527
 20
212.32443
 11
338.398527
 21
212.32443
  0
ELLIPSE
  5
147
100
AcDbEntity
  8
M0
100
AcDbEllipse
 10
327.546722
 20
209.576115
 11
-3.333333
 21
0.0
210
0.0
220
0.0
230
1.0
 40
0.5
 41
0.0
 42
6.283185307179586
  0
LINE
  5
148
100
AcDbEntity
  8
M0
100
AcDbLine
 10
328.869718
 20
211.105886
 11
327.339947
 21
209.576115
  0
LINE
  5
149
100
AcDbEntity
  8
M0
100
AcDbLine
 10
328.869718
 20
208.046345
 11
327.339947
 21
209.576115
  0
LINE
  5
14A
100
AcDbEntity
  8
M0
100
AcDbLine
 10
330.880056
 20
209.576115
 11
336.398527
 21
209.576115
  0
LINE
  5
14B
100
AcDbEntity
  8
M0
100
AcDbLine
 10
304.456168
 20
218.95201
 11
323.148527
 21
218.95201
  0
LINE
  5
14C
100
AcDbEntity
  8
M0
100
AcDbLine
 10
321.306168
 20
220.95201
 11
307.056168
 21
220.95201
  0
TEXT
  5
14D
100
AcDbEntity
  8
M0
100
AcDbText
 10
332.374154
 20
209.939373
 40
2.0
  1
アオ
 41
0.833333
  7
STANDARD
100
AcDbText
  0
TEXT
  5
14E
100
AcDbEntity
  8
M0
100
AcDbText
 10
291.422833
 20
223.786818
 40
2.0
  1
アカ
 41
0.833333
  7
STANDARD
100
AcDbText
  0
TEXT
  5
14F
100
AcDbEntity
  8
M0
100
AcDbText
 10
299.422833
 20
223.786818
 40
2.0
  1
シロ
 41
0.833333
  7
STANDARD
100
AcDbText
  0
TEXT
  5
150
100
AcDbEntity
  8
M0
100
AcDbText
 10
307.422833
 20
223.786818
 40
2.0
  1
クロ
 41
0.833333
  7
STANDARD
100
AcDbText
  0
TEXT
  5
151
100
AcDbEntity
  8
M0
100
AcDbText
 10
315.396828
 20
223.786818
 40
2.0
  1
アオ
 41
0.833333
  7
STANDARD
100
AcDbText
  0
TEXT
  5
152
100
AcDbEntity
  8
M0
100
AcDbText
 10
347.184816
 20
208.804242
 40
2.5
  1
凍
  7
STANDARD
100
AcDbText
  0
TEXT
  5
153
100
AcDbEntity
  8
M0
100
AcDbText
 10
347.184816
 20
206.304242
 40
2.5
  1
結
  7
STANDARD
100
AcDbText
  0
TEXT
  5
154
100
AcDbEntity
  8
M0
100
AcDbText
 10
347.184816
 20
203.804242
 40
2.5
  1
防
  7
STANDARD
100
AcDbText
  0
TEXT
  5
155
100
AcDbEntity
  8
M0
100
AcDbText
 10
347.184816
 20
201.304242
 40
2.5
  1
止
  7
STANDARD
100
AcDbText
  0
TEXT
  5
156
100
AcDbEntity
  8
M0
100
AcDbText
 10
347.184816
 20
198.804242
 40
2.5
  1
用
  7
STANDARD
100
AcDbText
  0
TEXT
  5
157
100
AcDbEntity
  8
M0
100
AcDbText
 10
349.603235
 20
205.15041
 40
2.5
  1
ヒ
  7
STANDARD
100
AcDbText
  0
TEXT
  5
158
100
AcDbEntity
  8
M0
100
AcDbText
 10
349.603235
 20
202.65041
 40
2.5
  1
　
  7
STANDARD
100
AcDbText
  0
TEXT
  5
159
100
AcDbEntity
  8
M0
100
AcDbText
 10
349.603235
 20
200.15041
 40
2.5
  1
タ
  7
STANDARD
100
AcDbText
  0
TEXT
  5
15A
100
AcDbEntity
  8
M0
100
AcDbText
 10
349.603235
 20
197.65041
 40
2.5
  1
　
  7
STANDARD
100
AcDbText
  0
LINE
  5
15B
100
AcDbEntity
  8
M0
100
AcDbLine
 10
350.853236
 20
204.42032
 11
350.853236
 21
202.764181
  0
LINE
  5
15C
100
AcDbEntity
  8
M0
100
AcDbLine
 10
350.853236
 20
200.212769
 11
350.853236
 21
198.712769
  0
LINE
  5
15D
100
AcDbEntity
  8
M0
100
AcDbLine
 10
304.466371
 20
218.95201
 11
304.583278
 21
218.95201
  0
LINE
  5
15E
100
AcDbEntity
  8
M0
100
AcDbLine
 10
297.056168
 20
218.95201
 11
302.466371
 21
218.95201
  0
LINE
  5
15F
100
AcDbEntity
  8
M0
100
AcDbLine
 10
307.572346
 20
209.576115
 11
324.213389
 21
209.576115
  0
LINE
  5
160
100
AcDbEntity
  8
M0
100
AcDbLine
 10
352.298527
 20
197.80424
 11
352.298527
 21
211.30424
  0
LINE
  5
161
100
AcDbEntity
  8
M0
100
AcDbLine
 10
346.598527
 20
197.80424
 11
352.298527
 21
197.80424
  0
LINE
  5
162
100
AcDbEntity
  8
M0
100
AcDbLine
 10
346.598527
 20
211.30424
 11
346.598527
 21
197.80424
  0
LINE
  5
163
100
AcDbEntity
  8
M0
100
AcDbLine
 10
346.598527
 20
211.30424
 11
352.298527
 21
211.30424
  0
TEXT
  5
164
100
AcDbEntity
  8
M0
100
AcDbText
 10
326.440195
 20
212.916695
 40
2.0
  1
ムラサキ
 41
0.708333
  7
STANDARD
100
AcDbText
  0
TEXT
  5
165
100
AcDbEntity
  8
M0
100
AcDbText
 10
335.740195
 20
212.916695
 40
2.0
  1
キイロ
 41
0.708333
  7
STANDARD
100
AcDbText
  0
TEXT
  5
166
100
AcDbEntity
  8
M0
100
AcDbText
 10
338.93108
 20
202.347891
 40
2.0
  1
ク
 41
0.833333
  7
STANDARD
100
AcDbText
  0
TEXT
  5
167
100
AcDbEntity
  8
M0
100
AcDbText
 10
338.93108
 20
200.347891
 40
2.0
  1
ロ
 41
0.833333
  7
STANDARD
100
AcDbText
  0
TEXT
  5
168
100
AcDbEntity
  8
M0
100
AcDbText
 10
336.783219
 20
202.347891
 40
2.0
  1
キ
 41
0.833333
  7
STANDARD
100
AcDbText
  0
TEXT
  5
169
100
AcDbEntity
  8
M0
100
AcDbText
 10
336.783219
 20
200.347891
 40
2.0
  1
イ
 41
0.833333
  7
STANDARD
100
AcDbText
  0
TEXT
  5
16A
100
AcDbEntity
  8
M0
100
AcDbText
 10
336.783219
 20
198.347891
 40
2.0
  1
ロ
 41
0.833333
  7
STANDARD
100
AcDbText
  0
LINE
  5
16B
100
AcDbEntity
  8
M0
100
AcDbLine
 10
308.311661
 20
245.965523
 11
298.311661
 21
245.965523
  0
LINE
  5
16C
100
AcDbEntity
  8
M0
100
AcDbLine
 10
298.311661
 20
245.965523
 11
298.311661
 21
241.965523
  0
TEXT
  5
16D
100
AcDbEntity
  8
M0
100
AcDbText
 10
299.061659
 20
242.613088
 40
3.0
  1
電　源
 41
0.833333
  7
STANDARD
100
AcDbText
  0
LINE
  5
16E
100
AcDbEntity
  8
M0
100
AcDbLine
 10
308.311661
 20
241.965523
 11
308.311661
 21
245.965523
  0
LINE
  5
16F
100
AcDbEntity
  8
M0
100
AcDbLine
 10
298.311661
 20
241.965523
 11
308.311661
 21
241.965523
  0
TEXT
  5
170
100
AcDbEntity
  8
M0
100
AcDbText
 10
296.560063
 20
239.664728
 40
2.0
  1
シ
 41
0.833333
  7
STANDARD
100
AcDbText
  0
TEXT
  5
171
100
AcDbEntity
  8
M0
100
AcDbText
 10
296.560063
 20
237.664728
 40
2.0
  1
ロ
 41
0.833333
  7
STANDARD
100
AcDbText
  0
TEXT
  5
172
100
AcDbEntity
  8
M0
100
AcDbText
 10
304.775971
 20
239.664728
 40
2.0
  1
ク
 41
0.833333
  7
STANDARD
100
AcDbText
  0
TEXT
  5
173
100
AcDbEntity
  8
M0
100
AcDbText
 10
304.775971
 20
237.664728
 40
2.0
  1
ロ
 41
0.833333
  7
STANDARD
100
AcDbText
  0
TEXT
  5
174
100
AcDbEntity
  8
M0
100
AcDbText
 10
293.546551
 20
213.402621
 40
2.0
  1
シ
 41
0.833333
  7
STANDARD
100
AcDbText
  0
TEXT
  5
175
100
AcDbEntity
  8
M0
100
AcDbText
 10
293.546551
 20
211.402621
 40
2.0
  1
ロ
 41
0.833333
  7
STANDARD
100
AcDbText
  0
LINE
  5
176
100
AcDbEntity
  8
M0
100
AcDbLine
 10
319.456168
 20
230.412587
 11
319.456168
 21
228.912587
  0
LINE
  5
177
100
AcDbEntity
  8
M0
100
AcDbLine
 10
319.374583
 20
236.407657
 11
319.374583
 21
233.579253
  0
ARC
  5
178
100
AcDbEntity
  8
M0
100
AcDbCircle
 10
319.374583
 20
237.407657
 40
1.0
100
AcDbArc
 50
270.0
 51
450.0
  0
LINE
  5
179
100
AcDbEntity
  8
M0
100
AcDbLine
 10
319.374583
 20
239.907657
 11
319.374583
 21
238.407657
  0
LINE
  5
17A
100
AcDbEntity
  8
M0
100
AcDbLine
 10
307.572346
 20
198.316698
 11
307.572346
 21
209.576115
  0
LINE
  5
17B
100
AcDbEntity
  8
M0
100
AcDbLine
 10
305.572346
 20
212.576115
 11
305.572346
 21
200.316698
  0
LINE
  5
17C
100
AcDbEntity
  8
M0
100
AcDbLine
 10
312.649794
 20
111.391339
 11
318.649794
 21
111.391339
  0
LINE
  5
17D
100
AcDbEntity
  8
M0
100
AcDbLine
 10
323.649794
 20
108.891339
 11
310.649794
 21
108.891339
  0
LINE
  5
17E
100
AcDbEntity
  8
M0
100
AcDbLine
 10
323.649794
 20
108.891339
 11
323.649794
 21
111.391339
  0
LINE
  5
17F
100
AcDbEntity
  8
M0
100
AcDbLine
 10
323.649794
 20
111.391339
 11
326.649794
 21
111.391339
  0
LINE
  5
180
100
AcDbEntity
  8
M0
100
AcDbLine
 10
325.899794
 20
104.391339
 11
325.899794
 21
103.891339
  0
LINE
  5
181
100
AcDbEntity
  8
M0
100
AcDbLine
 10
325.899794
 20
104.391339
 11
335.668467
 21
104.391339
  0
LINE
  5
182
100
AcDbEntity
  8
M0
100
AcDbLine
 10
324.899794
 20
106.641339
 11
324.899794
 21
104.941339
  0
LINE
  5
183
100
AcDbEntity
  8
M0
100
AcDbLine
 10
326.649794
 20
110.391339
 11
324.649794
 21
110.391339
  0
LINE
  5
184
100
AcDbEntity
  8
M0
100
AcDbLine
 10
324.649794
 20
110.391339
 11
324.649794
 21
107.891339
  0
LINE
  5
185
100
AcDbEntity
  8
M0
100
AcDbLine
 10
324.649794
 20
107.891339
 11
304.016113
 21
107.891339
  0
LINE
  5
186
100
AcDbEntity
  8
M0
100
AcDbLine
 10
318.649794
 20
110.141339
 11
311.649794
 21
110.141339
  0
LINE
  5
187
100
AcDbEntity
  8
M0
100
AcDbLine
 10
309.649794
 20
110.141339
 11
305.016113
 21
110.141339
  0
LINE
  5
188
100
AcDbEntity
  8
M0
100
AcDbLine
 10
304.016113
 20
128.141339
 11
304.016113
 21
107.891339
  0
ARC
  5
189
100
AcDbEntity
  8
M0
100
AcDbCircle
 10
304.016113
 20
110.141339
 40
1.0
100
AcDbArc
 50
0.0
 51
180.0
  0
ARC
  5
18A
100
AcDbEntity
  8
M0
100
AcDbCircle
 10
310.649794
 20
110.141339
 40
1.0
100
AcDbArc
 50
0.0
 51
180.0
  0
LINE
  5
18B
100
AcDbEntity
  8
M0
100
AcDbLine
 10
303.016113
 20
110.141339
 11
301.516113
 21
110.141339
  0
LINE
  5
18C
100
AcDbEntity
  8
M0
100
AcDbLine
 10
299.516113
 20
110.141339
 11
295.573753
 21
110.141339
  0
LINE
  5
18D
100
AcDbEntity
  8
M0
100
AcDbLine
 10
324.649794
 20
96.741339
 11
300.516113
 21
96.741339
  0
LINE
  5
18E
100
AcDbEntity
  8
M0
100
AcDbLine
 10
353.114461
 20
131.641339
 11
353.114461
 21
128.564253
  0
LINE
  5
18F
100
AcDbEntity
  8
M0
100
AcDbLine
 10
365.673753
 20
112.408126
 11
365.673753
 21
97.141339
  0
LINE
  5
190
100
AcDbEntity
  8
M0
100
AcDbLine
 10
360.173753
 20
112.408126
 11
360.173753
 21
95.941339
  0
LINE
  5
191
100
AcDbEntity
  8
M0
100
AcDbLine
 10
356.214461
 20
104.391339
 11
356.214461
 21
112.408126
  0
ARC
  5
192
100
AcDbEntity
  8
M0
100
AcDbCircle
 10
300.516113
 20
104.941339
 40
1.0
100
AcDbArc
 50
0.0
 51
180.0
  0
LINE
  5
193
100
AcDbEntity
  8
M0
100
AcDbLine
 10
270.573753
 20
139.911143
 11
270.573753
 21
97.091339
  0
LINE
  5
194
100
AcDbEntity
  8
M0
100
AcDbLine
 10
274.773753
 20
123.141339
 11
274.773753
 21
139.911143
  0
LINE
  5
195
100
AcDbEntity
  8
M0
100
AcDbLine
 10
291.373753
 20
132.641339
 11
291.373753
 21
123.141339
  0
LINE
  5
196
100
AcDbEntity
  8
M0
100
AcDbLine
 10
274.773753
 20
123.141339
 11
279.473753
 21
123.141339
  0
LINE
  5
197
100
AcDbEntity
  8
M0
100
AcDbLine
 10
282.473753
 20
123.141339
 11
285.273753
 21
123.141339
  0
LINE
  5
198
100
AcDbEntity
  8
M0
100
AcDbLine
 10
288.273753
 20
123.141339
 11
291.373753
 21
123.141339
  0
ARC
  5
199
100
AcDbEntity
  8
M0
100
AcDbCircle
 10
280.973753
 20
123.141339
 40
1.5
100
AcDbArc
 50
0.0
 51
180.0
  0
ARC
  5
19A
100
AcDbEntity
  8
M0
100
AcDbCircle
 10
286.773753
 20
123.141339
 40
1.5
100
AcDbArc
 50
0.0
 51
180.0
  0
TEXT
  5
19B
100
AcDbEntity
  8
M0
100
AcDbText
 10
266.670424
 20
93.660977
 40
3.0
  1
雑防
 41
0.833333
  7
STANDARD
100
AcDbText
  0
TEXT
  5
19C
100
AcDbEntity
  8
M0
100
AcDbText
 10
266.670424
 20
90.660978
 40
3.0
  1
コンデンサー
 41
0.833333
  7
STANDARD
100
AcDbText
  0
LINE
  5
19D
100
AcDbEntity
  8
M0
100
AcDbLine
 10
265.920424
 20
90.091339
 11
265.920424
 21
97.091339
  0
LINE
  5
19E
100
AcDbEntity
  8
M0
100
AcDbLine
 10
265.920424
 20
97.091339
 11
284.420424
 21
97.091339
  0
LINE
  5
19F
100
AcDbEntity
  8
M0
100
AcDbLine
 10
265.920424
 20
90.091339
 11
284.420424
 21
90.091339
  0
LINE
  5
1A0
100
AcDbEntity
  8
M0
100
AcDbLine
 10
284.420424
 20
90.091339
 11
284.420424
 21
97.091339
  0
LINE
  5
1A1
100
AcDbEntity
  8
M0
100
AcDbLine
 10
286.773753
 20
135.641339
 11
286.773753
 21
104.941339
  0
LINE
  5
1A2
100
AcDbEntity
  8
M0
100
AcDbLine
 10
295.573753
 20
110.141339
 11
295.573753
 21
132.641339
  0
LINE
  5
1A3
100
AcDbEntity
  8
M0
100
AcDbLine
 10
274.873753
 20
159.141339
 11
274.873753
 21
147.07781
  0
LINE
  5
1A4
100
AcDbEntity
  8
M0
100
AcDbLine
 10
270.473753
 20
165.641339
 11
270.473753
 21
147.07781
  0
LINE
  5
1A5
100
AcDbEntity
  8
M0
100
AcDbLine
 10
284.773753
 20
139.911143
 11
284.773753
 21
136.641339
  0
LINE
  5
1A6
100
AcDbEntity
  8
M0
100
AcDbLine
 10
286.773753
 20
143.57781
 11
286.773753
 21
137.641339
  0
LINE
  5
1A7
100
AcDbEntity
  8
M0
100
AcDbLine
 10
288.773753
 20
147.463305
 11
288.773753
 21
137.641339
  0
LINE
  5
1A8
100
AcDbEntity
  8
M0
100
AcDbLine
 10
291.373753
 20
139.911143
 11
291.373753
 21
137.641339
  0
LINE
  5
1A9
100
AcDbEntity
  8
M0
100
AcDbLine
 10
295.573753
 20
137.641339
 11
295.573753
 21
139.911143
  0
LINE
  5
1AA
100
AcDbEntity
  8
M0
100
AcDbLine
 10
297.873753
 20
143.57781
 11
297.873753
 21
137.641339
  0
LINE
  5
1AB
100
AcDbEntity
  8
M0
100
AcDbLine
 10
299.473753
 20
143.411143
 11
299.473753
 21
162.641339
  0
LINE
  5
1AC
100
AcDbEntity
  8
M0
100
AcDbLine
 10
301.773753
 20
156.141339
 11
301.773753
 21
147.07781
  0
LINE
  5
1AD
100
AcDbEntity
  8
M0
100
AcDbLine
 10
305.973753
 20
151.641339
 11
305.973753
 21
147.07781
  0
LINE
  5
1AE
100
AcDbEntity
  8
M0
100
AcDbLine
 10
280.973753
 20
97.091339
 11
280.973753
 21
139.911143
  0
ARC
  5
1AF
100
AcDbEntity
  8
M0
100
AcDbCircle
 10
311.016113
 20
143.141339
 40
1.0
100
AcDbArc
 50
0.0
 51
180.0
  0
LINE
  5
1B0
100
AcDbEntity
  8
M0
100
AcDbLine
 10
300.516113
 20
129.641339
 11
311.016113
 21
129.641339
  0
LINE
  5
1B1
100
AcDbEntity
  8
M0
100
AcDbLine
 10
297.873753
 20
131.641339
 11
353.114461
 21
131.641339
  0
ARC
  5
1B2
100
AcDbEntity
  8
M0
100
AcDbCircle
 10
309.016113
 20
136.641339
 40
1.0
100
AcDbArc
 50
90.0
 51
270.0
  0
ARC
  5
1B3
100
AcDbEntity
  8
M0
100
AcDbCircle
 10
311.016113
 20
136.641339
 40
1.0
100
AcDbArc
 50
90.0
 51
270.0
  0
ARC
  5
1B4
100
AcDbEntity
  8
M0
100
AcDbCircle
 10
314.016113
 20
136.641339
 40
1.0
100
AcDbArc
 50
90.0
 51
270.0
  0
ARC
  5
1B5
100
AcDbEntity
  8
M0
100
AcDbCircle
 10
314.016113
 20
131.641339
 40
1.0
100
AcDbArc
 50
90.0
 51
270.0
  0
ARC
  5
1B6
100
AcDbEntity
  8
M0
100
AcDbCircle
 10
311.016113
 20
131.641339
 40
1.0
100
AcDbArc
 50
90.0
 51
270.0
  0
TEXT
  5
1B7
100
AcDbEntity
  8
M0
100
AcDbText
 10
366.567746
 20
136.64134
 40
2.0
  1
シロ
 41
0.833333
  7
STANDARD
100
AcDbText
  0
TEXT
  5
1B8
100
AcDbEntity
  8
M0
100
AcDbText
 10
366.567746
 20
132.370535
 40
2.0
  1
アカ
 41
0.833333
  7
STANDARD
100
AcDbText
  0
LINE
  5
1B9
100
AcDbEntity
  8
M0
100
AcDbLine
 10
370.973753
 20
137.641339
 11
370.973753
 21
133.641339
  0
LINE
  5
1BA
100
AcDbEntity
  8
M0
100
AcDbLine
 10
370.973753
 20
137.641339
 11
399.973753
 21
137.641339
  0
TEXT
  5
1BB
100
AcDbEntity
  8
M0
100
AcDbText
 10
375.339465
 20
134.531988
 40
3.0
  1
圧力スイッチ
 41
0.833333
  7
STANDARD
100
AcDbText
  0
LINE
  5
1BC
100
AcDbEntity
  8
M0
100
AcDbLine
 10
370.973753
 20
133.641339
 11
399.973753
 21
133.641339
  0
LINE
  5
1BD
100
AcDbEntity
  8
M0
100
AcDbLine
 10
399.973753
 20
137.641339
 11
399.973753
 21
133.641339
  0
LINE
  5
1BE
100
AcDbEntity
  8
M0
100
AcDbLine
 10
399.973753
 20
155.641339
 11
399.973753
 21
159.641339
  0
LINE
  5
1BF
100
AcDbEntity
  8
M0
100
AcDbLine
 10
308.016113
 20
136.641339
 11
370.973753
 21
136.641339
  0
LINE
  5
1C0
100
AcDbEntity
  8
M0
100
AcDbLine
 10
309.016113
 20
133.641339
 11
288.773753
 21
133.641339
  0
ARC
  5
1C1
100
AcDbEntity
  8
M0
100
AcDbCircle
 10
297.873753
 20
136.641339
 40
1.0
100
AcDbArc
 50
90.0
 51
270.0
  0
ARC
  5
1C2
100
AcDbEntity
  8
M0
100
AcDbCircle
 10
297.873753
 20
133.641339
 40
1.0
100
AcDbArc
 50
90.0
 51
270.0
  0
LINE
  5
1C3
100
AcDbEntity
  8
M0
100
AcDbLine
 10
297.873753
 20
135.641339
 11
297.873753
 21
134.641339
  0
ARC
  5
1C4
100
AcDbEntity
  8
M0
100
AcDbCircle
 10
295.573753
 20
133.641339
 40
1.0
100
AcDbArc
 50
90.0
 51
270.0
  0
LINE
  5
1C5
100
AcDbEntity
  8
M0
100
AcDbLine
 10
295.573753
 20
134.641339
 11
295.573753
 21
135.641339
  0
ARC
  5
1C6
100
AcDbEntity
  8
M0
100
AcDbCircle
 10
295.573753
 20
136.641339
 40
1.0
100
AcDbArc
 50
90.0
 51
270.0
  0
ARC
  5
1C7
100
AcDbEntity
  8
M0
100
AcDbCircle
 10
291.373753
 20
136.641339
 40
1.0
100
AcDbArc
 50
90.0
 51
270.0
  0
LINE
  5
1C8
100
AcDbEntity
  8
M0
100
AcDbLine
 10
291.373753
 20
135.641339
 11
291.373753
 21
134.641339
  0
ARC
  5
1C9
100
AcDbEntity
  8
M0
100
AcDbCircle
 10
291.373753
 20
133.641339
 40
1.0
100
AcDbArc
 50
90.0
 51
270.0
  0
LINE
  5
1CA
100
AcDbEntity
  8
M0
100
AcDbLine
 10
288.773753
 20
135.641339
 11
288.773753
 21
133.641339
  0
ARC
  5
1CB
100
AcDbEntity
  8
M0
100
AcDbCircle
 10
288.773753
 20
136.641339
 40
1.0
100
AcDbArc
 50
90.0
 51
270.0
  0
ARC
  5
1CC
100
AcDbEntity
  8
M0
100
AcDbCircle
 10
286.773753
 20
136.641339
 40
1.0
100
AcDbArc
 50
90.0
 51
270.0
  0
LINE
  5
1CD
100
AcDbEntity
  8
M0
100
AcDbLine
 10
284.773753
 20
136.641339
 11
308.016113
 21
136.641339
  0
LINE
  5
1CE
100
AcDbEntity
  8
M0
100
AcDbLine
 10
297.873753
 20
132.641339
 11
297.873753
 21
131.641339
  0
LINE
  5
1CF
100
AcDbEntity
  8
M0
100
AcDbLine
 10
309.016113
 20
143.141339
 11
309.016113
 21
137.641339
  0
LINE
  5
1D0
100
AcDbEntity
  8
M0
100
AcDbLine
 10
309.016113
 20
135.641339
 11
309.016113
 21
133.641339
  0
TEXT
  5
1D1
100
AcDbEntity
  8
M0
100
AcDbText
 10
374.686343
 20
140.64134
 40
3.0
  1
フロースイッチ
 41
0.833333
  7
STANDARD
100
AcDbText
  0
LINE
  5
1D2
100
AcDbEntity
  8
M0
100
AcDbLine
 10
370.973753
 20
144.141339
 11
399.973753
 21
144.141339
  0
LINE
  5
1D3
100
AcDbEntity
  8
M0
100
AcDbLine
 10
370.973753
 20
144.141339
 11
370.973753
 21
140.141339
  0
LINE
  5
1D4
100
AcDbEntity
  8
M0
100
AcDbLine
 10
370.973753
 20
140.141339
 11
399.973753
 21
140.141339
  0
LINE
  5
1D5
100
AcDbEntity
  8
M0
100
AcDbLine
 10
399.973753
 20
144.141339
 11
399.973753
 21
140.141339
  0
TEXT
  5
1D6
100
AcDbEntity
  8
M0
100
AcDbText
 10
366.567746
 20
143.501402
 40
2.0
  1
シロ
 41
0.833333
  7
STANDARD
100
AcDbText
  0
TEXT
  5
1D7
100
AcDbEntity
  8
M0
100
AcDbText
 10
366.567746
 20
139.230596
 40
2.0
  1
ハイ
 41
0.833333
  7
STANDARD
100
AcDbText
  0
LINE
  5
1D8
100
AcDbEntity
  8
M0
100
AcDbLine
 10
314.016113
 20
141.141339
 11
370.973753
 21
141.141339
  0
LINE
  5
1D9
100
AcDbEntity
  8
M0
100
AcDbLine
 10
309.016113
 20
143.141339
 11
310.016113
 21
143.141339
  0
LINE
  5
1DA
100
AcDbEntity
  8
M0
100
AcDbLine
 10
312.016113
 20
143.141339
 11
370.973753
 21
143.141339
  0
LINE
  5
1DB
100
AcDbEntity
  8
M0
100
AcDbLine
 10
314.016113
 20
141.141339
 11
314.016113
 21
139.496888
  0
LINE
  5
1DC
100
AcDbEntity
  8
M0
100
AcDbLine
 10
315.535383
 20
139.960888
 11
316.591383
 21
139.960888
  0
ARC
  5
1DD
100
AcDbEntity
  8
M0
100
AcDbCircle
 10
318.439383
 20
138.904888
 40
0.792
100
AcDbArc
 50
0.0
 51
90.0
  0
LINE
  5
1DE
100
AcDbEntity
  8
M0
100
AcDbLine
 10
318.439383
 20
138.112888
 11
317.119383
 21
138.112888
  0
LINE
  5
1DF
100
AcDbEntity
  8
M0
100
AcDbLine
 10
316.591383
 20
137.848888
 11
315.535383
 21
137.848888
  0
LINE
  5
1E0
100
AcDbEntity
  8
M0
100
AcDbLine
 10
315.535383
 20
137.848888
 11
315.535383
 21
139.960888
  0
TEXT
  5
1E1
100
AcDbEntity
  8
M0
100
AcDbText
 10
319.761219
 20
137.801351
 40
2.5
  1
コネクタ－
 41
0.842133
  7
STANDARD
100
AcDbText
  0
LINE
  5
1E2
100
AcDbEntity
  8
M0
100
AcDbLine
 10
318.439383
 20
139.696888
 11
317.119383
 21
139.696888
  0
LINE
  5
1E3
100
AcDbEntity
  8
M0
100
AcDbLine
 10
316.591383
 20
139.960888
 11
317.119383
 21
139.696888
  0
ARC
  5
1E4
100
AcDbEntity
  8
M0
100
AcDbCircle
 10
318.439383
 20
138.904888
 40
0.792
100
AcDbArc
 50
-90.0
 51
0.0
  0
LINE
  5
1E5
100
AcDbEntity
  8
M0
100
AcDbLine
 10
317.119383
 20
138.112888
 11
316.591383
 21
137.848888
  0
LINE
  5
1E6
100
AcDbEntity
  8
M0
100
AcDbLine
 10
314.016113
 20
139.496888
 11
315.535383
 21
139.496888
  0
LINE
  5
1E7
100
AcDbEntity
  8
M0
100
AcDbLine
 10
315.535383
 20
138.312888
 11
314.016113
 21
138.312888
  0
LINE
  5
1E8
100
AcDbEntity
  8
M0
100
AcDbLine
 10
311.016113
 20
137.641339
 11
311.016113
 21
148.641339
  0
LINE
  5
1E9
100
AcDbEntity
  8
M0
100
AcDbLine
 10
311.016113
 20
129.641339
 11
311.016113
 21
130.641339
  0
LINE
  5
1EA
100
AcDbEntity
  8
M0
100
AcDbLine
 10
314.016113
 20
128.141339
 11
304.016113
 21
128.141339
  0
LINE
  5
1EB
100
AcDbEntity
  8
M0
100
AcDbLine
 10
348.114461
 20
134.641339
 11
370.973753
 21
134.641339
  0
LINE
  5
1EC
100
AcDbEntity
  8
M0
100
AcDbLine
 10
311.016113
 20
132.641339
 11
311.016113
 21
135.641339
  0
LINE
  5
1ED
100
AcDbEntity
  8
M0
100
AcDbLine
 10
314.016113
 20
130.641339
 11
314.016113
 21
128.141339
  0
LINE
  5
1EE
100
AcDbEntity
  8
M0
100
AcDbLine
 10
314.016113
 20
138.312888
 11
314.016113
 21
137.641339
  0
LINE
  5
1EF
100
AcDbEntity
  8
M0
100
AcDbLine
 10
314.016113
 20
135.641339
 11
314.016113
 21
132.641339
  0
TEXT
  5
1F0
100
AcDbEntity
  8
M0
100
AcDbText
 10
373.712514
 20
149.866201
 40
3.0
  1
自動凍結防止用
 41
0.888889
  7
STANDARD
100
AcDbText
  0
TEXT
  5
1F1
100
AcDbEntity
  8
M0
100
AcDbText
 10
373.712514
 20
146.6662
 40
3.0
  1
　　温度リレー
 41
0.888889
  7
STANDARD
100
AcDbText
  0
LINE
  5
1F2
100
AcDbEntity
  8
M0
100
AcDbLine
 10
370.973753
 20
153.141339
 11
399.973753
 21
153.141339
  0
LINE
  5
1F3
100
AcDbEntity
  8
M0
100
AcDbLine
 10
370.973753
 20
153.141339
 11
370.973753
 21
146.641339
  0
LINE
  5
1F4
100
AcDbEntity
  8
M0
100
AcDbLine
 10
370.973753
 20
146.641339
 11
399.973753
 21
146.641339
  0
LINE
  5
1F5
100
AcDbEntity
  8
M0
100
AcDbLine
 10
399.973753
 20
153.141339
 11
399.973753
 21
146.641339
  0
TEXT
  5
1F6
100
AcDbEntity
  8
M0
100
AcDbText
 10
366.567746
 20
151.64134
 40
2.0
  1
クロ
 41
0.833333
  7
STANDARD
100
AcDbText
  0
TEXT
  5
1F7
100
AcDbEntity
  8
M0
100
AcDbText
 10
366.567746
 20
146.5389
 40
2.0
  1
クロ
 41
0.833333
  7
STANDARD
100
AcDbText
  0
LINE
  5
1F8
100
AcDbEntity
  8
M0
100
AcDbLine
 10
370.973753
 20
151.641339
 11
305.973753
 21
151.641339
  0
LINE
  5
1F9
100
AcDbEntity
  8
M0
100
AcDbLine
 10
311.016113
 20
148.641339
 11
370.973753
 21
148.641339
  0
LINE
  5
1FA
100
AcDbEntity
  8
M0
100
AcDbLine
 10
370.973753
 20
159.641339
 11
399.973753
 21
159.641339
  0
LINE
  5
1FB
100
AcDbEntity
  8
M0
100
AcDbLine
 10
399.973753
 20
155.641339
 11
370.973753
 21
155.641339
  0
LINE
  5
1FC
100
AcDbEntity
  8
M0
100
AcDbLine
 10
370.973753
 20
159.641339
 11
370.973753
 21
155.641339
  0
LINE
  5
1FD
100
AcDbEntity
  8
M0
100
AcDbLine
 10
370.973753
 20
159.141339
 11
300.973753
 21
159.141339
  0
TEXT
  5
1FE
100
AcDbEntity
  8
M0
100
AcDbText
 10
366.800984
 20
159.14134
 40
2.0
  1
クロ
 41
0.833333
  7
STANDARD
100
AcDbText
  0
TEXT
  5
1FF
100
AcDbEntity
  8
M0
100
AcDbText
 10
366.800984
 20
153.927839
 40
2.0
  1
クロ
 41
0.833333
  7
STANDARD
100
AcDbText
  0
ARC
  5
200
100
AcDbEntity
  8
M0
100
AcDbCircle
 10
299.473753
 20
159.141339
 40
1.5
100
AcDbArc
 50
0.0
 51
180.0
  0
LINE
  5
201
100
AcDbEntity
  8
M0
100
AcDbLine
 10
297.973753
 20
159.141339
 11
274.873753
 21
159.141339
  0
LINE
  5
202
100
AcDbEntity
  8
M0
100
AcDbLine
 10
370.973753
 20
156.141339
 11
301.773753
 21
156.141339
  0
LINE
  5
203
100
AcDbEntity
  8
M0
100
AcDbLine
 10
370.973753
 20
166.141339
 11
399.973753
 21
166.141339
  0
LINE
  5
204
100
AcDbEntity
  8
M0
100
AcDbLine
 10
399.973753
 20
162.141339
 11
370.973753
 21
162.141339
  0
LINE
  5
205
100
AcDbEntity
  8
M0
100
AcDbLine
 10
399.973753
 20
162.141339
 11
399.973753
 21
166.141339
  0
LINE
  5
206
100
AcDbEntity
  8
M0
100
AcDbLine
 10
370.973753
 20
166.141339
 11
370.973753
 21
162.141339
  0
TEXT
  5
207
100
AcDbEntity
  8
M0
100
AcDbText
 10
366.859288
 20
165.64134
 40
2.0
  1
クロ
 41
0.833333
  7
STANDARD
100
AcDbText
  0
LINE
  5
208
100
AcDbEntity
  8
M0
100
AcDbLine
 10
370.973753
 20
165.641339
 11
270.473753
 21
165.641339
  0
TEXT
  5
209
100
AcDbEntity
  8
M0
100
AcDbText
 10
310.399795
 20
123.396681
 40
3.0
  1
雑防
 41
0.833333
  7
STANDARD
100
AcDbText
  0
TEXT
  5
20A
100
AcDbEntity
  8
M0
100
AcDbText
 10
310.399794
 20
120.396681
 40
3.0
  1
コンデンサー
 41
0.833333
  7
STANDARD
100
AcDbText
  0
TEXT
  5
20B
100
AcDbEntity
  8
M0
100
AcDbText
 10
372.223757
 20
162.687376
 40
3.0
  1
凍結防止用ヒーター
 41
0.833333
  7
STANDARD
100
AcDbText
  0
TEXT
  5
20C
100
AcDbEntity
  8
M0
100
AcDbText
 10
372.382937
 20
156.187376
 40
3.0
  1
凍結防止用ヒーター
 41
0.833333
  7
STANDARD
100
AcDbText
  0
LINE
  5
20D
100
AcDbEntity
  8
M0
100
AcDbLine
 10
309.649794
 20
119.827043
 11
309.649794
 21
126.827043
  0
LINE
  5
20E
100
AcDbEntity
  8
M0
100
AcDbLine
 10
309.649794
 20
126.827043
 11
328.149794
 21
126.827043
  0
LINE
  5
20F
100
AcDbEntity
  8
M0
100
AcDbLine
 10
309.649794
 20
119.827043
 11
328.149794
 21
119.827043
  0
LINE
  5
210
100
AcDbEntity
  8
M0
100
AcDbLine
 10
328.149794
 20
119.827043
 11
328.149794
 21
126.827043
  0
LINE
  5
211
100
AcDbEntity
  8
M0
100
AcDbLine
 10
330.899794
 20
117.141339
 11
315.149794
 21
117.141339
  0
LINE
  5
212
100
AcDbEntity
  8
M0
100
AcDbLine
 10
315.149794
 20
117.141339
 11
315.149794
 21
113.141339
  0
TEXT
  5
213
100
AcDbEntity
  8
M0
100
AcDbText
 10
316.007535
 20
113.141336
 40
3.0
  1
パワ－リレ－
 50
-2.504478E-006
 41
0.694444
  7
STANDARD
100
AcDbText
  0
LINE
  5
214
100
AcDbEntity
  8
M0
100
AcDbLine
 10
330.899794
 20
117.141339
 11
330.899794
 21
113.141339
  0
LINE
  5
215
100
AcDbEntity
  8
M0
100
AcDbLine
 10
315.149794
 20
113.141339
 11
330.899794
 21
113.141339
  0
LINE
  5
216
100
AcDbEntity
  8
M0
100
AcDbLine
 10
328.899794
 20
98.241339
 11
328.899794
 21
113.141339
  0
LINE
  5
217
100
AcDbEntity
  8
M0
100
AcDbLine
 10
317.149794
 20
113.141339
 11
317.149794
 21
98.241339
  0
LINE
  5
218
100
AcDbEntity
  8
M0
100
AcDbLine
 10
317.149794
 20
98.241339
 11
328.899794
 21
98.241339
  0
TEXT
  5
219
100
AcDbEntity
  8
M0
100
AcDbText
 10
313.264635
 20
115.704702
 40
2.0
  1
ク
 41
0.833333
  7
STANDARD
100
AcDbText
  0
TEXT
  5
21A
100
AcDbEntity
  8
M0
100
AcDbText
 10
313.264635
 20
113.704702
 40
2.0
  1
ロ
 41
0.833333
  7
STANDARD
100
AcDbText
  0
TEXT
  5
21B
100
AcDbEntity
  8
M0
100
AcDbText
 10
308.936834
 20
115.704702
 40
2.0
  1
シ
 41
0.833333
  7
STANDARD
100
AcDbText
  0
TEXT
  5
21C
100
AcDbEntity
  8
M0
100
AcDbText
 10
308.936834
 20
113.704702
 40
2.0
  1
ロ
 41
0.833333
  7
STANDARD
100
AcDbText
  0
LINE
  5
21D
100
AcDbEntity
  8
M0
100
AcDbLine
 10
312.649794
 20
119.827043
 11
312.649794
 21
111.391339
  0
LINE
  5
21E
100
AcDbEntity
  8
M0
100
AcDbLine
 10
310.649794
 20
119.827043
 11
310.649794
 21
108.891339
  0
LINE
  5
21F
100
AcDbEntity
  8
M0
100
AcDbLine
 10
316.649794
 20
93.541339
 11
316.649794
 21
92.041339
  0
LINE
  5
220
100
AcDbEntity
  8
M0
100
AcDbLine
 10
318.649794
 20
92.341339
 11
318.649794
 21
90.041339
  0
LINE
  5
221
100
AcDbEntity
  8
M0
100
AcDbLine
 10
286.420424
 20
89.291339
 11
286.420424
 21
93.291339
  0
TEXT
  5
222
100
AcDbEntity
  8
M0
100
AcDbText
 10
287.900515
 20
89.899703
 40
3.0
  1
コンデンサー
 50
-6.832453E-007
 41
0.833333
  7
STANDARD
100
AcDbText
  0
LINE
  5
223
100
AcDbEntity
  8
M0
100
AcDbLine
 10
286.420424
 20
93.291339
 11
306.420424
 21
93.291339
  0
LINE
  5
224
100
AcDbEntity
  8
M0
100
AcDbLine
 10
306.420424
 20
93.291339
 11
306.420424
 21
89.291339
  0
LINE
  5
225
100
AcDbEntity
  8
M0
100
AcDbLine
 10
306.420424
 20
91.791339
 11
308.420424
 21
91.791339
  0
LINE
  5
226
100
AcDbEntity
  8
M0
100
AcDbLine
 10
308.420424
 20
92.291339
 11
308.420424
 21
91.791339
  0
LINE
  5
227
100
AcDbEntity
  8
M0
100
AcDbLine
 10
308.420424
 20
92.291339
 11
306.420424
 21
92.291339
  0
LINE
  5
228
100
AcDbEntity
  8
M0
100
AcDbLine
 10
306.420424
 20
90.291339
 11
308.420424
 21
90.291339
  0
LINE
  5
229
100
AcDbEntity
  8
M0
100
AcDbLine
 10
308.420424
 20
90.291339
 11
308.420424
 21
89.791339
  0
LINE
  5
22A
100
AcDbEntity
  8
M0
100
AcDbLine
 10
309.566113
 20
90.687027
 11
308.920424
 21
90.041339
  0
LINE
  5
22B
100
AcDbEntity
  8
M0
100
AcDbLine
 10
309.566113
 20
91.39565
 11
308.920424
 21
92.041339
  0
LINE
  5
22C
100
AcDbEntity
  8
M0
100
AcDbLine
 10
309.566113
 20
92.687027
 11
308.920424
 21
92.041339
  0
LINE
  5
22D
100
AcDbEntity
  8
M0
100
AcDbLine
 10
309.566113
 20
90.687027
 11
309.566113
 21
89.39565
  0
LINE
  5
22E
100
AcDbEntity
  8
M0
100
AcDbLine
 10
309.566113
 20
92.687027
 11
309.566113
 21
91.39565
  0
LINE
  5
22F
100
AcDbEntity
  8
M0
100
AcDbLine
 10
306.420424
 20
90.291339
 11
308.420424
 21
90.291339
  0
LINE
  5
230
100
AcDbEntity
  8
M0
100
AcDbLine
 10
286.420424
 20
89.291339
 11
306.420424
 21
89.291339
  0
LINE
  5
231
100
AcDbEntity
  8
M0
100
AcDbLine
 10
308.420424
 20
89.791339
 11
306.420424
 21
89.791339
  0
LINE
  5
232
100
AcDbEntity
  8
M0
100
AcDbLine
 10
309.566113
 20
89.39565
 11
308.920424
 21
90.041339
  0
LINE
  5
233
100
AcDbEntity
  8
M0
100
AcDbLine
 10
309.566113
 20
90.041339
 11
318.649794
 21
90.041339
  0
LINE
  5
234
100
AcDbEntity
  8
M0
100
AcDbLine
 10
316.649794
 20
92.041339
 11
309.566113
 21
92.041339
  0
LINE
  5
235
100
AcDbEntity
  8
M0
100
AcDbLine
 10
324.649794
 20
100.641339
 11
324.649794
 21
96.741339
  0
ELLIPSE
  5
236
100
AcDbEntity
  8
M0
100
AcDbEllipse
 10
337.168467
 20
120.65442
 11
0.0
 21
3.333333
210
0.0
220
0.0
230
1.0
 40
0.5
 41
0.0
 42
6.283185307179586
  0
LINE
  5
237
100
AcDbEntity
  8
M0
100
AcDbLine
 10
335.638696
 20
119.331424
 11
337.168467
 21
120.861195
  0
LINE
  5
238
100
AcDbEntity
  8
M0
100
AcDbLine
 10
338.698238
 20
119.331424
 11
337.168467
 21
120.861195
  0
TEXT
  5
239
100
AcDbEntity
  8
M0
100
AcDbText
 10
335.095308
 20
114.925824
 40
2.0
  1
コネクタ－
 50
90.000003
 41
0.833333
  7
STANDARD
100
AcDbText
  0
LINE
  5
23A
100
AcDbEntity
  8
M0
100
AcDbLine
 10
337.168467
 20
117.321086
 11
337.168467
 21
94.741339
  0
TEXT
  5
23B
100
AcDbEntity
  8
M0
100
AcDbText
 10
372.667315
 20
93.070003
 40
3.0
  1
モ－タ－
 41
0.833333
  7
STANDARD
100
AcDbText
  0
LINE
  5
23C
100
AcDbEntity
  8
M0
100
AcDbLine
 10
370.973753
 20
97.741339
 11
387.473753
 21
97.741339
  0
LINE
  5
23D
100
AcDbEntity
  8
M0
100
AcDbLine
 10
370.973753
 20
91.241339
 11
370.973753
 21
97.741339
  0
LINE
  5
23E
100
AcDbEntity
  8
M0
100
AcDbLine
 10
387.473753
 20
97.741339
 11
387.473753
 21
91.241339
  0
LINE
  5
23F
100
AcDbEntity
  8
M0
100
AcDbLine
 10
370.973753
 20
91.241339
 11
387.473753
 21
91.241339
  0
TEXT
  5
240
100
AcDbEntity
  8
M0
100
AcDbText
 10
363.249707
 20
101.649274
 40
2.0
  1
キ
 41
0.833333
  7
STANDARD
100
AcDbText
  0
TEXT
  5
241
100
AcDbEntity
  8
M0
100
AcDbText
 10
363.249707
 20
99.649274
 40
2.0
  1
イ
 41
0.833333
  7
STANDARD
100
AcDbText
  0
TEXT
  5
242
100
AcDbEntity
  8
M0
100
AcDbText
 10
363.249707
 20
97.649274
 40
2.0
  1
ロ
 41
0.833333
  7
STANDARD
100
AcDbText
  0
TEXT
  5
243
100
AcDbEntity
  8
M0
100
AcDbText
 10
358.505368
 20
101.649274
 40
2.0
  1
ク
 41
0.833333
  7
STANDARD
100
AcDbText
  0
TEXT
  5
244
100
AcDbEntity
  8
M0
100
AcDbText
 10
358.505368
 20
99.649274
 40
2.0
  1
ロ
 41
0.833333
  7
STANDARD
100
AcDbText
  0
TEXT
  5
245
100
AcDbEntity
  8
M0
100
AcDbText
 10
355.462438
 20
94.741338
 40
2.0
  1
アオ
 41
0.833333
  7
STANDARD
100
AcDbText
  0
LINE
  5
246
100
AcDbEntity
  8
M0
100
AcDbLine
 10
370.973753
 20
94.741339
 11
337.168467
 21
94.741339
  0
LINE
  5
247
100
AcDbEntity
  8
M0
100
AcDbLine
 10
370.973753
 20
92.341339
 11
318.649794
 21
92.341339
  0
LINE
  5
248
100
AcDbEntity
  8
M0
100
AcDbLine
 10
370.973753
 20
93.541339
 11
316.649794
 21
93.541339
  0
LINE
  5
249
100
AcDbEntity
  8
M0
100
AcDbLine
 10
370.973753
 20
162.641339
 11
299.473753
 21
162.641339
  0
TEXT
  5
24A
100
AcDbEntity
  8
M0
100
AcDbText
 10
366.859288
 20
160.815977
 40
2.0
  1
クロ
 41
0.833333
  7
STANDARD
100
AcDbText
  0
LINE
  5
24B
100
AcDbEntity
  8
M0
100
AcDbLine
 10
269.973753
 20
147.07781
 11
269.973753
 21
144.57781
  0
LINE
  5
24C
100
AcDbEntity
  8
M0
100
AcDbLine
 10
271.173753
 20
145.57781
 11
271.173753
 21
149.244477
  0
LINE
  5
24D
100
AcDbEntity
  8
M0
100
AcDbLine
 10
271.173753
 20
145.57781
 11
271.173753
 21
139.911143
  0
LINE
  5
24E
100
AcDbEntity
  8
M0
100
AcDbLine
 10
269.915866
 20
144.57781
 11
271.173753
 21
144.57781
  0
LINE
  5
24F
100
AcDbEntity
  8
M0
100
AcDbLine
 10
269.973753
 20
142.411143
 11
269.973753
 21
139.911143
  0
LINE
  5
250
100
AcDbEntity
  8
M0
100
AcDbLine
 10
269.973753
 20
142.411143
 11
271.173753
 21
142.411143
  0
CIRCLE
  5
251
100
AcDbEntity
  8
M0
100
AcDbCircle
 10
272.673753
 20
142.873693
 40
1.433333
  0
LINE
  5
252
100
AcDbEntity
  8
M0
100
AcDbLine
 10
273.323602
 20
142.223844
 11
272.08835
 21
143.459097
  0
LINE
  5
253
100
AcDbEntity
  8
M0
100
AcDbLine
 10
272.023905
 20
142.223844
 11
273.259157
 21
143.459097
  0
CIRCLE
  5
254
100
AcDbEntity
  8
M0
100
AcDbCircle
 10
272.673753
 20
147.463305
 40
1.25
  0
LINE
  5
255
100
AcDbEntity
  8
M0
100
AcDbLine
 10
274.173753
 20
149.244477
 11
274.173753
 21
139.911143
  0
LINE
  5
256
100
AcDbEntity
  8
M0
100
AcDbLine
 10
275.373753
 20
147.07781
 11
275.373753
 21
144.57781
  0
LINE
  5
257
100
AcDbEntity
  8
M0
100
AcDbLine
 10
274.173753
 20
144.57781
 11
275.373753
 21
144.57781
  0
LINE
  5
258
100
AcDbEntity
  8
M0
100
AcDbLine
 10
274.173753
 20
142.411143
 11
275.373753
 21
142.411143
  0
LINE
  5
259
100
AcDbEntity
  8
M0
100
AcDbLine
 10
275.373753
 20
142.411143
 11
275.373753
 21
139.911143
  0
LINE
  5
25A
100
AcDbEntity
  8
M0
100
AcDbLine
 10
280.373753
 20
147.07781
 11
280.373753
 21
144.57781
  0
LINE
  5
25B
100
AcDbEntity
  8
M0
100
AcDbLine
 10
281.573753
 20
149.244477
 11
281.573753
 21
139.911143
  0
CIRCLE
  5
25C
100
AcDbEntity
  8
M0
100
AcDbCircle
 10
283.073753
 20
147.463305
 40
1.25
  0
LINE
  5
25D
100
AcDbEntity
  8
M0
100
AcDbLine
 10
280.373753
 20
144.57781
 11
281.573753
 21
144.57781
  0
LINE
  5
25E
100
AcDbEntity
  8
M0
100
AcDbLine
 10
280.373753
 20
142.411143
 11
281.573753
 21
142.411143
  0
LINE
  5
25F
100
AcDbEntity
  8
M0
100
AcDbLine
 10
280.373753
 20
142.411143
 11
280.373753
 21
139.911143
  0
LINE
  5
260
100
AcDbEntity
  8
M0
100
AcDbLine
 10
283.635243
 20
142.312204
 11
282.457198
 21
143.490248
  0
LINE
  5
261
100
AcDbEntity
  8
M0
100
AcDbLine
 10
282.512264
 20
142.312204
 11
283.690308
 21
143.490248
  0
CIRCLE
  5
262
100
AcDbEntity
  8
M0
100
AcDbCircle
 10
283.073753
 20
142.873693
 40
1.433333
  0
LINE
  5
263
100
AcDbEntity
  8
M0
100
AcDbLine
 10
274.173753
 20
149.244477
 11
271.173753
 21
149.244477
  0
TEXT
  5
264
100
AcDbEntity
  8
M0
100
AcDbText
 10
271.909097
 20
151.285269
 40
2.0
  1
ア
 41
0.833333
  7
STANDARD
100
AcDbText
  0
TEXT
  5
265
100
AcDbEntity
  8
M0
100
AcDbText
 10
271.909097
 20
149.285269
 40
2.0
  1
カ
 41
0.833333
  7
STANDARD
100
AcDbText
  0
LINE
  5
266
100
AcDbEntity
  8
M0
100
AcDbLine
 10
274.173753
 20
147.07781
 11
275.373753
 21
147.07781
  0
LINE
  5
267
100
AcDbEntity
  8
M0
100
AcDbLine
 10
269.973753
 20
147.07781
 11
271.173753
 21
147.07781
  0
LINE
  5
268
100
AcDbEntity
  8
M0
100
AcDbLine
 10
269.973753
 20
139.911143
 11
275.373753
 21
139.911143
  0
CIRCLE
  5
269
100
AcDbEntity
  8
M0
100
AcDbCircle
 10
272.673753
 20
147.463305
 40
0.75
  0
LINE
  5
26A
100
AcDbEntity
  8
M0
100
AcDbLine
 10
283.768645
 20
146.768414
 11
282.372926
 21
148.164133
  0
LINE
  5
26B
100
AcDbEntity
  8
M0
100
AcDbLine
 10
282.378862
 20
146.768414
 11
283.774581
 21
148.164133
  0
LINE
  5
26C
100
AcDbEntity
  8
M0
100
AcDbLine
 10
280.373753
 20
139.911143
 11
285.773753
 21
139.911143
  0
LINE
  5
26D
100
AcDbEntity
  8
M0
100
AcDbLine
 10
285.773753
 20
139.911143
 11
285.773753
 21
142.411143
  0
LINE
  5
26E
100
AcDbEntity
  8
M0
100
AcDbLine
 10
284.573753
 20
149.244477
 11
284.573753
 21
139.911143
  0
LINE
  5
26F
100
AcDbEntity
  8
M0
100
AcDbLine
 10
284.573753
 20
149.244477
 11
281.573753
 21
149.244477
  0
TEXT
  5
270
100
AcDbEntity
  8
M0
100
AcDbText
 10
282.257501
 20
151.285269
 40
2.0
  1
シ
 41
0.833333
  7
STANDARD
100
AcDbText
  0
TEXT
  5
271
100
AcDbEntity
  8
M0
100
AcDbText
 10
282.257501
 20
149.285269
 40
2.0
  1
ロ
 41
0.833333
  7
STANDARD
100
AcDbText
  0
LINE
  5
272
100
AcDbEntity
  8
M0
100
AcDbLine
 10
284.573753
 20
144.57781
 11
285.773753
 21
144.57781
  0
LINE
  5
273
100
AcDbEntity
  8
M0
100
AcDbLine
 10
285.773753
 20
144.57781
 11
285.773753
 21
147.07781
  0
LINE
  5
274
100
AcDbEntity
  8
M0
100
AcDbLine
 10
284.573753
 20
147.07781
 11
285.773753
 21
147.07781
  0
LINE
  5
275
100
AcDbEntity
  8
M0
100
AcDbLine
 10
280.973753
 20
153.470658
 11
280.973753
 21
147.07781
  0
LINE
  5
276
100
AcDbEntity
  8
M0
100
AcDbLine
 10
280.373753
 20
147.07781
 11
281.573753
 21
147.07781
  0
LINE
  5
277
100
AcDbEntity
  8
M0
100
AcDbLine
 10
284.323753
 20
147.463305
 11
288.773753
 21
147.463305
  0
LINE
  5
278
100
AcDbEntity
  8
M0
100
AcDbLine
 10
285.173753
 20
144.57781
 11
285.173753
 21
143.57781
  0
LINE
  5
279
100
AcDbEntity
  8
M0
100
AcDbLine
 10
285.173753
 20
143.57781
 11
286.773753
 21
143.57781
  0
LINE
  5
27A
100
AcDbEntity
  8
M0
100
AcDbLine
 10
284.573753
 20
142.411143
 11
285.773753
 21
142.411143
  0
LINE
  5
27B
100
AcDbEntity
  8
M0
100
AcDbLine
 10
290.773753
 20
142.411143
 11
290.773753
 21
139.911143
  0
LINE
  5
27C
100
AcDbEntity
  8
M0
100
AcDbLine
 10
337.168467
 20
126.564253
 11
337.168467
 21
123.987753
  0
LINE
  5
27D
100
AcDbEntity
  8
M0
100
AcDbLine
 10
365.673753
 20
97.141339
 11
370.973753
 21
97.141339
  0
LINE
  5
27E
100
AcDbEntity
  8
M0
100
AcDbLine
 10
360.173753
 20
95.941339
 11
370.973753
 21
95.941339
  0
LINE
  5
27F
100
AcDbEntity
  8
M0
100
AcDbLine
 10
291.973753
 20
149.244477
 11
291.973753
 21
139.911143
  0
LINE
  5
280
100
AcDbEntity
  8
M0
100
AcDbLine
 10
290.773753
 20
139.911143
 11
296.173753
 21
139.911143
  0
LINE
  5
281
100
AcDbEntity
  8
M0
100
AcDbLine
 10
294.973753
 20
149.244477
 11
294.973753
 21
139.911143
  0
LINE
  5
282
100
AcDbEntity
  8
M0
100
AcDbLine
 10
296.173753
 20
142.411143
 11
296.173753
 21
139.911143
  0
LINE
  5
283
100
AcDbEntity
  8
M0
100
AcDbLine
 10
294.973753
 20
142.411143
 11
296.173753
 21
142.411143
  0
LINE
  5
284
100
AcDbEntity
  8
M0
100
AcDbLine
 10
295.573753
 20
143.57781
 11
295.573753
 21
144.57781
  0
LINE
  5
285
100
AcDbEntity
  8
M0
100
AcDbLine
 10
295.573753
 20
143.57781
 11
297.873753
 21
143.57781
  0
LINE
  5
286
100
AcDbEntity
  8
M0
100
AcDbLine
 10
294.973753
 20
144.57781
 11
296.173753
 21
144.57781
  0
LINE
  5
287
100
AcDbEntity
  8
M0
100
AcDbLine
 10
296.173753
 20
147.07781
 11
296.173753
 21
144.57781
  0
LINE
  5
288
100
AcDbEntity
  8
M0
100
AcDbLine
 10
294.973753
 20
147.07781
 11
296.173753
 21
147.07781
  0
LINE
  5
289
100
AcDbEntity
  8
M0
100
AcDbLine
 10
291.973753
 20
149.244477
 11
294.973753
 21
149.244477
  0
TEXT
  5
28A
100
AcDbEntity
  8
M0
100
AcDbText
 10
292.237428
 20
151.285269
 40
2.0
  1
ク
 41
0.833333
  7
STANDARD
100
AcDbText
  0
TEXT
  5
28B
100
AcDbEntity
  8
M0
100
AcDbText
 10
292.237428
 20
149.285269
 40
2.0
  1
ロ
 41
0.833333
  7
STANDARD
100
AcDbText
  0
CIRCLE
  5
28C
100
AcDbEntity
  8
M0
100
AcDbCircle
 10
293.473753
 20
147.463305
 40
1.25
  0
LINE
  5
28D
100
AcDbEntity
  8
M0
100
AcDbLine
 10
292.803969
 20
146.793521
 11
294.116567
 21
148.106119
  0
LINE
  5
28E
100
AcDbEntity
  8
M0
100
AcDbLine
 10
294.143538
 20
146.793521
 11
292.83094
 21
148.106119
  0
LINE
  5
28F
100
AcDbEntity
  8
M0
100
AcDbLine
 10
292.9471
 20
142.34704
 11
293.984169
 21
143.384108
  0
LINE
  5
290
100
AcDbEntity
  8
M0
100
AcDbLine
 10
294.000406
 20
142.34704
 11
292.963338
 21
143.384108
  0
CIRCLE
  5
291
100
AcDbEntity
  8
M0
100
AcDbCircle
 10
293.473753
 20
142.873693
 40
1.433333
  0
LINE
  5
292
100
AcDbEntity
  8
M0
100
AcDbLine
 10
290.773753
 20
142.411143
 11
291.973753
 21
142.411143
  0
LINE
  5
293
100
AcDbEntity
  8
M0
100
AcDbLine
 10
290.773753
 20
144.57781
 11
291.973753
 21
144.57781
  0
LINE
  5
294
100
AcDbEntity
  8
M0
100
AcDbLine
 10
290.773753
 20
147.07781
 11
290.773753
 21
144.57781
  0
LINE
  5
295
100
AcDbEntity
  8
M0
100
AcDbLine
 10
290.773753
 20
147.07781
 11
291.973753
 21
147.07781
  0
LINE
  5
296
100
AcDbEntity
  8
M0
100
AcDbLine
 10
301.173753
 20
142.411143
 11
301.173753
 21
139.911143
  0
LINE
  5
297
100
AcDbEntity
  8
M0
100
AcDbLine
 10
301.173753
 20
139.911143
 11
306.573753
 21
139.911143
  0
LINE
  5
298
100
AcDbEntity
  8
M0
100
AcDbLine
 10
302.373753
 20
149.244477
 11
302.373753
 21
139.911143
  0
LINE
  5
299
100
AcDbEntity
  8
M0
100
AcDbLine
 10
305.373753
 20
149.244477
 11
305.373753
 21
139.911143
  0
LINE
  5
29A
100
AcDbEntity
  8
M0
100
AcDbLine
 10
306.573753
 20
142.411143
 11
306.573753
 21
139.911143
  0
LINE
  5
29B
100
AcDbEntity
  8
M0
100
AcDbLine
 10
305.373753
 20
142.411143
 11
306.573753
 21
142.411143
  0
CIRCLE
  5
29C
100
AcDbEntity
  8
M0
100
AcDbCircle
 10
303.873753
 20
142.873693
 40
1.433333
  0
LINE
  5
29D
100
AcDbEntity
  8
M0
100
AcDbLine
 10
303.178682
 20
142.178622
 11
304.494462
 21
143.494402
  0
LINE
  5
29E
100
AcDbEntity
  8
M0
100
AcDbLine
 10
304.568825
 20
142.178622
 11
303.253045
 21
143.494402
  0
LINE
  5
29F
100
AcDbEntity
  8
M0
100
AcDbLine
 10
301.173753
 20
142.411143
 11
302.373753
 21
142.411143
  0
LINE
  5
2A0
100
AcDbEntity
  8
M0
100
AcDbLine
 10
301.773753
 20
143.411143
 11
301.773753
 21
142.411143
  0
LINE
  5
2A1
100
AcDbEntity
  8
M0
100
AcDbLine
 10
301.173753
 20
144.57781
 11
302.373753
 21
144.57781
  0
LINE
  5
2A2
100
AcDbEntity
  8
M0
100
AcDbLine
 10
301.173753
 20
147.07781
 11
301.173753
 21
144.57781
  0
LINE
  5
2A3
100
AcDbEntity
  8
M0
100
AcDbLine
 10
301.173753
 20
147.07781
 11
302.373753
 21
147.07781
  0
CIRCLE
  5
2A4
100
AcDbEntity
  8
M0
100
AcDbCircle
 10
303.873753
 20
147.463305
 40
1.25
  0
CIRCLE
  5
2A5
100
AcDbEntity
  8
M0
100
AcDbCircle
 10
303.873753
 20
147.463305
 40
0.75
  0
LINE
  5
2A6
100
AcDbEntity
  8
M0
100
AcDbLine
 10
302.373753
 20
149.244477
 11
305.373753
 21
149.244477
  0
TEXT
  5
2A7
100
AcDbEntity
  8
M0
100
AcDbText
 10
302.974832
 20
151.285269
 40
2.0
  1
ア
 41
0.833333
  7
STANDARD
100
AcDbText
  0
TEXT
  5
2A8
100
AcDbEntity
  8
M0
100
AcDbText
 10
302.974832
 20
149.285269
 40
2.0
  1
オ
 41
0.833333
  7
STANDARD
100
AcDbText
  0
LINE
  5
2A9
100
AcDbEntity
  8
M0
100
AcDbLine
 10
305.373753
 20
147.07781
 11
306.573753
 21
147.07781
  0
LINE
  5
2AA
100
AcDbEntity
  8
M0
100
AcDbLine
 10
306.573753
 20
147.07781
 11
306.573753
 21
144.57781
  0
LINE
  5
2AB
100
AcDbEntity
  8
M0
100
AcDbLine
 10
305.373753
 20
144.57781
 11
306.573753
 21
144.57781
  0
LINE
  5
2AC
100
AcDbEntity
  8
M0
100
AcDbLine
 10
288.838779
 20
153.470658
 11
288.838779
 21
151.244477
  0
LINE
  5
2AD
100
AcDbEntity
  8
M0
100
AcDbLine
 10
288.838779
 20
151.244477
 11
291.373753
 21
151.244477
  0
LINE
  5
2AE
100
AcDbEntity
  8
M0
100
AcDbLine
 10
291.373753
 20
151.244477
 11
291.373753
 21
147.07781
  0
LINE
  5
2AF
100
AcDbEntity
  8
M0
100
AcDbLine
 10
279.894272
 20
153.470658
 11
289.894272
 21
153.470658
  0
LINE
  5
2B0
100
AcDbEntity
  8
M0
100
AcDbLine
 10
289.894272
 20
153.470658
 11
289.894272
 21
157.470658
  0
LINE
  5
2B1
100
AcDbEntity
  8
M0
100
AcDbLine
 10
279.894272
 20
157.470658
 11
279.894272
 21
153.470658
  0
TEXT
  5
2B2
100
AcDbEntity
  8
M0
100
AcDbText
 10
280.64427
 20
154.118223
 40
3.0
  1
電　源
 41
0.833333
  7
STANDARD
100
AcDbText
  0
LINE
  5
2B3
100
AcDbEntity
  8
M0
100
AcDbLine
 10
289.894272
 20
157.470658
 11
279.894272
 21
157.470658
  0
LINE
  5
2B4
100
AcDbEntity
  8
M0
100
AcDbLine
 10
299.473753
 20
143.411143
 11
301.773753
 21
143.411143
  0
TEXT
  5
2B5
100
AcDbEntity
  8
M0
100
AcDbText
 10
281.521821
 20
103.893239
 40
2.0
  1
オ
 41
0.833333
  7
STANDARD
100
AcDbText
  0
TEXT
  5
2B6
100
AcDbEntity
  8
M0
100
AcDbText
 10
281.521821
 20
101.893239
 40
2.0
  1
レ
 41
0.833333
  7
STANDARD
100
AcDbText
  0
TEXT
  5
2B7
100
AcDbEntity
  8
M0
100
AcDbText
 10
281.521821
 20
99.893239
 40
2.0
  1
ン
 41
0.833333
  7
STANDARD
100
AcDbText
  0
TEXT
  5
2B8
100
AcDbEntity
  8
M0
100
AcDbText
 10
281.521821
 20
97.893239
 40
2.0
  1
ジ
 41
0.833333
  7
STANDARD
100
AcDbText
  0
LINE
  5
2B9
100
AcDbEntity
  8
M0
100
AcDbLine
 10
348.114461
 20
134.641339
 11
348.114461
 21
132.641339
  0
ARC
  5
2BA
100
AcDbEntity
  8
M0
100
AcDbCircle
 10
348.114461
 20
131.641339
 40
1.0
100
AcDbArc
 50
90.0
 51
270.0
  0
LINE
  5
2BB
100
AcDbEntity
  8
M0
100
AcDbLine
 10
348.114461
 20
130.641339
 11
348.114461
 21
127.564253
  0
ARC
  5
2BC
100
AcDbEntity
  8
M0
100
AcDbCircle
 10
348.114461
 20
126.564253
 40
1.0
100
AcDbArc
 50
90.0
 51
270.0
  0
LINE
  5
2BD
100
AcDbEntity
  8
M0
100
AcDbLine
 10
348.114461
 20
125.564253
 11
348.114461
 21
116.908126
  0
LINE
  5
2BE
100
AcDbEntity
  8
M0
100
AcDbLine
 10
321.149794
 20
100.641339
 11
318.649794
 21
100.641339
  0
LINE
  5
2BF
100
AcDbEntity
  8
M0
100
AcDbLine
 10
321.149794
 20
100.891339
 11
318.649794
 21
100.891339
  0
LINE
  5
2C0
100
AcDbEntity
  8
M0
100
AcDbLine
 10
318.649794
 20
100.641339
 11
318.649794
 21
100.891339
  0
LINE
  5
2C1
100
AcDbEntity
  8
M0
100
AcDbLine
 10
321.149794
 20
100.641339
 11
321.149794
 21
100.891339
  0
LINE
  5
2C2
100
AcDbEntity
  8
M0
100
AcDbLine
 10
326.899794
 20
100.641339
 11
324.399794
 21
100.641339
  0
LINE
  5
2C3
100
AcDbEntity
  8
M0
100
AcDbLine
 10
324.399794
 20
100.641339
 11
324.399794
 21
100.891339
  0
LINE
  5
2C4
100
AcDbEntity
  8
M0
100
AcDbLine
 10
326.899794
 20
100.891339
 11
324.399794
 21
100.891339
  0
LINE
  5
2C5
100
AcDbEntity
  8
M0
100
AcDbLine
 10
326.899794
 20
100.641339
 11
326.899794
 21
100.891339
  0
LINE
  5
2C6
100
AcDbEntity
  8
M0
100
AcDbLine
 10
326.899794
 20
103.641339
 11
324.399794
 21
103.641339
  0
LINE
  5
2C7
100
AcDbEntity
  8
M0
100
AcDbLine
 10
326.899794
 20
103.891339
 11
324.399794
 21
103.891339
  0
LINE
  5
2C8
100
AcDbEntity
  8
M0
100
AcDbLine
 10
324.399794
 20
103.641339
 11
324.399794
 21
103.891339
  0
LINE
  5
2C9
100
AcDbEntity
  8
M0
100
AcDbLine
 10
326.899794
 20
103.641339
 11
326.899794
 21
103.891339
  0
LINE
  5
2CA
100
AcDbEntity
  8
M0
100
AcDbLine
 10
321.149794
 20
103.641339
 11
318.649794
 21
103.641339
  0
LINE
  5
2CB
100
AcDbEntity
  8
M0
100
AcDbLine
 10
321.149794
 20
103.891339
 11
318.649794
 21
103.891339
  0
LINE
  5
2CC
100
AcDbEntity
  8
M0
100
AcDbLine
 10
321.149794
 20
103.641339
 11
321.149794
 21
103.891339
  0
LINE
  5
2CD
100
AcDbEntity
  8
M0
100
AcDbLine
 10
318.649794
 20
103.641339
 11
318.649794
 21
103.891339
  0
LINE
  5
2CE
100
AcDbEntity
  8
M0
100
AcDbLine
 10
321.149794
 20
106.641339
 11
318.649794
 21
106.641339
  0
LINE
  5
2CF
100
AcDbEntity
  8
M0
100
AcDbLine
 10
318.649794
 20
106.641339
 11
318.649794
 21
106.891339
  0
LINE
  5
2D0
100
AcDbEntity
  8
M0
100
AcDbLine
 10
321.149794
 20
106.891339
 11
318.649794
 21
106.891339
  0
LINE
  5
2D1
100
AcDbEntity
  8
M0
100
AcDbLine
 10
321.149794
 20
106.641339
 11
321.149794
 21
106.891339
  0
LINE
  5
2D2
100
AcDbEntity
  8
M0
100
AcDbLine
 10
326.899794
 20
106.891339
 11
324.399794
 21
106.891339
  0
LINE
  5
2D3
100
AcDbEntity
  8
M0
100
AcDbLine
 10
324.399794
 20
106.641339
 11
324.399794
 21
106.891339
  0
LINE
  5
2D4
100
AcDbEntity
  8
M0
100
AcDbLine
 10
326.899794
 20
106.641339
 11
324.399794
 21
106.641339
  0
LINE
  5
2D5
100
AcDbEntity
  8
M0
100
AcDbLine
 10
326.899794
 20
106.641339
 11
326.899794
 21
106.891339
  0
LINE
  5
2D6
100
AcDbEntity
  8
M0
100
AcDbLine
 10
326.649794
 20
111.891339
 11
326.649794
 21
109.391339
  0
LINE
  5
2D7
100
AcDbEntity
  8
M0
100
AcDbLine
 10
326.899794
 20
109.391339
 11
326.649794
 21
109.391339
  0
LINE
  5
2D8
100
AcDbEntity
  8
M0
100
AcDbLine
 10
326.899794
 20
111.891339
 11
326.899794
 21
109.391339
  0
LINE
  5
2D9
100
AcDbEntity
  8
M0
100
AcDbLine
 10
326.899794
 20
111.891339
 11
326.649794
 21
111.891339
  0
LINE
  5
2DA
100
AcDbEntity
  8
M0
100
AcDbLine
 10
318.899794
 20
111.891339
 11
318.899794
 21
109.391339
  0
LINE
  5
2DB
100
AcDbEntity
  8
M0
100
AcDbLine
 10
318.899794
 20
109.391339
 11
318.649794
 21
109.391339
  0
LINE
  5
2DC
100
AcDbEntity
  8
M0
100
AcDbLine
 10
318.649794
 20
111.891339
 11
318.649794
 21
109.391339
  0
LINE
  5
2DD
100
AcDbEntity
  8
M0
100
AcDbLine
 10
318.899794
 20
111.891339
 11
318.649794
 21
111.891339
  0
TEXT
  5
2DE
100
AcDbEntity
  8
M0
100
AcDbText
 10
326.899793
 20
102.266335
 40
1.5
  1
３
 50
89.999996
 41
0.833333
  7
STANDARD
100
AcDbText
  0
TEXT
  5
2DF
100
AcDbEntity
  8
M0
100
AcDbText
 10
326.899793
 20
111.766336
 40
1.5
  1
７
 50
89.999996
 41
0.833333
  7
STANDARD
100
AcDbText
  0
TEXT
  5
2E0
100
AcDbEntity
  8
M0
100
AcDbText
 10
321.740232
 20
111.766336
 40
1.5
  1
８
 50
89.999996
 41
0.833333
  7
STANDARD
100
AcDbText
  0
TEXT
  5
2E1
100
AcDbEntity
  8
M0
100
AcDbText
 10
321.740232
 20
102.266335
 40
1.5
  1
４
 50
89.999996
 41
0.833333
  7
STANDARD
100
AcDbText
  0
TEXT
  5
2E2
100
AcDbEntity
  8
M0
100
AcDbText
 10
321.740232
 20
99.266336
 40
1.5
  1
２
 50
89.999996
 41
0.833333
  7
STANDARD
100
AcDbText
  0
TEXT
  5
2E3
100
AcDbEntity
  8
M0
100
AcDbText
 10
326.899793
 20
99.266336
 40
1.5
  1
１
 50
89.999996
 41
0.833333
  7
STANDARD
100
AcDbText
  0
TEXT
  5
2E4
100
AcDbEntity
  8
M0
100
AcDbText
 10
321.740232
 20
105.266339
 40
1.5
  1
６
 50
89.999996
 41
0.833333
  7
STANDARD
100
AcDbText
  0
TEXT
  5
2E5
100
AcDbEntity
  8
M0
100
AcDbText
 10
326.899793
 20
105.266339
 40
1.5
  1
５
 50
89.999996
 41
0.833333
  7
STANDARD
100
AcDbText
  0
TEXT
  5
2E6
100
AcDbEntity
  8
M0
100
AcDbText
 10
350.29543
 20
104.391339
 40
2.0
  1
アカ
 41
0.833333
  7
STANDARD
100
AcDbText
  0
ARC
  5
2E7
100
AcDbEntity
  8
M0
100
AcDbCircle
 10
337.168467
 20
104.391339
 40
1.5
100
AcDbArc
 50
0.0
 51
180.0
  0
LINE
  5
2E8
100
AcDbEntity
  8
M0
100
AcDbLine
 10
338.668467
 20
104.391339
 11
356.214461
 21
104.391339
  0
TEXT
  5
2E9
100
AcDbEntity
  8
M0
100
AcDbText
 10
289.164697
 20
104.941338
 40
2.0
  1
シロ
 41
0.833333
  7
STANDARD
100
AcDbText
  0
LINE
  5
2EA
100
AcDbEntity
  8
M0
100
AcDbLine
 10
286.773753
 20
104.941339
 11
299.516113
 21
104.941339
  0
LINE
  5
2EB
100
AcDbEntity
  8
M0
100
AcDbLine
 10
301.516113
 20
104.941339
 11
324.899794
 21
104.941339
  0
TEXT
  5
2EC
100
AcDbEntity
  8
M0
100
AcDbText
 10
295.72244
 20
113.831205
 40
2.0
  1
ク
 41
0.833333
  7
STANDARD
100
AcDbText
  0
TEXT
  5
2ED
100
AcDbEntity
  8
M0
100
AcDbText
 10
295.72244
 20
111.831205
 40
2.0
  1
ロ
 41
0.833333
  7
STANDARD
100
AcDbText
  0
TEXT
  5
2EE
100
AcDbEntity
  8
M0
100
AcDbText
 10
304.355788
 20
114.302778
 40
2.0
  1
ハ
 41
0.833333
  7
STANDARD
100
AcDbText
  0
TEXT
  5
2EF
100
AcDbEntity
  8
M0
100
AcDbText
 10
304.355788
 20
112.302778
 40
2.0
  1
イ
 41
0.833333
  7
STANDARD
100
AcDbText
  0
ARC
  5
2F0
100
AcDbEntity
  8
M0
100
AcDbCircle
 10
300.516113
 20
110.141339
 40
1.0
100
AcDbArc
 50
0.0
 51
180.0
  0
LINE
  5
2F1
100
AcDbEntity
  8
M0
100
AcDbLine
 10
300.516113
 20
129.641339
 11
300.516113
 21
96.741339
  0
LINE
  5
2F2
100
AcDbEntity
  8
M0
100
AcDbLine
 10
365.973753
 20
118.391353
 11
350.473753
 21
118.391353
  0
TEXT
  5
2F3
100
AcDbEntity
  8
M0
100
AcDbText
 10
351.197695
 20
119.391355
 40
3.0
  1
保護リレー
 41
0.833333
  7
STANDARD
100
AcDbText
  0
LINE
  5
2F4
100
AcDbEntity
  8
M0
100
AcDbLine
 10
350.473753
 20
123.391353
 11
350.473753
 21
118.391353
  0
LINE
  5
2F5
100
AcDbEntity
  8
M0
100
AcDbLine
 10
350.473753
 20
123.391353
 11
365.973753
 21
123.391353
  0
LINE
  5
2F6
100
AcDbEntity
  8
M0
100
AcDbLine
 10
365.973753
 20
118.391353
 11
365.973753
 21
123.391353
  0
LINE
  5
2F7
100
AcDbEntity
  8
M0
100
AcDbLine
 10
364.873753
 20
112.408126
 11
364.873753
 21
118.391353
  0
LINE
  5
2F8
100
AcDbEntity
  8
M0
100
AcDbLine
 10
365.973753
 20
115.408126
 11
364.873753
 21
115.408126
  0
LINE
  5
2F9
100
AcDbEntity
  8
M0
100
AcDbLine
 10
365.973753
 20
115.408126
 11
365.973753
 21
112.408126
  0
LINE
  5
2FA
100
AcDbEntity
  8
M0
100
AcDbLine
 10
359.873753
 20
112.408126
 11
365.973753
 21
112.408126
  0
LINE
  5
2FB
100
AcDbEntity
  8
M0
100
AcDbLine
 10
363.915951
 20
115.156332
 11
362.406356
 21
116.665927
  0
CIRCLE
  5
2FC
100
AcDbEntity
  8
M0
100
AcDbCircle
 10
363.173753
 20
115.89853
 40
1.5
  0
LINE
  5
2FD
100
AcDbEntity
  8
M0
100
AcDbLine
 10
362.431555
 20
115.156332
 11
363.941151
 21
116.665927
  0
LINE
  5
2FE
100
AcDbEntity
  8
M0
100
AcDbLine
 10
360.973753
 20
112.408126
 11
360.973753
 21
118.391353
  0
LINE
  5
2FF
100
AcDbEntity
  8
M0
100
AcDbLine
 10
360.973753
 20
115.408126
 11
359.873753
 21
115.408126
  0
LINE
  5
300
100
AcDbEntity
  8
M0
100
AcDbLine
 10
359.873753
 20
115.408126
 11
359.873753
 21
112.408126
  0
LINE
  5
301
100
AcDbEntity
  8
M0
100
AcDbLine
 10
356.773753
 20
115.408126
 11
356.773753
 21
112.408126
  0
LINE
  5
302
100
AcDbEntity
  8
M0
100
AcDbLine
 10
355.473753
 20
118.391353
 11
355.473753
 21
112.408126
  0
LINE
  5
303
100
AcDbEntity
  8
M0
100
AcDbLine
 10
350.473753
 20
112.408126
 11
356.773753
 21
112.408126
  0
LINE
  5
304
100
AcDbEntity
  8
M0
100
AcDbLine
 10
355.473753
 20
115.408126
 11
356.773753
 21
115.408126
  0
CIRCLE
  5
305
100
AcDbEntity
  8
M0
100
AcDbCircle
 10
353.473753
 20
115.89853
 40
1.5
  0
LINE
  5
306
100
AcDbEntity
  8
M0
100
AcDbLine
 10
354.254334
 20
115.117949
 11
352.744738
 21
116.627545
  0
LINE
  5
307
100
AcDbEntity
  8
M0
100
AcDbLine
 10
352.693172
 20
115.117949
 11
354.202768
 21
116.627545
  0
LINE
  5
308
100
AcDbEntity
  8
M0
100
AcDbLine
 10
351.673753
 20
112.408126
 11
351.673753
 21
118.391353
  0
LINE
  5
309
100
AcDbEntity
  8
M0
100
AcDbLine
 10
350.473753
 20
115.408126
 11
351.673753
 21
115.408126
  0
LINE
  5
30A
100
AcDbEntity
  8
M0
100
AcDbLine
 10
350.473753
 20
115.408126
 11
350.473753
 21
112.408126
  0
LINE
  5
30B
100
AcDbEntity
  8
M0
100
AcDbLine
 10
351.073753
 20
116.908126
 11
351.073753
 21
115.408126
  0
LINE
  5
30C
100
AcDbEntity
  8
M0
100
AcDbLine
 10
348.114461
 20
116.908126
 11
351.073753
 21
116.908126
  0
TEXT
  5
30D
100
AcDbEntity
  8
M0
100
AcDbText
 10
371.961398
 20
126.130064
 40
3.0
  1
水温リレー
 41
0.833333
  7
STANDARD
100
AcDbText
  0
LINE
  5
30E
100
AcDbEntity
  8
M0
100
AcDbLine
 10
370.973753
 20
129.564253
 11
387.473753
 21
129.564253
  0
LINE
  5
30F
100
AcDbEntity
  8
M0
100
AcDbLine
 10
370.973753
 20
125.564253
 11
370.973753
 21
129.564253
  0
TEXT
  5
310
100
AcDbEntity
  8
M0
100
AcDbText
 10
367.140424
 20
129.021307
 40
2.0
  1
クロ
 41
0.833333
  7
STANDARD
100
AcDbText
  0
TEXT
  5
311
100
AcDbEntity
  8
M0
100
AcDbText
 10
367.140424
 20
124.750505
 40
2.0
  1
シロ
 41
0.833333
  7
STANDARD
100
AcDbText
  0
LINE
  5
312
100
AcDbEntity
  8
M0
100
AcDbLine
 10
370.973753
 20
125.564253
 11
387.473753
 21
125.564253
  0
LINE
  5
313
100
AcDbEntity
  8
M0
100
AcDbLine
 10
387.473753
 20
129.564253
 11
387.473753
 21
125.564253
  0
LINE
  5
314
100
AcDbEntity
  8
M0
100
AcDbLine
 10
370.973753
 20
126.564253
 11
337.168467
 21
126.564253
  0
LINE
  5
315
100
AcDbEntity
  8
M0
100
AcDbLine
 10
370.973753
 20
128.564253
 11
353.114461
 21
128.564253
  0
TEXT
  5
316
100
AcDbEntity
  8
M0
100
AcDbText
 10
348.67409
 20
109.65355
 40
2.0
  1
ムラサキ
 41
0.791667
  7
STANDARD
100
AcDbText
  0
TEXT
  5
317
100
AcDbEntity
  8
M0
100
AcDbText
 10
360.313205
 20
109.65355
 40
2.0
  1
キイロ
 41
0.791667
  7
STANDARD
100
AcDbText
  0
TEXT
  5
318
100
AcDbEntity
  8
M0
100
AcDbText
 10
268.794015
 20
103.893239
 40
2.0
  1
ク
 41
0.833333
  7
STANDARD
100
AcDbText
  0
TEXT
  5
319
100
AcDbEntity
  8
M0
100
AcDbText
 10
268.794015
 20
101.893239
 40
2.0
  1
ロ
 41
0.833333
  7
STANDARD
100
AcDbText
  0
TEXT
  5
31A
100
AcDbEntity
  8
M0
100
AcDbText
 10
275.105626
 20
125.023098
 40
2.0
  1
ク
 41
0.833333
  7
STANDARD
100
AcDbText
  0
TEXT
  5
31B
100
AcDbEntity
  8
M0
100
AcDbText
 10
275.105626
 20
123.023098
 40
2.0
  1
ロ
 41
0.833333
  7
STANDARD
100
AcDbText
  0
LINE
  5
31C
100
AcDbEntity
  8
M0
 62
     7
100
AcDbLine
 10
98.172543
 20
218.997361
 11
98.172543
 21
271.797361
  0
LINE
  5
31D
100
AcDbEntity
  8
M0
 62
     7
100
AcDbLine
 10
111.172543
 20
232.197361
 11
111.172543
 21
218.997361
  0
LINE
  5
31E
100
AcDbEntity
  8
M0
 62
     7
100
AcDbLine
 10
122.172543
 20
232.197361
 11
122.172543
 21
223.397361
  0
LINE
  5
31F
100
AcDbEntity
  8
M0
 62
     7
100
AcDbLine
 10
142.172543
 20
232.197361
 11
142.172543
 21
218.997361
  0
LINE
  5
320
100
AcDbEntity
  8
M0
 62
     7
100
AcDbLine
 10
162.172543
 20
218.997361
 11
162.172543
 21
232.197361
  0
LINE
  5
321
100
AcDbEntity
  8
M0
 62
     7
100
AcDbLine
 10
182.172543
 20
218.997361
 11
182.172543
 21
232.197361
  0
LINE
  5
322
100
AcDbEntity
  8
M0
 62
     7
100
AcDbLine
 10
202.172543
 20
218.997361
 11
202.172543
 21
232.197361
  0
LINE
  5
323
100
AcDbEntity
  8
M0
 62
     7
100
AcDbLine
 10
222.172543
 20
218.997361
 11
222.172543
 21
232.197361
  0
LINE
  5
324
100
AcDbEntity
  8
M0
 62
     7
100
AcDbLine
 10
242.172543
 20
218.997361
 11
242.172543
 21
271.797361
  0
LINE
  5
325
100
AcDbEntity
  8
M0
 62
     7
100
AcDbLine
 10
242.172543
 20
240.997361
 11
75.722543
 21
240.997361
  0
LINE
  5
326
100
AcDbEntity
  8
M0
 62
     7
100
AcDbLine
 10
170.172543
 20
271.797361
 11
170.172543
 21
262.997361
  0
LINE
  5
327
100
AcDbEntity
  8
M0
 62
     7
100
AcDbLine
 10
170.172543
 20
240.997361
 11
170.172543
 21
232.197361
  0
LINE
  5
328
100
AcDbEntity
  8
M0
 62
     7
100
AcDbLine
 10
86.172543
 20
267.397361
 11
86.172543
 21
258.597361
  0
LINE
  5
329
100
AcDbEntity
  8
M0
 62
     7
100
AcDbLine
 10
86.172543
 20
254.197361
 11
86.172543
 21
240.997361
  0
LINE
  5
32A
100
AcDbEntity
  8
M0
 62
     7
100
AcDbLine
 10
98.172543
 20
223.397361
 11
242.172543
 21
223.397361
  0
LINE
  5
32B
100
AcDbEntity
  8
M0
 62
     7
100
AcDbLine
 10
75.722543
 20
271.797361
 11
75.722543
 21
218.997361
  0
LINE
  5
32C
100
AcDbEntity
  8
M0
 62
     7
100
AcDbLine
 10
242.172543
 20
271.797361
 11
75.722543
 21
271.797361
  0
LINE
  5
32D
100
AcDbEntity
  8
M0
 62
     7
100
AcDbLine
 10
242.172543
 20
262.997361
 11
86.172543
 21
262.997361
  0
LINE
  5
32E
100
AcDbEntity
  8
M0
 62
     7
100
AcDbLine
 10
242.172543
 20
258.597361
 11
75.722543
 21
258.597361
  0
LINE
  5
32F
100
AcDbEntity
  8
M0
 62
     7
100
AcDbLine
 10
242.172543
 20
267.397361
 11
75.722543
 21
267.397361
  0
LINE
  5
330
100
AcDbEntity
  8
M0
 62
     7
100
AcDbLine
 10
242.172543
 20
254.197361
 11
75.722543
 21
254.197361
  0
LINE
  5
331
100
AcDbEntity
  8
M0
 62
     7
100
AcDbLine
 10
242.172543
 20
245.397361
 11
86.172543
 21
245.397361
  0
LINE
  5
332
100
AcDbEntity
  8
M0
 62
     7
100
AcDbLine
 10
242.172543
 20
249.797361
 11
86.172543
 21
249.797361
  0
LINE
  5
333
100
AcDbEntity
  8
M0
 62
     7
100
AcDbLine
 10
242.172543
 20
232.197361
 11
75.722543
 21
232.197361
  0
LINE
  5
334
100
AcDbEntity
  8
M0
 62
     7
100
AcDbLine
 10
242.172543
 20
227.797361
 11
111.172543
 21
227.797361
  0
LINE
  5
335
100
AcDbEntity
  8
M0
 62
     7
100
AcDbLine
 10
75.722543
 20
218.997361
 11
242.172543
 21
218.997361
  0
LINE
  5
336
100
AcDbEntity
  8
M0
 62
     7
100
AcDbLine
 10
242.172543
 20
236.597361
 11
75.722543
 21
236.597361
  0
TEXT
  5
337
100
AcDbEntity
  8
M0
 62
     7
100
AcDbText
 10
88.001709
 20
259.147361
 40
3.3
  1
材　質
 41
0.694444
  7
STANDARD
100
AcDbText
  0
TEXT
  5
338
100
AcDbEntity
  8
M0
 62
     7
100
AcDbText
 10
88.001709
 20
263.547361
 40
3.3
  1
貯水量
 41
0.694444
  7
STANDARD
100
AcDbText
  0
TEXT
  5
339
100
AcDbEntity
  8
M0
 62
     7
100
AcDbText
 10
76.80171
 20
254.747362
 40
3.3
  1
ボールタップ
 41
0.84596
  7
STANDARD
100
AcDbText
  0
TEXT
  5
33A
100
AcDbEntity
  8
M0
 62
     7
100
AcDbText
 10
77.05171
 20
245.94736
 40
3.3
  1
配　管
 41
0.694444
  7
STANDARD
100
AcDbText
  0
TEXT
  5
33B
100
AcDbEntity
  8
M0
 62
     7
100
AcDbText
 10
88.001709
 20
250.34736
 40
3.3
  1
水道管
 41
0.694444
  7
STANDARD
100
AcDbText
  0
TEXT
  5
33C
100
AcDbEntity
  8
M0
 62
     7
100
AcDbText
 10
88.001709
 20
245.94736
 40
3.3
  1
吸込管
 41
0.694444
  7
STANDARD
100
AcDbText
  0
TEXT
  5
33D
100
AcDbEntity
  8
M0
 62
     7
100
AcDbText
 10
75.80171
 20
237.147359
 40
3.3
  1
製品質量
 41
1.45202
  7
STANDARD
100
AcDbText
  0
TEXT
  5
33E
100
AcDbEntity
  8
M0
 62
     7
100
AcDbText
 10
75.80171
 20
232.747358
 40
3.3
  1
外形寸法
 41
1.45202
  7
STANDARD
100
AcDbText
  0
TEXT
  5
33F
100
AcDbEntity
  8
M0
 62
     7
100
AcDbText
 10
77.05171
 20
228.34736
 40
3.3
  1
組ミ合ワセ
 41
0.694444
  7
STANDARD
100
AcDbText
  0
TEXT
  5
340
100
AcDbEntity
  8
M0
 62
     7
100
AcDbText
 10
77.05171
 20
223.947359
 40
3.3
  1
　可能ポンプ
 41
0.694444
  7
STANDARD
100
AcDbText
  0
TEXT
  5
341
100
AcDbEntity
  8
M0
 62
     7
100
AcDbText
 10
99.50171
 20
219.547357
 40
3.3
  1
ＷＭ－形
 41
0.694444
  7
STANDARD
100
AcDbText
  0
TEXT
  5
342
100
AcDbEntity
  8
M0
 62
     7
100
AcDbText
 10
112.501712
 20
228.34736
 40
3.3
  1
Ｈ　品
 41
0.694444
  7
STANDARD
100
AcDbText
  0
TEXT
  5
343
100
AcDbEntity
  8
M0
 62
     7
100
AcDbText
 10
112.501712
 20
223.947359
 40
3.3
  1
Ｊ　品
 41
0.694444
  7
STANDARD
100
AcDbText
  0
TEXT
  5
344
100
AcDbEntity
  8
M0
 62
     7
100
AcDbText
 10
123.480879
 20
228.34736
 40
3.3
  1
ＷＴ－Ｐ８０Ｈ
 41
0.631313
  7
STANDARD
100
AcDbText
  0
TEXT
  5
345
100
AcDbEntity
  8
M0
 62
     7
100
AcDbText
 10
123.480879
 20
223.947359
 40
3.3
  1
ＷＴ－Ｐ８０Ｊ
 41
0.631313
  7
STANDARD
100
AcDbText
  0
TEXT
  5
346
100
AcDbEntity
  8
M0
 62
     7
100
AcDbText
 10
143.455879
 20
228.34736
 40
3.3
  1
ＷＴ－Ｐ１２５Ｈ
 41
0.555556
  7
STANDARD
100
AcDbText
  0
TEXT
  5
347
100
AcDbEntity
  8
M0
 62
     7
100
AcDbText
 10
143.455879
 20
223.947359
 40
3.3
  1
ＷＴ－Ｐ１２５Ｊ
 41
0.555556
  7
STANDARD
100
AcDbText
  0
TEXT
  5
348
100
AcDbEntity
  8
M0
 62
     7
100
AcDbText
 10
163.455879
 20
228.34736
 40
3.3
  1
ＷＴ－Ｐ２００Ｈ
 41
0.555556
  7
STANDARD
100
AcDbText
  0
TEXT
  5
349
100
AcDbEntity
  8
M0
 62
     7
100
AcDbText
 10
163.455879
 20
223.947359
 40
3.3
  1
ＷＴ－Ｐ２００Ｊ
 41
0.555556
  7
STANDARD
100
AcDbText
  0
TEXT
  5
34A
100
AcDbEntity
  8
M0
 62
     7
100
AcDbText
 10
183.439212
 20
228.34736
 40
3.3
  1
ＷＴ－ＰＬ２００Ｈ
 41
0.505051
  7
STANDARD
100
AcDbText
  0
TEXT
  5
34B
100
AcDbEntity
  8
M0
 62
     7
100
AcDbText
 10
183.439212
 20
223.947359
 40
3.3
  1
ＷＴ－ＰＬ２００Ｊ
 41
0.505051
  7
STANDARD
100
AcDbText
  0
TEXT
  5
34C
100
AcDbEntity
  8
M0
 62
     7
100
AcDbText
 10
203.455879
 20
228.34736
 40
3.3
  1
ＷＴ－Ｐ３００Ｈ
 41
0.555556
  7
STANDARD
100
AcDbText
  0
TEXT
  5
34D
100
AcDbEntity
  8
M0
 62
     7
100
AcDbText
 10
203.455879
 20
223.947359
 40
3.3
  1
ＷＴ－Ｐ３００Ｊ
 41
0.555556
  7
STANDARD
100
AcDbText
  0
TEXT
  5
34E
100
AcDbEntity
  8
M0
 62
     7
100
AcDbText
 10
223.439212
 20
223.947359
 40
3.3
  1
ＷＴ－ＰＬ３００Ｊ
 41
0.505051
  7
STANDARD
100
AcDbText
  0
TEXT
  5
34F
100
AcDbEntity
  8
M0
 62
     7
100
AcDbText
 10
223.439212
 20
228.34736
 40
3.3
  1
ＷＴ－ＰＬ３００Ｈ
 41
0.505051
  7
STANDARD
100
AcDbText
  0
TEXT
  5
350
100
AcDbEntity
  8
M0
 62
     7
100
AcDbText
 10
143.455879
 20
219.547361
 40
3.3
  1
ＷＭ－Ｐ２００Ｈ
 41
0.555556
  7
STANDARD
100
AcDbText
  0
TEXT
  5
351
100
AcDbEntity
  8
M0
 62
     7
100
AcDbText
 10
163.455879
 20
219.547357
 40
3.3
  1
ＷＭ－Ｐ１２５Ｊ
 41
0.555556
  7
STANDARD
100
AcDbText
  0
TEXT
  5
352
100
AcDbEntity
  8
M0
 62
     7
100
AcDbText
 10
183.455879
 20
219.547361
 40
3.3
  1
ＷＭ－Ｐ２００Ｊ
 41
0.555556
  7
STANDARD
100
AcDbText
  0
TEXT
  5
353
100
AcDbEntity
  8
M0
 62
     7
100
AcDbText
 10
117.191538
 20
219.547357
 40
3.3
  1
ＷＭ－Ｐ１２５Ｈ
 41
0.631313
  7
STANDARD
100
AcDbText
  0
TEXT
  5
354
100
AcDbEntity
  8
M0
 62
     7
100
AcDbText
 10
124.713798
 20
267.947361
 40
3.3
  1
ＵＢ－２００Ｊ
 41
0.694444
  7
STANDARD
100
AcDbText
  0
TEXT
  5
355
100
AcDbEntity
  8
M0
 62
     7
100
AcDbText
 10
196.713794
 20
267.947361
 40
3.3
  1
ＵＢ－５００Ｊ
 41
0.694444
  7
STANDARD
100
AcDbText
  0
TEXT
  5
356
100
AcDbEntity
  8
M0
 62
     7
100
AcDbText
 10
128.936466
 20
263.547361
 40
3.3
  1
２００Ｌ
 41
0.694444
  7
STANDARD
100
AcDbText
  0
TEXT
  5
357
100
AcDbEntity
  8
M0
 62
     7
100
AcDbText
 10
200.936466
 20
263.547361
 40
3.3
  1
５００Ｌ
 41
0.694444
  7
STANDARD
100
AcDbText
  0
TEXT
  5
358
100
AcDbEntity
  8
M0
 62
     7
100
AcDbText
 10
161.969303
 20
259.147361
 40
3.3
  1
ポリエチレン
 41
0.694444
  7
STANDARD
100
AcDbText
  0
TEXT
  5
359
100
AcDbEntity
  8
M0
 62
     7
100
AcDbText
 10
161.969303
 20
254.747362
 40
3.3
  1
１３ｍｍ複式
 41
0.694444
  7
STANDARD
100
AcDbText
  0
TEXT
  5
35A
100
AcDbEntity
  8
M0
 62
     7
100
AcDbText
 10
161.969303
 20
250.34736
 40
3.3
  1
１３ｍｍ（１／２Ｂ）
 41
0.694444
  7
STANDARD
100
AcDbText
  0
TEXT
  5
35B
100
AcDbEntity
  8
M0
 62
     7
100
AcDbText
 10
161.969303
 20
245.94736
 40
3.3
  1
２５ｍｍ（１Ｂ）
 41
0.694444
  7
STANDARD
100
AcDbText
  0
TEXT
  5
35C
100
AcDbEntity
  8
M0
 62
     7
100
AcDbText
 10
161.969303
 20
241.547361
 40
3.3
  1
３０ｍｍ（１　１／４Ｂ）
 41
0.694444
  7
STANDARD
100
AcDbText
  0
TEXT
  5
35D
100
AcDbEntity
  8
M0
 62
     7
100
AcDbText
 10
115.16658
 20
237.147363
 40
3.3
  1
２０ｋｇ（満水時２４０ｋｇ）
 41
0.694444
  7
STANDARD
100
AcDbText
  0
TEXT
  5
35E
100
AcDbEntity
  8
M0
 62
     7
100
AcDbText
 10
187.166583
 20
237.147363
 40
3.3
  1
３６ｋｇ（満水時５６０ｋｇ）
 41
0.694444
  7
STANDARD
100
AcDbText
  0
TEXT
  5
35F
100
AcDbEntity
  8
M0
 62
     7
100
AcDbText
 10
115.16658
 20
232.747362
 40
3.3
  1
８８０×５２０×８４０ｍｍ
 41
0.694444
  7
STANDARD
100
AcDbText
  0
TEXT
  5
360
100
AcDbEntity
  8
M0
 62
     7
100
AcDbText
 10
187.166583
 20
232.747362
 40
3.3
  1
１２００×７２０×１０３０ｍｍ
 41
0.694444
  7
STANDARD
100
AcDbText
  0
TEXT
  5
361
100
AcDbEntity
  8
M0
 62
     7
100
AcDbText
 10
99.50171
 20
226.034753
 40
3.3
  1
ＷＴ－形
 41
0.694444
  7
STANDARD
100
AcDbText
  0
TEXT
  5
362
100
AcDbEntity
  8
M0
 62
     7
100
AcDbText
 10
88.001709
 20
241.547361
 40
3.3
  1
　水管
 41
0.694444
  7
STANDARD
100
AcDbText
  0
TEXT
  5
363
100
AcDbEntity
  8
M0
 62
     7
100
AcDbText
 10
92.322818
 20
268.587353
 40
3.0
  1
形名
 41
0.763889
  7
STANDARD
100
AcDbText
  0
LINE
  5
364
100
AcDbEntity
  8
M0
 62
     7
100
AcDbLine
 10
141.44357
 20
90.026247
 11
51.44357
 21
90.026247
  0
LINE
  5
365
100
AcDbEntity
  8
M0
 62
     7
100
AcDbLine
 10
51.44357
 20
90.026247
 11
51.44357
 21
40.026247
  0
LINE
  5
366
100
AcDbEntity
  8
M0
 62
     7
100
AcDbLine
 10
51.44357
 20
40.026247
 11
141.44357
 21
40.026247
  0
LINE
  5
367
100
AcDbEntity
  8
M0
 62
     7
100
AcDbLine
 10
51.44357
 20
50.026247
 11
141.44357
 21
50.026247
  0
LINE
  5
368
100
AcDbEntity
  8
M0
 62
     7
100
AcDbLine
 10
51.44357
 20
60.026247
 11
141.44357
 21
60.026247
  0
LINE
  5
369
100
AcDbEntity
  8
M0
 62
     7
100
AcDbLine
 10
51.44357
 20
70.026247
 11
99.838524
 21
70.026247
  0
LINE
  5
36A
100
AcDbEntity
  8
M0
 62
     7
100
AcDbLine
 10
51.44357
 20
80.026247
 11
141.44357
 21
80.026247
  0
LINE
  5
36B
100
AcDbEntity
  8
M0
 62
     7
100
AcDbLine
 10
66.44357
 20
90.026247
 11
66.44357
 21
78.072952
  0
LINE
  5
36C
100
AcDbEntity
  8
M0
 62
     7
100
AcDbLine
 10
81.44357
 20
90.026247
 11
81.44357
 21
40.026247
  0
LINE
  5
36D
100
AcDbEntity
  8
M0
 62
     7
100
AcDbLine
 10
96.44357
 20
90.026247
 11
96.44357
 21
87.23589
  0
LINE
  5
36E
100
AcDbEntity
  8
M0
 62
     7
100
AcDbLine
 10
111.44357
 20
90.026247
 11
111.44357
 21
87.23589
  0
LINE
  5
36F
100
AcDbEntity
  8
M0
 62
     7
100
AcDbLine
 10
126.44357
 20
90.026247
 11
126.44357
 21
44.450148
  0
LINE
  5
370
100
AcDbEntity
  8
M0
 62
     7
100
AcDbLine
 10
141.44357
 20
90.026247
 11
141.44357
 21
40.026247
  0
TEXT
  5
371
100
AcDbEntity
  8
M0
 62
     7
100
AcDbText
 10
78.729699
 20
33.796552
 40
4.0
  1
１０
 41
0.666667
  7
STANDARD
100
AcDbText
  0
TEXT
  5
372
100
AcDbEntity
  8
M0
 62
     7
100
AcDbText
 10
64.998751
 20
33.796552
 40
4.0
  1
５
 41
0.666667
  7
STANDARD
100
AcDbText
  0
TEXT
  5
373
100
AcDbEntity
  8
M0
 62
     7
100
AcDbText
 10
93.7297
 20
33.796552
 40
4.0
  1
１５
 41
0.666667
  7
STANDARD
100
AcDbText
  0
TEXT
  5
374
100
AcDbEntity
  8
M0
 62
     7
100
AcDbText
 10
108.729701
 20
33.796552
 40
4.0
  1
２０
 41
0.666667
  7
STANDARD
100
AcDbText
  0
TEXT
  5
375
100
AcDbEntity
  8
M0
 62
     7
100
AcDbText
 10
123.729701
 20
33.796552
 40
4.0
  1
２５
 41
0.666667
  7
STANDARD
100
AcDbText
  0
TEXT
  5
376
100
AcDbEntity
  8
M0
 62
     7
100
AcDbText
 10
138.729698
 20
33.796552
 40
4.0
  1
３０
 41
0.666667
  7
STANDARD
100
AcDbText
  0
TEXT
  5
377
100
AcDbEntity
  8
M0
 62
     7
100
AcDbText
 10
42.538761
 20
47.838209
 40
4.0
  1
１０
 41
0.666667
  7
STANDARD
100
AcDbText
  0
TEXT
  5
378
100
AcDbEntity
  8
M0
 62
     7
100
AcDbText
 10
42.538761
 20
57.838209
 40
4.0
  1
２０
 41
0.666667
  7
STANDARD
100
AcDbText
  0
TEXT
  5
379
100
AcDbEntity
  8
M0
 62
     7
100
AcDbText
 10
42.538761
 20
87.838209
 40
4.0
  1
５０
 41
0.666667
  7
STANDARD
100
AcDbText
  0
TEXT
  5
37A
100
AcDbEntity
  8
M0
 62
     7
100
AcDbText
 10
42.538761
 20
77.838209
 40
4.0
  1
４０
 41
0.666667
  7
STANDARD
100
AcDbText
  0
TEXT
  5
37B
100
AcDbEntity
  8
M0
 62
     7
100
AcDbText
 10
42.538761
 20
67.838209
 40
4.0
  1
３０
 41
0.666667
  7
STANDARD
100
AcDbText
  0
LINE
  5
37C
100
AcDbEntity
  8
M0
 62
     7
100
AcDbLine
 10
96.44357
 20
82.971498
 11
96.44357
 21
40.026247
  0
LINE
  5
37D
100
AcDbEntity
  8
M0
 62
     7
100
AcDbLine
 10
111.44357
 20
82.971498
 11
111.44357
 21
75.93793
  0
LINE
  5
37E
100
AcDbEntity
  8
M0
 62
     7
100
AcDbLine
 10
111.44357
 20
65.829741
 11
111.44357
 21
50.026247
  0
LINE
  5
37F
100
AcDbEntity
  8
M0
 62
     7
100
AcDbLine
 10
116.655576
 20
70.026247
 11
141.44357
 21
70.026247
  0
LINE
  5
380
100
AcDbEntity
  8
M0
 62
     7
100
AcDbLine
 10
66.44357
 20
71.224084
 11
66.44357
 21
57.578033
  0
LINE
  5
381
100
AcDbEntity
  8
M0
 62
     7
100
AcDbLine
 10
66.44357
 20
53.170935
 11
66.44357
 21
40.026247
  0
LINE
  5
382
100
AcDbEntity
  8
M0
 62
     7
100
AcDbLine
 10
111.44357
 20
50.026247
 11
111.44357
 21
48.35928
  0
LINE
  5
383
100
AcDbEntity
  8
M0
 62
     7
100
AcDbLine
 10
111.44357
 20
40.964411
 11
111.44357
 21
40.026247
  0
LINE
  5
384
100
AcDbEntity
  8
M0
 62
     7
100
AcDbLine
 10
126.44357
 20
40.983442
 11
126.44357
 21
40.026247
  0
SPLINE
  5
385
100
AcDbEntity
  8
M0
 62
     7
100
AcDbSpline
210
0.0
220
0.0
230
-1.0
 70
     8
 71
     3
 72
    11
 73
     7
 43
0.0000001
 40
0.0
 40
0.0
 40
0.0
 40
0.0
 40
1.0
 40
1.0
 40
1.0
 40
2.0
 40
2.0
 40
2.0
 40
2.0
 10
51.44357
 20
87.026247
 10
62.467634
 20
82.852685
 10
73.491692
 20
78.679124
 10
81.44357
 20
75.026247
 10
87.719232
 20
72.143377
 10
92.081398
 20
69.584812
 10
96.44357
 20
67.026247
  0
SPLINE
  5
386
100
AcDbEntity
  8
M0
 62
     7
100
AcDbSpline
210
0.0
220
0.0
230
-1.0
 70
     8
 71
     3
 72
    11
 73
     7
 43
0.0000001
 40
0.0
 40
0.0
 40
0.0
 40
0.0
 40
1.0
 40
1.0
 40
1.0
 40
2.0
 40
2.0
 40
2.0
 40
2.0
 10
96.44357
 20
67.026247
 10
107.571494
 20
60.864174
 10
118.699414
 20
54.702103
 10
126.44357
 20
50.026247
 10
130.835939
 20
47.374171
 10
134.139753
 20
45.200209
 10
137.44357
 20
43.026247
  0
SPLINE
  5
387
100
AcDbEntity
  8
M0
 62
     7
100
AcDbSpline
210
0.0
220
0.0
230
-1.0
 70
     8
 71
     3
 72
    17
 73
    13
 43
0.0000001
 40
0.0
 40
0.0
 40
0.0
 40
0.0
 40
1.0
 40
1.0
 40
1.0
 40
2.0
 40
2.0
 40
2.0
 40
3.0
 40
3.0
 40
3.0
 40
4.0
 40
4.0
 40
4.0
 40
4.0
 10
51.44357
 20
40.026247
 10
55.918853
 20
40.455001
 10
60.394137
 20
40.883753
 10
66.44357
 20
42.026247
 10
79.843165
 20
44.55689
 10
100.965992
 20
50.589338
 10
114.44357
 20
56.99192
 10
123.874512
 20
61.472131
 10
129.561957
 20
66.133572
 10
133.94357
 20
70.026247
 10
136.818307
 20
72.580196
 10
139.130939
 20
74.803221
 10
141.44357
 20
77.026247
  0
LINE
  5
388
100
AcDbEntity
  8
M0
  6
DASHED
 62
     7
100
AcDbLine
 10
66.44357
 20
63.026247
 11
100.44357
 21
63.026247
  0
SPLINE
  5
389
100
AcDbEntity
  8
M0
  6
DASHED
 62
     7
100
AcDbSpline
210
0.0
220
0.0
230
-1.0
 70
     8
 71
     3
 72
    11
 73
     7
 43
0.0000001
 40
0.0
 40
0.0
 40
0.0
 40
0.0
 40
1.0
 40
1.0
 40
1.0
 40
2.0
 40
2.0
 40
2.0
 40
2.0
 10
51.44357
 20
68.026247
 10
55.065304
 20
66.440316
 10
58.687031
 20
64.854391
 10
61.44357
 20
64.026247
 10
63.40112
 20
63.438141
 10
64.922343
 20
63.232196
 10
66.44357
 20
63.026247
  0
SPLINE
  5
38A
100
AcDbEntity
  8
M0
  6
DASHED
 62
     7
100
AcDbSpline
210
0.0
220
0.0
230
-1.0
 70
     8
 71
     3
 72
     8
 73
     4
 43
0.0000001
 40
0.0
 40
0.0
 40
0.0
 40
0.0
 40
1.0
 40
1.0
 40
1.0
 40
1.0
 10
100.44357
 20
63.026247
 10
102.65907
 20
62.613703
 10
105.551319
 20
61.319976
 10
108.44357
 20
60.026247
  0
SPLINE
  5
38B
100
AcDbEntity
  8
M0
  6
DASHED
 62
     7
100
AcDbSpline
210
0.0
220
0.0
230
-1.0
 70
     8
 71
     3
 72
    11
 73
     7
 43
0.0000001
 40
0.0
 40
0.0
 40
0.0
 40
0.0
 40
1.0
 40
1.0
 40
1.0
 40
2.0
 40
2.0
 40
2.0
 40
2.0
 10
51.44357
 20
60.026247
 10
55.86291
 20
59.854387
 10
60.282256
 20
59.682528
 10
66.44357
 20
59.526247
 10
73.560673
 20
59.345722
 10
83.002124
 20
59.185985
 10
92.44357
 20
59.026247
  0
LINE
  5
38C
100
AcDbEntity
  8
M0
  6
DASHED
 62
     7
100
AcDbLine
 10
92.44357
 20
59.026247
 11
93.44357
 21
63.026247
  0
LINE
  5
38D
100
AcDbEntity
  8
M0
 62
     7
100
AcDbLine
 10
75.722543
 20
271.797361
 11
98.172543
 21
267.397361
  0
TEXT
  5
38E
100
AcDbEntity
  8
M0
 62
     7
100
AcDbText
 10
35.827147
 20
75.679792
 40
3.5
  1
全
 41
0.952381
  7
STANDARD
100
AcDbText
  0
TEXT
  5
38F
100
AcDbEntity
  8
M0
 62
     7
100
AcDbText
 10
35.827147
 20
71.179792
 40
3.5
  1
揚
 41
0.952381
  7
STANDARD
100
AcDbText
  0
TEXT
  5
390
100
AcDbEntity
  8
M0
 62
     7
100
AcDbText
 10
35.827147
 20
66.679792
 40
3.5
  1
程
 41
0.952381
  7
STANDARD
100
AcDbText
  0
TEXT
  5
391
100
AcDbEntity
  8
M0
 62
     7
100
AcDbText
 10
35.827147
 20
62.179792
 40
3.5
  1
ｍ
 41
0.952381
  7
STANDARD
100
AcDbText
  0
TEXT
  5
392
100
AcDbEntity
  8
M0
 62
     7
100
AcDbText
 10
32.531256
 20
61.366361
 40
4.0
  1
（　）
 41
0.770833
  7
STANDARD
100
AcDbText
  0
TEXT
  5
393
100
AcDbEntity
  8
M0
 62
     7
100
AcDbText
 10
81.836064
 20
24.927915
 40
4.0
  1
揚水量（Ｌ／分）
 41
0.770833
  7
STANDARD
100
AcDbText
  0
TEXT
  5
394
100
AcDbEntity
  8
M0
 62
     7
100
AcDbText
 10
101.87004
 20
73.180738
 40
2.5
  1
ボールタップ
 41
0.9
  7
STANDARD
100
AcDbText
  0
TEXT
  5
395
100
AcDbEntity
  8
M0
 62
     7
100
AcDbText
 10
101.87004
 20
70.480741
 40
2.5
  1
吐水特性
 41
0.9
  7
STANDARD
100
AcDbText
  0
TEXT
  5
396
100
AcDbEntity
  8
M0
 62
     7
100
AcDbText
 10
101.87004
 20
67.780744
 40
2.5
  1
（１３ｍｍ）
 41
0.9
  7
STANDARD
100
AcDbText
  0
TEXT
  5
397
100
AcDbEntity
  8
M0
 62
     7
100
AcDbText
 10
107.511625
 20
45.388135
 40
3.0
  1
ポンプ特性
 41
0.972222
  7
STANDARD
100
AcDbText
  0
TEXT
  5
398
100
AcDbEntity
  8
M0
 62
     7
100
AcDbText
 10
107.511625
 20
41.29611
 40
3.0
  1
整圧弁組合セ特性
 41
0.972222
  7
STANDARD
100
AcDbText
  0
LINE
  5
399
100
AcDbEntity
  8
M0
 62
     7
100
AcDbLine
 10
106.46796
 20
46.726247
 11
98.155218
 21
46.726247
  0
LINE
  5
39A
100
AcDbEntity
  8
M0
  6
DASHED
 62
     7
100
AcDbLine
 10
106.46796
 20
42.626247
 11
98.155218
 21
42.626247
  0
TEXT
  5
39B
100
AcDbEntity
  8
M0
 62
     7
100
AcDbText
 10
90.816908
 20
83.504514
 40
3.0
  1
基準吸込揚程０ｍ時
 41
0.972222
  7
STANDARD
100
AcDbText
  0
TEXT
  5
39C
100
AcDbEntity
  8
M0
 62
     7
100
AcDbText
 10
36.159619
 20
97.80319
 40
4.5
  1
●　ＷＴ－ＰＬ２００Ｈ，Ｊノ場合
 41
0.777778
  7
STANDARD
100
AcDbText
  0
TEXT
  5
39D
100
AcDbEntity
  8
M0
 62
     7
100
AcDbText
 10
61.150383
 20
75.34657
 40
2.5
  1
圧力
 41
0.9
  7
STANDARD
100
AcDbText
  0
TEXT
  5
39E
100
AcDbEntity
  8
M0
 62
     7
100
AcDbText
 10
61.150382
 20
72.646574
 40
2.5
  1
スイッチ開時
 41
0.9
  7
STANDARD
100
AcDbText
  0
TEXT
  5
39F
100
AcDbEntity
  8
M0
 62
     7
100
AcDbText
 10
76.693023
 20
267.397365
 40
3.0
  1
項目
 41
0.763889
  7
STANDARD
100
AcDbText
  0
TEXT
  5
3A0
100
AcDbEntity
  8
M0
 62
     7
100
AcDbText
 10
77.05171
 20
261.321544
 40
3.3
  1
受水槽
 41
0.694444
  7
STANDARD
100
AcDbText
  0
SPLINE
  5
3A1
100
AcDbEntity
  8
M0
 62
     7
100
AcDbSpline
210
0.0
220
0.0
230
-1.0
 70
     8
 71
     3
 72
    17
 73
    13
 43
0.0000001
 40
0.0
 40
0.0
 40
0.0
 40
0.0
 40
1.0
 40
1.0
 40
1.0
 40
2.0
 40
2.0
 40
2.0
 40
3.0
 40
3.0
 40
3.0
 40
4.0
 40
4.0
 40
4.0
 40
4.0
 10
89.555789
 20
244.444265
 10
89.57887
 20
244.358052
 10
89.603065
 20
244.274504
 10
89.630023
 20
244.197566
 10
89.675185
 20
244.068674
 10
89.728107
 20
243.958339
 10
89.809984
 20
243.841514
 10
89.89186
 20
243.72469
 10
90.002696
 20
243.601387
 10
90.106048
 20
243.520294
 10
90.2094
 20
243.439201
 10
90.305274
 20
243.400325
 10
90.401145
 20
243.361443
  0
LINE
  5
3A2
100
AcDbEntity
  8
M0
 62
     7
100
AcDbLine
 10
88.672168
 20
243.692469
 11
89.711547
 21
243.692469
  0
LINE
  5
3A3
100
AcDbEntity
  8
M0
 62
     7
100
AcDbLine
 10
89.555789
 20
244.444265
 11
89.325655
 21
244.444265
  0
SPLINE
  5
3A4
100
AcDbEntity
  8
M0
 62
     7
100
AcDbSpline
210
0.0
220
0.0
230
-1.0
 70
     8
 71
     3
 72
    14
 73
    10
 43
0.0000001
 40
0.0
 40
0.0
 40
0.0
 40
0.0
 40
1.0
 40
1.0
 40
1.0
 40
2.0
 40
2.0
 40
2.0
 40
3.0
 40
3.0
 40
3.0
 40
3.0
 10
88.873485
 20
244.297541
 10
88.815467
 20
244.176669
 10
88.756115
 20
244.058331
 10
88.692486
 20
243.948119
 10
88.600033
 20
243.78798
 10
88.498549
 20
243.645003
 10
88.398356
 20
243.522405
 10
88.298164
 20
243.399807
 10
88.19926
 20
243.297595
 10
88.100357
 20
243.19538
  0
SPLINE
  5
3A5
100
AcDbEntity
  8
M0
 62
     7
100
AcDbSpline
210
0.0
220
0.0
230
-1.0
 70
     8
 71
     3
 72
    14
 73
    10
 43
0.0000001
 40
0.0
 40
0.0
 40
0.0
 40
0.0
 40
1.0
 40
1.0
 40
1.0
 40
2.0
 40
2.0
 40
2.0
 40
3.0
 40
3.0
 40
3.0
 40
3.0
 10
88.706442
 20
243.241291
 10
88.701812
 20
243.233108
 10
88.697161
 20
243.224966
 10
88.692486
 20
243.216869
 10
88.600033
 20
243.05673
 10
88.498549
 20
242.913753
 10
88.398356
 20
242.791155
 10
88.298164
 20
242.668557
 10
88.19926
 20
242.566345
 10
88.100357
 20
242.46413
  0
LINE
  5
3A6
100
AcDbEntity
  8
M0
 62
     7
100
AcDbLine
 10
90.014078
 20
242.847477
 11
88.47573
 21
242.847477
  0
SPLINE
  5
3A7
100
AcDbEntity
  8
M0
 62
     7
100
AcDbSpline
210
0.0
220
0.0
230
-1.0
 70
     8
 71
     3
 72
    14
 73
    10
 43
0.0000001
 40
0.0
 40
0.0
 40
0.0
 40
0.0
 40
1.0
 40
1.0
 40
1.0
 40
2.0
 40
2.0
 40
2.0
 40
3.0
 40
3.0
 40
3.0
 40
3.0
 10
89.668759
 20
243.365383
 10
89.705906
 20
243.277311
 10
89.750235
 20
243.195515
 10
89.809984
 20
243.110264
 10
89.89186
 20
242.99344
 10
90.002696
 20
242.870137
 10
90.106048
 20
242.789044
 10
90.2094
 20
242.707951
 10
90.305274
 20
242.669075
 10
90.401145
 20
242.630193
  0
LINE
  5
3A8
100
AcDbEntity
  8
M0
 62
     7
100
AcDbLine
 10
89.668759
 20
243.365383
 11
89.438624
 21
243.365383
  0
LINE
  5
3A9
100
AcDbEntity
  8
M0
 62
     7
100
AcDbLine
 10
90.014078
 20
242.847477
 11
90.014078
 21
241.771029
  0
LINE
  5
3AA
100
AcDbEntity
  8
M0
 62
     7
100
AcDbLine
 10
89.50271
 20
241.771029
 11
89.50271
 21
242.847477
  0
LINE
  5
3AB
100
AcDbEntity
  8
M0
 62
     7
100
AcDbLine
 10
88.995586
 20
242.847477
 11
88.995586
 21
241.771029
  0
LINE
  5
3AC
100
AcDbEntity
  8
M0
 62
     7
100
AcDbLine
 10
88.47573
 20
242.847477
 11
88.47573
 21
241.771029
  0
LINE
  5
3AD
100
AcDbEntity
  8
M0
 62
     7
100
AcDbLine
 10
88.102282
 20
241.771029
 11
90.398135
 21
241.771029
  0
LINE
  5
3AE
100
AcDbEntity
  8
M0
 62
     7
100
AcDbLine
 10
87.811592
 20
242.3763
 11
87.957989
 21
241.660067
  0
LINE
  5
3AF
100
AcDbEntity
  8
M0
 62
     7
100
AcDbLine
 10
87.811592
 20
242.3763
 11
88.251521
 21
244.021503
  0
LINE
  5
3B0
100
AcDbEntity
  8
M0
 62
     7
100
AcDbLine
 10
87.519424
 20
242.594178
 11
87.811592
 21
242.3763
  0
LINE
  5
3B1
100
AcDbEntity
  8
M0
 62
     7
100
AcDbLine
 10
87.519112
 20
243.800082
 11
87.863096
 21
243.470456
  0
LINE
  5
3B2
100
AcDbEntity
  8
M0
 62
     7
100
AcDbLine
 10
87.714515
 20
244.622502
 11
88.056003
 21
244.296621
  0
TEXT
  5
3B3
100
AcDbEntity
  8
M0
 62
     7
100
AcDbText
 10
80.166091
 20
219.547361
 40
3.3
  1
（別売リ）
 41
0.694444
  7
STANDARD
100
AcDbText
  0
TEXT
  5
3B4
100
AcDbEntity
  8
M0
 62
     7
100
AcDbText
 10
48.7297
 20
33.796552
 40
4.0
  1
　０
 41
0.666667
  7
STANDARD
100
AcDbText
  0
TEXT
  5
3B5
100
AcDbEntity
  8
M0
 62
     7
100
AcDbText
 10
42.538761
 20
37.838209
 40
4.0
  1
　０
 41
0.666667
  7
STANDARD
100
AcDbText
  0
TEXT
  5
3B6
100
AcDbEntity
  8
M0
 62
     7
100
AcDbText
 10
111.933142
 20
123.967156
 40
4.0
  1
２０
 41
0.666667
  7
STANDARD
100
AcDbText
  0
TEXT
  5
3B7
100
AcDbEntity
  8
M0
 62
     7
100
AcDbText
 10
131.933142
 20
123.967156
 40
4.0
  1
３０
 41
0.666667
  7
STANDARD
100
AcDbText
  0
TEXT
  5
3B8
100
AcDbEntity
  8
M0
 62
     7
100
AcDbText
 10
151.933142
 20
123.967156
 40
4.0
  1
４０
 41
0.666667
  7
STANDARD
100
AcDbText
  0
TEXT
  5
3B9
100
AcDbEntity
  8
M0
 62
     7
100
AcDbText
 10
92.008322
 20
123.967156
 40
4.0
  1
１０
 41
0.666667
  7
STANDARD
100
AcDbText
  0
TEXT
  5
3BA
100
AcDbEntity
  8
M0
 62
     7
100
AcDbText
 10
66.055815
 20
138.008813
 40
4.0
  1
１０
 41
0.666667
  7
STANDARD
100
AcDbText
  0
TEXT
  5
3BB
100
AcDbEntity
  8
M0
 62
     7
100
AcDbText
 10
66.055815
 20
148.008813
 40
4.0
  1
２０
 41
0.666667
  7
STANDARD
100
AcDbText
  0
TEXT
  5
3BC
100
AcDbEntity
  8
M0
 62
     7
100
AcDbText
 10
66.055815
 20
158.008811
 40
4.0
  1
３０
 41
0.666667
  7
STANDARD
100
AcDbText
  0
TEXT
  5
3BD
100
AcDbEntity
  8
M0
 62
     7
100
AcDbText
 10
66.055815
 20
168.008812
 40
4.0
  1
４０
 41
0.666667
  7
STANDARD
100
AcDbText
  0
TEXT
  5
3BE
100
AcDbEntity
  8
M0
 62
     7
100
AcDbText
 10
66.055815
 20
178.008811
 40
4.0
  1
５０
 41
0.666667
  7
STANDARD
100
AcDbText
  0
LINE
  5
3BF
100
AcDbEntity
  8
M0
 62
     7
100
AcDbLine
 10
154.96063
 20
130.19685
 11
154.96063
 21
145.297562
  0
LINE
  5
3C0
100
AcDbEntity
  8
M0
 62
     7
100
AcDbLine
 10
159.96063
 20
180.19685
 11
114.96063
 21
180.19685
  0
LINE
  5
3C1
100
AcDbEntity
  8
M0
 62
     7
100
AcDbLine
 10
74.96063
 20
185.19685
 11
74.96063
 21
130.19685
  0
LINE
  5
3C2
100
AcDbEntity
  8
M0
 62
     7
100
AcDbLine
 10
74.96063
 20
130.19685
 11
159.96063
 21
130.19685
  0
LINE
  5
3C3
100
AcDbEntity
  8
M0
 62
     7
100
AcDbLine
 10
159.96063
 20
140.19685
 11
74.96063
 21
140.19685
  0
LINE
  5
3C4
100
AcDbEntity
  8
M0
 62
     7
100
AcDbLine
 10
159.96063
 20
150.19685
 11
74.96063
 21
150.19685
  0
LINE
  5
3C5
100
AcDbEntity
  8
M0
 62
     7
100
AcDbLine
 10
159.96063
 20
160.19685
 11
154.96063
 21
160.19685
  0
LINE
  5
3C6
100
AcDbEntity
  8
M0
 62
     7
100
AcDbLine
 10
159.96063
 20
170.19685
 11
74.96063
 21
170.19685
  0
LINE
  5
3C7
100
AcDbEntity
  8
M0
 62
     7
100
AcDbLine
 10
94.96063
 20
130.19685
 11
94.96063
 21
175.546916
  0
LINE
  5
3C8
100
AcDbEntity
  8
M0
 62
     7
100
AcDbLine
 10
114.96063
 20
130.19685
 11
114.96063
 21
165.132966
  0
LINE
  5
3C9
100
AcDbEntity
  8
M0
 62
     7
100
AcDbLine
 10
134.96063
 20
130.19685
 11
134.96063
 21
131.475938
  0
LINE
  5
3CA
100
AcDbEntity
  8
M0
 62
     7
100
AcDbLine
 10
159.96063
 20
185.19685
 11
74.96063
 21
185.19685
  0
LINE
  5
3CB
100
AcDbEntity
  8
M0
 62
     7
100
AcDbLine
 10
159.96063
 20
185.19685
 11
159.96063
 21
130.19685
  0
LINE
  5
3CC
100
AcDbEntity
  8
M0
 62
     7
100
AcDbLine
 10
84.3756
 20
180.19685
 11
74.96063
 21
180.19685
  0
LINE
  5
3CD
100
AcDbEntity
  8
M0
 62
     7
100
AcDbLine
 10
94.96063
 20
183.622719
 11
94.96063
 21
185.19685
  0
LINE
  5
3CE
100
AcDbEntity
  8
M0
 62
     7
100
AcDbLine
 10
94.96063
 20
179.272164
 11
94.96063
 21
180.796827
  0
LINE
  5
3CF
100
AcDbEntity
  8
M0
 62
     7
100
AcDbLine
 10
114.96063
 20
176.032204
 11
114.96063
 21
185.19685
  0
LINE
  5
3D0
100
AcDbEntity
  8
M0
 62
     7
100
AcDbLine
 10
114.96063
 20
169.12886
 11
114.96063
 21
171.321051
  0
LINE
  5
3D1
100
AcDbEntity
  8
M0
 62
     7
100
AcDbLine
 10
137.62555
 20
160.19685
 11
74.96063
 21
160.19685
  0
LINE
  5
3D2
100
AcDbEntity
  8
M0
 62
     7
100
AcDbLine
 10
154.96063
 20
149.207858
 11
154.96063
 21
185.19685
  0
LINE
  5
3D3
100
AcDbEntity
  8
M0
 62
     7
100
AcDbLine
 10
134.96063
 20
135.450006
 11
134.96063
 21
185.19685
  0
TEXT
  5
3D4
100
AcDbEntity
  8
M0
 62
     7
100
AcDbText
 10
72.008322
 20
123.967156
 40
4.0
  1
　０
 41
0.666667
  7
STANDARD
100
AcDbText
  0
TEXT
  5
3D5
100
AcDbEntity
  8
M0
 62
     7
100
AcDbText
 10
66.055815
 20
128.008813
 40
4.0
  1
　０
 41
0.666667
  7
STANDARD
100
AcDbText
  0
SPLINE
  5
3D6
100
AcDbEntity
  8
M0
100
AcDbSpline
210
0.0
220
0.0
230
-1.0
 70
     8
 71
     3
 72
    14
 73
    10
 43
0.0000001
 40
0.0
 40
0.0
 40
0.0
 40
0.0
 40
1.0
 40
1.0
 40
1.0
 40
2.0
 40
2.0
 40
2.0
 40
3.0
 40
3.0
 40
3.0
 40
3.0
 10
74.96063
 20
130.19685
 10
81.123199
 20
130.448516
 10
87.28577
 20
130.70018
 10
94.96063
 20
134.19685
 10
112.376936
 20
142.13173
 10
137.580883
 20
166.776966
 10
146.96063
 20
180.19685
 10
147.691315
 20
181.242264
 10
148.325973
 20
182.219557
 10
148.96063
 20
183.19685
  0
LINE
  5
3D7
100
AcDbEntity
  8
M0
100
AcDbLine
 10
74.96063
 20
180.19685
 11
142.96063
 21
137.19685
  0
SPLINE
  5
3D8
100
AcDbEntity
  8
M0
100
AcDbSpline
210
0.0
220
0.0
230
-1.0
 70
     8
 71
     3
 72
    11
 73
     7
 43
0.0000001
 40
0.0
 40
0.0
 40
0.0
 40
0.0
 40
1.0
 40
1.0
 40
1.0
 40
2.0
 40
2.0
 40
2.0
 40
2.0
 10
94.96063
 20
167.549792
 10
102.32295
 20
161.314768
 10
109.685266
 20
155.079747
 10
114.96063
 20
150.19685
 10
119.186937
 20
146.284964
 10
122.073782
 20
143.240908
 10
124.96063
 20
140.19685
  0
SPLINE
  5
3D9
100
AcDbEntity
  8
M0
 62
     6
100
AcDbSpline
210
0.0
220
0.0
230
-1.0
 70
     8
 71
     3
 72
    11
 73
     7
 43
0.0000001
 40
0.0
 40
0.0
 40
0.0
 40
0.0
 40
1.0
 40
1.0
 40
1.0
 40
2.0
 40
2.0
 40
2.0
 40
2.0
 10
74.96063
 20
166.19685
 10
90.936666
 20
156.545732
 10
106.912694
 20
146.894616
 10
114.96063
 20
139.19685
 10
115.668146
 20
138.520119
 10
116.314387
 20
137.858485
 10
116.96063
 20
137.19685
  0
SPLINE
  5
3DA
100
AcDbEntity
  8
M0
 62
     6
100
AcDbSpline
210
0.0
220
0.0
230
-1.0
 70
     8
 71
     3
 72
    11
 73
     7
 43
0.0000001
 40
0.0
 40
0.0
 40
0.0
 40
0.0
 40
1.0
 40
1.0
 40
1.0
 40
2.0
 40
2.0
 40
2.0
 40
2.0
 10
74.96063
 20
162.19685
 10
89.975938
 20
157.81163
 10
104.991241
 20
153.426409
 10
114.96063
 20
149.19685
 10
119.730781
 20
147.173092
 10
123.345704
 20
145.184971
 10
126.96063
 20
143.19685
  0
SPLINE
  5
3DB
100
AcDbEntity
  8
M0
 62
     6
100
AcDbSpline
210
0.0
220
0.0
230
-1.0
 70
     8
 71
     3
 72
    11
 73
     7
 43
0.0000001
 40
0.0
 40
0.0
 40
0.0
 40
0.0
 40
1.0
 40
1.0
 40
1.0
 40
2.0
 40
2.0
 40
2.0
 40
2.0
 10
74.96063
 20
162.19685
 10
82.293966
 20
157.280183
 10
89.627297
 20
152.363517
 10
94.96063
 20
148.19685
 10
100.293963
 20
144.030184
 10
103.627294
 20
140.613518
 10
106.96063
 20
137.19685
  0
SPLINE
  5
3DC
100
AcDbEntity
  8
M0
 62
     6
100
AcDbSpline
210
0.0
220
0.0
230
-1.0
 70
     8
 71
     3
 72
    11
 73
     7
 43
0.0000001
 40
0.0
 40
0.0
 40
0.0
 40
0.0
 40
1.0
 40
1.0
 40
1.0
 40
2.0
 40
2.0
 40
2.0
 40
2.0
 10
74.96063
 20
158.19685
 10
84.28064
 20
155.613517
 10
93.600644
 20
153.030184
 10
100.600644
 20
150.19685
 10
107.600644
 20
147.363517
 10
112.280634
 20
144.280183
 10
116.96063
 20
141.19685
  0
TEXT
  5
3DD
100
AcDbEntity
  8
M0
100
AcDbText
 10
105.353121
 20
115.098517
 40
4.0
  1
揚水量（Ｌ／分）
 41
0.770833
  7
STANDARD
100
AcDbText
  0
TEXT
  5
3DE
100
AcDbEntity
  8
M0
100
AcDbText
 10
55.814673
 20
165.850399
 40
3.5
  1
全
 41
0.952381
  7
STANDARD
100
AcDbText
  0
TEXT
  5
3DF
100
AcDbEntity
  8
M0
100
AcDbText
 10
55.814673
 20
161.350399
 40
3.5
  1
揚
 41
0.952381
  7
STANDARD
100
AcDbText
  0
TEXT
  5
3E0
100
AcDbEntity
  8
M0
100
AcDbText
 10
55.814673
 20
156.850399
 40
3.5
  1
程
 41
0.952381
  7
STANDARD
100
AcDbText
  0
TEXT
  5
3E1
100
AcDbEntity
  8
M0
100
AcDbText
 10
55.814673
 20
152.350399
 40
3.5
  1
ｍ
 41
0.952381
  7
STANDARD
100
AcDbText
  0
TEXT
  5
3E2
100
AcDbEntity
  8
M0
100
AcDbText
 10
52.518783
 20
151.536972
 40
4.0
  1
（　）
 41
0.770833
  7
STANDARD
100
AcDbText
  0
TEXT
  5
3E3
100
AcDbEntity
  8
M0
 62
     7
100
AcDbText
 10
157.919331
 20
87.838209
 40
4.0
  1
５０
 41
0.666667
  7
STANDARD
100
AcDbText
  0
TEXT
  5
3E4
100
AcDbEntity
  8
M0
 62
     7
100
AcDbText
 10
157.919331
 20
77.83821
 40
4.0
  1
４０
 41
0.666667
  7
STANDARD
100
AcDbText
  0
TEXT
  5
3E5
100
AcDbEntity
  8
M0
 62
     7
100
AcDbText
 10
157.919331
 20
67.838209
 40
4.0
  1
３０
 41
0.666667
  7
STANDARD
100
AcDbText
  0
TEXT
  5
3E6
100
AcDbEntity
  8
M0
 62
     7
100
AcDbText
 10
157.919331
 20
57.838201
 40
4.0
  1
２０
 41
0.666667
  7
STANDARD
100
AcDbText
  0
TEXT
  5
3E7
100
AcDbEntity
  8
M0
 62
     7
100
AcDbText
 10
157.919331
 20
47.838201
 40
4.0
  1
１０
 41
0.666667
  7
STANDARD
100
AcDbText
  0
TEXT
  5
3E8
100
AcDbEntity
  8
M0
 62
     7
100
AcDbText
 10
183.871837
 20
33.796545
 40
4.0
  1
１０
 41
0.666667
  7
STANDARD
100
AcDbText
  0
TEXT
  5
3E9
100
AcDbEntity
  8
M0
 62
     7
100
AcDbText
 10
203.796657
 20
33.796545
 40
4.0
  1
２０
 41
0.666667
  7
STANDARD
100
AcDbText
  0
TEXT
  5
3EA
100
AcDbEntity
  8
M0
 62
     7
100
AcDbText
 10
243.796661
 20
33.796545
 40
4.0
  1
４０
 41
0.666667
  7
STANDARD
100
AcDbText
  0
LINE
  5
3EB
100
AcDbEntity
  8
M0
 62
     7
100
AcDbLine
 10
166.824147
 20
100.026247
 11
166.824147
 21
40.026247
  0
LINE
  5
3EC
100
AcDbEntity
  8
M0
 62
     7
100
AcDbLine
 10
186.824147
 20
40.026247
 11
186.824147
 21
100.026247
  0
LINE
  5
3ED
100
AcDbEntity
  8
M0
 62
     7
100
AcDbLine
 10
206.824147
 20
40.026247
 11
206.824147
 21
43.099388
  0
LINE
  5
3EE
100
AcDbEntity
  8
M0
 62
     7
100
AcDbLine
 10
226.824147
 20
40.026247
 11
226.824147
 21
80.941655
  0
LINE
  5
3EF
100
AcDbEntity
  8
M0
 62
     7
100
AcDbLine
 10
246.824147
 20
40.026247
 11
246.824147
 21
100.026247
  0
LINE
  5
3F0
100
AcDbEntity
  8
M0
 62
     7
100
AcDbLine
 10
251.824147
 20
90.026247
 11
166.824147
 21
90.026247
  0
LINE
  5
3F1
100
AcDbEntity
  8
M0
 62
     7
100
AcDbLine
 10
251.824147
 20
70.026247
 11
244.674883
 21
70.026247
  0
LINE
  5
3F2
100
AcDbEntity
  8
M0
 62
     7
100
AcDbLine
 10
251.824147
 20
80.026247
 11
166.824147
 21
80.026247
  0
LINE
  5
3F3
100
AcDbEntity
  8
M0
 62
     7
100
AcDbLine
 10
251.824147
 20
60.026247
 11
166.824147
 21
60.026247
  0
LINE
  5
3F4
100
AcDbEntity
  8
M0
 62
     7
100
AcDbLine
 10
251.824147
 20
50.026247
 11
166.824147
 21
50.026247
  0
LINE
  5
3F5
100
AcDbEntity
  8
M0
 62
     7
100
AcDbLine
 10
166.824147
 20
40.026247
 11
251.824147
 21
40.026247
  0
TEXT
  5
3F6
100
AcDbEntity
  8
M0
 62
     7
100
AcDbText
 10
223.796657
 20
33.79656
 40
4.0
  1
３０
 41
0.666667
  7
STANDARD
100
AcDbText
  0
LINE
  5
3F7
100
AcDbEntity
  8
M0
 62
     7
100
AcDbLine
 10
251.824147
 20
100.026247
 11
251.824147
 21
40.026247
  0
LINE
  5
3F8
100
AcDbEntity
  8
M0
 62
     7
100
AcDbLine
 10
251.824147
 20
100.026247
 11
166.824147
 21
100.026247
  0
LINE
  5
3F9
100
AcDbEntity
  8
M0
 62
     7
100
AcDbLine
 10
226.824147
 20
97.843266
 11
226.824147
 21
100.026247
  0
LINE
  5
3FA
100
AcDbEntity
  8
M0
 62
     7
100
AcDbLine
 10
226.824147
 20
88.660484
 11
226.824147
 21
93.735764
  0
LINE
  5
3FB
100
AcDbEntity
  8
M0
 62
     7
100
AcDbLine
 10
226.824147
 20
84.195231
 11
226.824147
 21
85.878115
  0
LINE
  5
3FC
100
AcDbEntity
  8
M0
 62
     7
100
AcDbLine
 10
227.936031
 20
70.026247
 11
166.824147
 21
70.026247
  0
LINE
  5
3FD
100
AcDbEntity
  8
M0
 62
     7
100
AcDbLine
 10
206.824147
 20
50.026247
 11
206.824147
 21
72.840791
  0
LINE
  5
3FE
100
AcDbEntity
  8
M0
 62
     7
100
AcDbLine
 10
206.824147
 20
47.143783
 11
206.824147
 21
50.026247
  0
LINE
  5
3FF
100
AcDbEntity
  8
M0
 62
     7
100
AcDbLine
 10
206.824147
 20
77.275408
 11
206.824147
 21
100.026247
  0
TEXT
  5
400
100
AcDbEntity
  8
M0
 62
     7
100
AcDbText
 10
164.110279
 20
33.796552
 40
4.0
  1
　０
 41
0.666667
  7
STANDARD
100
AcDbText
  0
TEXT
  5
401
100
AcDbEntity
  8
M0
 62
     7
100
AcDbText
 10
157.919338
 20
37.838209
 40
4.0
  1
　０
 41
0.666667
  7
STANDARD
100
AcDbText
  0
TEXT
  5
402
100
AcDbEntity
  8
M0
100
AcDbText
 10
197.216639
 20
24.927911
 40
4.0
  1
揚水量（Ｌ／分）
 41
0.770833
  7
STANDARD
100
AcDbText
  0
LINE
  5
403
100
AcDbEntity
  8
M0
100
AcDbLine
 10
166.824147
 20
84.026247
 11
232.752248
 21
49.540778
  0
SPLINE
  5
404
100
AcDbEntity
  8
M0
  6
DASHED
100
AcDbSpline
210
0.0
220
0.0
230
-1.0
 70
     8
 71
     3
 72
    11
 73
     7
 43
0.0000001
 40
0.0
 40
0.0
 40
0.0
 40
0.0
 40
1.0
 40
1.0
 40
1.0
 40
2.0
 40
2.0
 40
2.0
 40
2.0
 10
166.824147
 20
68.026247
 10
173.000618
 20
66.192913
 10
179.177084
 20
64.359579
 10
186.824147
 20
63.026247
 10
194.47121
 20
61.692915
 10
203.588853
 20
60.85958
 10
212.7065
 20
60.026247
  0
LINE
  5
405
100
AcDbEntity
  8
M0
  6
DASHED
100
AcDbLine
 10
166.824147
 20
60.026247
 11
193.824147
 21
59.026247
  0
LINE
  5
406
100
AcDbEntity
  8
M0
  6
DASHED
100
AcDbLine
 10
193.824147
 20
59.026247
 11
194.824147
 21
61.851401
  0
SPLINE
  5
407
100
AcDbEntity
  8
M0
100
AcDbSpline
210
0.0
220
0.0
230
-1.0
 70
     8
 71
     3
 72
    11
 73
     7
 43
0.0000001
 40
0.0
 40
0.0
 40
0.0
 40
0.0
 40
1.0
 40
1.0
 40
1.0
 40
2.0
 40
2.0
 40
2.0
 40
2.0
 10
166.824147
 20
40.026247
 10
172.986716
 20
40.277913
 10
179.149287
 20
40.529576
 10
186.824147
 20
44.026247
 10
200.473654
 20
50.24497
 10
218.906464
 20
66.72748
 10
230.756444
 20
80.026247
  0
SPLINE
  5
408
100
AcDbEntity
  8
M0
100
AcDbSpline
210
0.0
220
0.0
230
-1.0
 70
     8
 71
     3
 72
    11
 73
     7
 43
0.0000001
 40
0.0
 40
0.0
 40
0.0
 40
0.0
 40
1.0
 40
1.0
 40
1.0
 40
2.0
 40
2.0
 40
2.0
 40
2.0
 10
234.464609
 20
84.344118
 10
236.14651
 20
86.384495
 10
237.616488
 20
88.298412
 10
238.824147
 20
90.026247
 10
239.554833
 20
91.07166
 10
240.18949
 20
92.048953
 10
240.824147
 20
93.026247
  0
TEXT
  5
409
100
AcDbEntity
  8
M0
100
AcDbText
 10
217.892204
 20
85.38814
 40
3.0
  1
ポンプ特性
 41
0.972222
  7
STANDARD
100
AcDbText
  0
TEXT
  5
40A
100
AcDbEntity
  8
M0
100
AcDbText
 10
217.892204
 20
81.296107
 40
3.0
  1
整圧弁組合セ特性
 41
0.972222
  7
STANDARD
100
AcDbText
  0
LINE
  5
40B
100
AcDbEntity
  8
M0
100
AcDbLine
 10
216.848538
 20
86.726247
 11
208.535795
 21
86.726247
  0
LINE
  5
40C
100
AcDbEntity
  8
M0
  6
DASHED
100
AcDbLine
 10
216.848538
 20
82.626247
 11
208.535795
 21
82.626247
  0
TEXT
  5
40D
100
AcDbEntity
  8
M0
100
AcDbText
 10
228.811931
 20
68.826637
 40
2.5
  1
ボールタップ
 41
0.9
  7
STANDARD
100
AcDbText
  0
TEXT
  5
40E
100
AcDbEntity
  8
M0
100
AcDbText
 10
228.81193
 20
66.126637
 40
2.5
  1
吐水特性
 41
0.9
  7
STANDARD
100
AcDbText
  0
TEXT
  5
40F
100
AcDbEntity
  8
M0
100
AcDbText
 10
228.811929
 20
63.426637
 40
2.5
  1
（１３ｍｍ）
 41
0.9
  7
STANDARD
100
AcDbText
  0
LINE
  5
410
100
AcDbEntity
  8
M0
 62
     6
100
AcDbLine
 10
40.787402
 20
277.832112
 11
40.787402
 21
265.832112
  0
LINE
  5
411
100
AcDbEntity
  8
M0
 62
     6
100
AcDbLine
 10
65.787402
 20
265.832112
 11
65.787402
 21
277.832112
  0
LINE
  5
412
100
AcDbEntity
  8
M0
 62
     6
100
AcDbLine
 10
65.787402
 20
277.832112
 11
40.787402
 21
277.832112
  0
LINE
  5
413
100
AcDbEntity
  8
M0
 62
     6
100
AcDbLine
 10
40.787402
 20
265.832112
 11
65.787402
 21
265.832112
  0
TEXT
  5
414
100
AcDbEntity
  8
M0
 62
     6
100
AcDbText
 10
40.921469
 20
267.561934
 40
8.0
  1
仕様
 41
1.354167
  7
STANDARD
100
AcDbText
  0
LINE
  5
415
100
AcDbEntity
  8
M0
 62
     6
100
AcDbLine
 10
40.787402
 20
205.467854
 11
40.787402
 21
193.467854
  0
LINE
  5
416
100
AcDbEntity
  8
M0
 62
     6
100
AcDbLine
 10
65.787402
 20
193.467854
 11
65.787402
 21
205.467854
  0
LINE
  5
417
100
AcDbEntity
  8
M0
 62
     6
100
AcDbLine
 10
65.787402
 20
205.467854
 11
40.787402
 21
205.467854
  0
LINE
  5
418
100
AcDbEntity
  8
M0
 62
     6
100
AcDbLine
 10
40.787402
 20
193.467854
 11
65.787402
 21
193.467854
  0
TEXT
  5
419
100
AcDbEntity
  8
M0
 62
     6
100
AcDbText
 10
43.775998
 20
195.337292
 40
8.0
  1
揚水性能
 41
0.520833
  7
STANDARD
100
AcDbText
  0
TEXT
  5
41A
100
AcDbEntity
  8
M0
 62
     1
100
AcDbText
 10
70.246103
 20
200.114809
 40
4.0
  1
〔備考〕　ボールタップ：日本工業規格（ＪＩＳ　Ｂ２０６１給水栓）認定品
 41
0.875
  7
STANDARD
100
AcDbText
  0
TEXT
  5
41B
100
AcDbEntity
  8
M0
 62
     1
100
AcDbText
 10
70.246102
 20
195.91481
 40
4.0
  1
　　　　　許可番号：ＪＩＳ４７７０２７（兼工業型番ＳＨ１３－３ＨＴ－Ｂ）
 41
0.875
  7
STANDARD
100
AcDbText
  0
LINE
  5
41C
100
AcDbEntity
  8
M0
 62
     6
100
AcDbLine
 10
256.115486
 20
264.651945
 11
256.115486
 21
252.651945
  0
LINE
  5
41D
100
AcDbEntity
  8
M0
 62
     6
100
AcDbLine
 10
281.115486
 20
252.651945
 11
281.115486
 21
264.651945
  0
LINE
  5
41E
100
AcDbEntity
  8
M0
 62
     6
100
AcDbLine
 10
281.115486
 20
264.651945
 11
256.115486
 21
264.651945
  0
LINE
  5
41F
100
AcDbEntity
  8
M0
 62
     6
100
AcDbLine
 10
256.115486
 20
252.651945
 11
281.115486
 21
252.651945
  0
TEXT
  5
420
100
AcDbEntity
  8
M0
 62
     6
100
AcDbText
 10
258.01259
 20
254.500312
 40
8.0
  1
配線図
 41
0.78125
  7
STANDARD
100
AcDbText
  0
TEXT
  5
421
100
AcDbEntity
  8
M0
100
AcDbText
 10
150.696052
 20
75.679792
 40
3.5
  1
全
 41
0.952381
  7
STANDARD
100
AcDbText
  0
TEXT
  5
422
100
AcDbEntity
  8
M0
100
AcDbText
 10
150.696052
 20
71.179792
 40
3.5
  1
揚
 41
0.952381
  7
STANDARD
100
AcDbText
  0
TEXT
  5
423
100
AcDbEntity
  8
M0
100
AcDbText
 10
150.696052
 20
66.679792
 40
3.5
  1
程
 41
0.952381
  7
STANDARD
100
AcDbText
  0
TEXT
  5
424
100
AcDbEntity
  8
M0
100
AcDbText
 10
150.696052
 20
62.179792
 40
3.5
  1
ｍ
 41
0.952381
  7
STANDARD
100
AcDbText
  0
TEXT
  5
425
100
AcDbEntity
  8
M0
100
AcDbText
 10
147.400163
 20
61.366369
 40
4.0
  1
（　）
 41
0.770833
  7
STANDARD
100
AcDbText
  0
TEXT
  5
426
100
AcDbEntity
  8
M0
 62
     6
100
AcDbText
 10
156.417979
 20
106.799664
 40
4.5
  1
●　ＷＴ－ＰＬ３００Ｈ，Ｊノ場合
 41
0.777778
  7
STANDARD
100
AcDbText
  0
TEXT
  5
427
100
AcDbEntity
  8
M0
100
AcDbText
 10
138.539902
 20
159.330103
 40
2.5
  1
ボールタップ
 41
0.9
  7
STANDARD
100
AcDbText
  0
TEXT
  5
428
100
AcDbEntity
  8
M0
100
AcDbText
 10
138.539901
 20
156.630103
 40
2.5
  1
吐水特性
 41
0.9
  7
STANDARD
100
AcDbText
  0
TEXT
  5
429
100
AcDbEntity
  8
M0
100
AcDbText
 10
138.5399
 20
153.930103
 40
2.5
  1
（１３ｍｍ）
 41
0.9
  7
STANDARD
100
AcDbText
  0
TEXT
  5
42A
100
AcDbEntity
  8
M0
100
AcDbText
 10
208.090181
 20
94.568557
 40
3.0
  1
基準吸込揚程０ｍ時
 41
0.972222
  7
STANDARD
100
AcDbText
  0
TEXT
  5
42B
100
AcDbEntity
  8
M0
100
AcDbText
 10
286.418026
 20
256.293695
 40
5.0
  1
搭載ポンプ機種：ＷＴ－Ｈ，Ｊ形
 41
0.866667
  7
STANDARD
100
AcDbText
  0
TEXT
  5
42C
100
AcDbEntity
  8
M0
100
AcDbText
 10
287.38498
 20
175.030706
 40
5.0
  1
搭載ポンプ機種：ＷＭ－Ｈ，Ｊ形
 41
0.866667
  7
STANDARD
100
AcDbText
  0
ENDSEC
  0
SECTION
  2
OBJECTS
  0
DICTIONARY
  5
C
100
AcDbDictionary
  3
ACAD_GROUP
350
D
  3
ACAD_MLINESTYLE
350
E
  0
DICTIONARY
  5
D
102
{ACAD_REACTORS
330
C
102
}
100
AcDbDictionary
  0
DICTIONARY
  5
E
102
{ACAD_REACTORS
330
C
102
}
100
AcDbDictionary
  3
STANDARD
350
13
  0
MLINESTYLE
  5
13
102
{ACAD_REACTORS
330
E
102
}
100
AcDbMlineStyle
  2
STANDARD
 70
     0
  3

 62
     0
 51
90.0
 52
90.0
 71
     2
 49
0.5
 62
   256
  6
BYLAYER
 49
-0.5
 62
   256
  6
BYLAYER
  0
ENDSEC
  0
EOF
