  0
SECTION
  2
HEADER
  9
$ACADVER
  1
AC1012
  9
$INSBASE
 10
0.0
 20
0.0
  9
$VIEWCTR
 10
7.531722
 20
4.5
  9
$VIEWSIZE
 40
9.0
  9
$SNAPMODE
 70
     0
  9
$SNAPUNIT
 10
1.0
 20
1.0
  9
$SNAPBASE
 10
0.0
 20
0.0
  9
$SNAPANG
 50
0.0
  9
$SNAPSTYLE
 70
     0
  9
$SNAPISOPAIR
 70
     0
  9
$GRIDMODE
 70
     0
  9
$GRIDUNIT
 10
0.0
 20
0.0
  9
$ORTHOMODE
 70
     0
  9
$REGENMODE
 70
     1
  9
$FILLMODE
 70
     1
  9
$QTEXTMODE
 70
     0
  9
$DRAGMODE
 70
     2
  9
$LTSCALE
 40
1.0
  9
$OSMODE
 70
     0
  9
$ATTMODE
 70
     1
  9
$TEXTSIZE
 40
0.2
  9
$TRACEWID
 40
0.05
  9
$TEXTSTYLE
  7
STANDARD
  9
$CELTYPE
  6
BYLAYER
  9
$CECOLOR
 62
   256
  9
$DIMSCALE
 40
1.0
  9
$DIMASZ
 40
0.18
  9
$DIMEXO
 40
0.0625
  9
$DIMDLI
 40
0.38
  9
$DIMRND
 40
0.0
  9
$DIMDLE
 40
0.0
  9
$DIMEXE
 40
0.18
  9
$DIMTP
 40
0.0
  9
$DIMTM
 40
0.0
  9
$DIMTXT
 40
0.18
  9
$DIMCEN
 40
0.09
  9
$DIMTSZ
 40
0.0
  9
$DIMTOL
 70
     0
  9
$DIMLIM
 70
     0
  9
$DIMTIH
 70
     1
  9
$DIMTOH
 70
     1
  9
$DIMSE1
 70
     0
  9
$DIMSE2
 70
     0
  9
$DIMTAD
 70
     0
  9
$DIMZIN
 70
     0
  9
$DIMBLK
  1

  9
$LUNITS
 70
     2
  9
$LUPREC
 70
     4
  9
$AXISMODE
 70
     0
  9
$AXISUNIT
 10
0.0
 20
0.0
  9
$SKETCHINC
 40
0.1
  9
$FILLETRAD
 40
0.0
  9
$AUNITS
 70
     0
  9
$AUPREC
 70
     0
  9
$MENU
  1
ACAD
  9
$ELEVATION
 40
0.0
  9
$THICKNESS
 40
0.0
  9
$VIEWDIR
 10
0.0
 20
0.0
 30
1.0
  9
$LIMCHECK
 70
     0
  9
$BLIPMODE
 70
     1
  9
$CHAMFERA
 40
0.0
  9
$CHAMFERB
 40
0.0
  9
$FASTZOOM
 70
     1
  9
$SKPOLY
 70
     0
  9
$TDCREATE
 40
0000000.0000000000
  9
$TDUPDATE
 40
0000000.0000000000
  9
$TDINDWG
 40
0.0000000000
  9
$TDUSRTIMER
 40
0.0000000000
  9
$USRTIMER
 70
     1
  9
$ANGBASE
 50
0.0
  9
$ANGDIR
 70
     0
  9
$PDMODE
 70
     0
  9
$PDSIZE
 40
0.0
  9
$PLINEWID
 40
0.0
  9
$COORDS
 70
     0
  9
$USERI1
 70
     0
  9
$USERI2
 70
     0
  9
$USERI3
 70
     0
  9
$USERI4
 70
     0
  9
$USERI5
 70
     0
  9
$USERR1
 40
0.0
  9
$USERR2
 40
0.0
  9
$USERR3
 40
0.0
  9
$USERR4
 40
0.0
  9
$USERR5
 40
0.0
  9
$CLAYER
  8
M0
  9
$EXTMIN
 10
0.0
 20
0.0
  9
$EXTMAX
 10
420.0
 20
297.0
  9
$LIMMIN
 10
0.0
 20
0.0
  9
$LIMMAX
 10
420.0
 20
297.0
  9
$HANDSEED
  5
3BC
  0
ENDSEC
  0
SECTION
  2
CLASSES
  0
ENDSEC
  0
SECTION
  2
TABLES
  0
TABLE
  2
VPORT
  5
8
100
AcDbSymbolTable
 70
     2
  0
VPORT
  5
14
100
AcDbSymbolTableRecord
100
AcDbViewportTableRecord
  2
*ACTIVE
 70
     0
 10
0.0
 20
0.0
 11
1.0
 21
1.0
 12
484.0
 22
297.0
 13
0.0
 23
0.0
 14
1.0
 24
1.0
 15
0.0
 25
0.0
 16
0.0
 26
0.0
 36
1.0
 17
0.0
 27
0.0
 37
0.0
 40
594.0
 41
2.0
 42
50.0
 43
0.0
 44
0.0
 50
0.0
 51
0.0
 71
     0
 72
   100
 73
     1
 74
     1
 75
     0
 76
     0
 77
     0
 78
     0
  0
ENDTAB
  0
TABLE
  2
LTYPE
  5
5
100
AcDbSymbolTable
 70
     5
  0
LTYPE
  5
15
100
AcDbSymbolTableRecord
100
AcDbLinetypeTableRecord
  2
BYBLOCK
 70
     0
  3

 72
    65
 73
     0
 40
0.0
  0
LTYPE
  5
16
100
AcDbSymbolTableRecord
100
AcDbLinetypeTableRecord
  2
BYLAYER
 70
     0
  3

 72
    65
 73
     0
 40
0.0
  0
LTYPE
  5
17
100
AcDbSymbolTableRecord
100
AcDbLinetypeTableRecord
  2
CONTINUOUS
 70
    64
  3
Solid line
 72
    65
 73
     0
 40
0.0
  0
LTYPE
  5
18
100
AcDbSymbolTableRecord
100
AcDbLinetypeTableRecord
  2
DASHED
 70
    64
  3
__ __ __ __ __ __ __ __ __ __ __ __ __ __ __ __
 72
    65
 73
     2
 40
0.75
 49
0.5
 74
     0
 49
-0.25
 74
     0
  0
LTYPE
  5
19
100
AcDbSymbolTableRecord
100
AcDbLinetypeTableRecord
  2
DASHDOT
 70
    64
  3
__ . __ . __ . __ . __ . __ . __ . __ . __ . __
 72
    65
 73
     4
 40
1.0
 49
0.5
 74
     0
 49
-0.25
 74
     0
 49
0.0
 74
     0
 49
-0.25
 74
     0
  0
LTYPE
  5
1A
100
AcDbSymbolTableRecord
100
AcDbLinetypeTableRecord
  2
DIVIDE
 70
    64
  3
____ . . ____ . . ____ . . ____ . . ____ . . __
 72
    65
 73
     6
 40
1.25
 49
0.5
 74
     0
 49
-0.25
 74
     0
 49
0.0
 74
     0
 49
-0.25
 74
     0
 49
0.0
 74
     0
 49
-0.25
 74
     0
  0
LTYPE
  5
1B
100
AcDbSymbolTableRecord
100
AcDbLinetypeTableRecord
  2
DOT
 70
    64
  3
. . . . . . . . . . . . . . . . . . . . . . . .
 72
    65
 73
     2
 40
0.25
 49
0.0
 74
     0
 49
-0.25
 74
     0
  0
ENDTAB
  0
TABLE
  2
LAYER
  5
2
100
AcDbSymbolTable
 70
   102
  0
LAYER
  5
F
100
AcDbSymbolTableRecord
100
AcDbLayerTableRecord
  2
0
 70
     0
 62
     7
  6
CONTINUOUS
  0
LAYER
  5
1C
100
AcDbSymbolTableRecord
100
AcDbLayerTableRecord
  2
DEFPOINTS
 70
     0
 62
     7
  6
CONTINUOUS
  0
LAYER
  5
1D
100
AcDbSymbolTableRecord
100
AcDbLayerTableRecord
  2
M0
 70
     0
 62
     3
  6
CONTINUOUS
  0
LAYER
  5
1E
100
AcDbSymbolTableRecord
100
AcDbLayerTableRecord
  2
DD0
 70
     0
 62
     4
  6
CONTINUOUS
  0
ENDTAB
  0
TABLE
  2
STYLE
  5
3
100
AcDbSymbolTable
 70
     2
  0
STYLE
  5
10
100
AcDbSymbolTableRecord
100
AcDbTextStyleTableRecord
  2
STANDARD
 70
     0
 40
0.0
 41
1.0
 50
0.0
 71
     0
 42
0.2
  3
txt
  4
BIGFONT
  0
ENDTAB
  0
TABLE
  2
VIEW
  5
6
100
AcDbSymbolTable
 70
     0
  0
ENDTAB
  0
TABLE
  2
UCS
  5
7
100
AcDbSymbolTable
 70
     0
  0
ENDTAB
  0
TABLE
  2
APPID
  5
9
100
AcDbSymbolTable
 70
     1
  0
APPID
  5
11
100
AcDbSymbolTableRecord
100
AcDbRegAppTableRecord
  2
ACAD
 70
     0
  0
ENDTAB
  0
TABLE
  2
DIMSTYLE
  5
A
100
AcDbSymbolTable
 70
     2
  0
DIMSTYLE
105
25
100
AcDbSymbolTableRecord
100
AcDbDimStyleTableRecord
  2
STANDARD
 70
     0
  3

  4

  5

  6
_OPEN
  7
_OPEN
 40
1.0
 41
3.0
 42
0.0
 43
8.0
 44
1.5
 45
0.0
 46
0.0
 47
0.0
 48
0.0
140
2.5
141
0.09
142
0.0
143
0.03937
144
1.0
145
0.0
146
1.0
147
0.7
 71
     0
 72
     0
 73
     0
 74
     0
 75
     0
 76
     0
 77
     3
 78
     8
170
     0
171
     2
172
     0
173
     1
174
     0
175
     0
176
     0
177
     0
178
     0
270
     2
271
     2
272
     4
273
     2
274
     2
340
10
275
     0
280
     0
281
     0
282
     0
283
     1
284
     0
285
     0
286
     0
287
     3
288
     0
  0
DIMSTYLE
105
26
100
AcDbSymbolTableRecord
100
AcDbDimStyleTableRecord
  2
LEADSTYL
 70
     0
  3

  4

  5

  6
_OPEN
  7
_OPEN
 40
1.0
 41
3.0
 42
0.0625
 43
0.38
 44
0.18
 45
0.0
 46
0.0
 47
0.0
 48
0.0
140
3.5
141
0.09
142
0.0
143
25.4
144
1.0
145
0.0
146
1.0
147
1.0
 71
     0
 72
     0
 73
     1
 74
     1
 75
     0
 76
     0
 77
     0
 78
     0
170
     0
171
     2
172
     0
173
     1
174
     0
175
     0
176
     0
177
     0
178
     0
270
     2
271
     4
272
     4
273
     2
274
     2
340
10
275
     0
280
     0
281
     0
282
     0
283
     1
284
     0
285
     0
286
     0
287
     3
288
     0
  0
ENDTAB
  0
TABLE
  2
BLOCK_RECORD
  5
1
100
AcDbSymbolTable
 70
    30
  0
BLOCK_RECORD
  5
1F
100
AcDbSymbolTableRecord
100
AcDbBlockTableRecord
  2
*MODEL_SPACE
  0
BLOCK_RECORD
  5
22
100
AcDbSymbolTableRecord
100
AcDbBlockTableRecord
  2
*PAPER_SPACE
  0
BLOCK_RECORD
  5
27
100
AcDbSymbolTableRecord
100
AcDbBlockTableRecord
  2
_NONE
  0
BLOCK_RECORD
  5
2B
100
AcDbSymbolTableRecord
100
AcDbBlockTableRecord
  2
_OPEN
  0
BLOCK_RECORD
  5
31
100
AcDbSymbolTableRecord
100
AcDbBlockTableRecord
  2
_CLOSED
  0
BLOCK_RECORD
  5
38
100
AcDbSymbolTableRecord
100
AcDbBlockTableRecord
  2
_ORIGIN
  0
BLOCK_RECORD
  5
3D
100
AcDbSymbolTableRecord
100
AcDbBlockTableRecord
  2
_DOT
  0
BLOCK_RECORD
  5
45
100
AcDbSymbolTableRecord
100
AcDbBlockTableRecord
  2
_OBLIQUE
  0
BLOCK_RECORD
  5
49
100
AcDbSymbolTableRecord
100
AcDbBlockTableRecord
  2
DIMS0
  0
BLOCK_RECORD
  5
55
100
AcDbSymbolTableRecord
100
AcDbBlockTableRecord
  2
DIMS1
  0
BLOCK_RECORD
  5
61
100
AcDbSymbolTableRecord
100
AcDbBlockTableRecord
  2
DIMS2
  0
BLOCK_RECORD
  5
6D
100
AcDbSymbolTableRecord
100
AcDbBlockTableRecord
  2
DIMS3
  0
BLOCK_RECORD
  5
79
100
AcDbSymbolTableRecord
100
AcDbBlockTableRecord
  2
DIMS4
  0
BLOCK_RECORD
  5
85
100
AcDbSymbolTableRecord
100
AcDbBlockTableRecord
  2
DIMS5
  0
BLOCK_RECORD
  5
91
100
AcDbSymbolTableRecord
100
AcDbBlockTableRecord
  2
DIMS6
  0
BLOCK_RECORD
  5
9D
100
AcDbSymbolTableRecord
100
AcDbBlockTableRecord
  2
DIMS7
  0
BLOCK_RECORD
  5
A8
100
AcDbSymbolTableRecord
100
AcDbBlockTableRecord
  2
DIMS8
  0
BLOCK_RECORD
  5
B2
100
AcDbSymbolTableRecord
100
AcDbBlockTableRecord
  2
DIMS9
  0
BLOCK_RECORD
  5
BC
100
AcDbSymbolTableRecord
100
AcDbBlockTableRecord
  2
DIMS10
  0
BLOCK_RECORD
  5
D2
100
AcDbSymbolTableRecord
100
AcDbBlockTableRecord
  2
DIMS11
  0
BLOCK_RECORD
  5
DC
100
AcDbSymbolTableRecord
100
AcDbBlockTableRecord
  2
DIMS12
  0
BLOCK_RECORD
  5
E6
100
AcDbSymbolTableRecord
100
AcDbBlockTableRecord
  2
DIMS13
  0
BLOCK_RECORD
  5
F0
100
AcDbSymbolTableRecord
100
AcDbBlockTableRecord
  2
DIMS14
  0
BLOCK_RECORD
  5
FA
100
AcDbSymbolTableRecord
100
AcDbBlockTableRecord
  2
DIMS15
  0
BLOCK_RECORD
  5
104
100
AcDbSymbolTableRecord
100
AcDbBlockTableRecord
  2
DIMS16
  0
BLOCK_RECORD
  5
110
100
AcDbSymbolTableRecord
100
AcDbBlockTableRecord
  2
DIMS17
  0
BLOCK_RECORD
  5
11A
100
AcDbSymbolTableRecord
100
AcDbBlockTableRecord
  2
DIMS18
  0
BLOCK_RECORD
  5
124
100
AcDbSymbolTableRecord
100
AcDbBlockTableRecord
  2
DIMS19
  0
BLOCK_RECORD
  5
12E
100
AcDbSymbolTableRecord
100
AcDbBlockTableRecord
  2
DIMS20
  0
BLOCK_RECORD
  5
139
100
AcDbSymbolTableRecord
100
AcDbBlockTableRecord
  2
DIMS21
  0
BLOCK_RECORD
  5
151
100
AcDbSymbolTableRecord
100
AcDbBlockTableRecord
  2
DIMS22
  0
BLOCK_RECORD
  5
15B
100
AcDbSymbolTableRecord
100
AcDbBlockTableRecord
  2
DIMS23
  0
ENDTAB
  0
ENDSEC
  0
SECTION
  2
BLOCKS
  0
BLOCK
  5
20
100
AcDbEntity
  8
0
100
AcDbBlockBegin
  2
*MODEL_SPACE
 70
     0
 10
0.0
 20
0.0
 30
0.0
  3
*MODEL_SPACE
  1

  0
ENDBLK
  5
21
100
AcDbEntity
  8
0
100
AcDbBlockEnd
  0
BLOCK
  5
23
100
AcDbEntity
 67
     1
  8
0
100
AcDbBlockBegin
  2
*PAPER_SPACE
 70
     0
 10
0.0
 20
0.0
 30
0.0
  3
*PAPER_SPACE
  1

  0
ENDBLK
  5
24
100
AcDbEntity
 67
     1
  8
0
100
AcDbBlockEnd
  0
BLOCK
  5
28
100
AcDbEntity
  8
0
100
AcDbBlockBegin
  2
_NONE
 70
     0
 10
0.0
 20
0.0
  0
CIRCLE
  5
29
100
AcDbEntity
  8
0
 62
     0
100
AcDbCircle
 10
0.0
 20
0.0
 40
0.25
  0
ENDBLK
  5
2A
100
AcDbEntity
  8
0
100
AcDbBlockEnd
  0
BLOCK
  5
2C
100
AcDbEntity
  8
0
100
AcDbBlockBegin
  2
_OPEN
 70
     0
 10
0.0
 20
0.0
  0
LINE
  5
2D
100
AcDbEntity
  8
0
 62
     0
100
AcDbLine
 10
-0.965926
 20
0.25882
 11
0.0
 21
0.0
  0
LINE
  5
2E
100
AcDbEntity
  8
0
 62
     0
100
AcDbLine
 10
0.0
 20
0.0
 11
-0.965926
 21
-0.25882
  0
LINE
  5
2F
100
AcDbEntity
  8
0
 62
     0
100
AcDbLine
 10
0.0
 20
0.0
 11
-1.0
 21
0.0
  0
ENDBLK
  5
30
100
AcDbEntity
  8
0
100
AcDbBlockEnd
  0
BLOCK
  5
32
100
AcDbEntity
  8
0
100
AcDbBlockBegin
  2
_CLOSED
 70
     0
 10
0.0
 20
0.0
  0
LINE
  5
33
100
AcDbEntity
  8
0
 62
     0
100
AcDbLine
 10
-0.965926
 20
0.25882
 11
0.0
 21
0.0
  0
LINE
  5
34
100
AcDbEntity
  8
0
 62
     0
100
AcDbLine
 10
0.0
 20
0.0
 11
-0.965926
 21
-0.25882
  0
LINE
  5
35
100
AcDbEntity
  8
0
 62
     0
100
AcDbLine
 10
-0.965926
 20
0.25882
 11
-0.965926
 21
-0.25882
  0
LINE
  5
36
100
AcDbEntity
  8
0
 62
     0
100
AcDbLine
 10
0.0
 20
0.0
 11
-1.0
 21
0.0
  0
ENDBLK
  5
37
100
AcDbEntity
  8
0
100
AcDbBlockEnd
  0
BLOCK
  5
39
100
AcDbEntity
  8
0
100
AcDbBlockBegin
  2
_ORIGIN
 70
     0
 10
0.0
 20
0.0
  0
CIRCLE
  5
3A
100
AcDbEntity
  8
0
 62
     0
100
AcDbCircle
 10
0.0
 20
0.0
 40
0.5
  0
LINE
  5
3B
100
AcDbEntity
  8
0
 62
     0
100
AcDbLine
 10
0.0
 20
0.0
 11
-1.0
 21
0.0
  0
ENDBLK
  5
3C
100
AcDbEntity
  8
0
100
AcDbBlockEnd
  0
BLOCK
  5
3E
100
AcDbEntity
  8
0
100
AcDbBlockBegin
  2
_DOT
 70
     0
 10
0.0
 20
0.0
  0
POLYLINE
  5
3F
100
AcDbEntity
  8
0
 62
     0
100
AcDb2dPolyline
 66
     1
 70
     1
 40
0.5
 41
0.5
  0
VERTEX
  5
40
100
AcDbEntity
  8
0
 62
     0
100
AcDbVertex
100
AcDb2dVertex
 10
-0.25
 20
0.0
 42
1.0
  0
VERTEX
  5
41
100
AcDbEntity
  8
0
 62
     0
100
AcDbVertex
100
AcDb2dVertex
 10
0.25
 20
0.0
 42
1.0
  0
SEQEND
  5
42
100
AcDbEntity
  8
0
 62
     0
  0
LINE
  5
43
100
AcDbEntity
  8
0
 62
     0
100
AcDbLine
 10
-0.5
 20
0.0
 11
-1.0
 21
0.0
  0
ENDBLK
  5
44
100
AcDbEntity
  8
0
100
AcDbBlockEnd
  0
BLOCK
  5
46
100
AcDbEntity
  8
0
100
AcDbBlockBegin
  2
_OBLIQUE
 70
     0
 10
0.0
 20
0.0
  0
LINE
  5
47
100
AcDbEntity
  8
0
 62
     0
100
AcDbLine
 10
-0.353553
 20
-0.353553
 11
0.353553
 21
0.353553
  0
ENDBLK
  5
48
100
AcDbEntity
  8
0
100
AcDbBlockEnd
  0
BLOCK
  5
4A
100
AcDbEntity
  8
DD0
100
AcDbBlockBegin
  2
DIMS0
 70
     0
 10
0.0
 20
0.0
  0
LINE
  5
4B
100
AcDbEntity
  8
DD0
100
AcDbLine
 10
148.075592
 20
224.122894
 11
148.075592
 21
229.240829
  0
LINE
  5
4C
100
AcDbEntity
  8
DD0
100
AcDbLine
 10
155.235596
 20
213.617691
 11
155.235596
 21
229.240829
  0
INSERT
  5
4D
100
AcDbEntity
  8
DD0
100
AcDbBlockReference
  2
_OPEN
 10
155.235596
 20
227.740829
 41
3.0
 42
3.0
 50
180.0
  0
INSERT
  5
4E
100
AcDbEntity
  8
DD0
100
AcDbBlockReference
  2
_OPEN
 10
148.075592
 20
227.740829
 41
3.0
 42
3.0
  0
LINE
  5
4F
100
AcDbEntity
  8
DD0
100
AcDbLine
 10
144.775592
 20
227.740829
 11
145.075592
 21
227.740829
  0
LINE
  5
50
100
AcDbEntity
  8
DD0
100
AcDbLine
 10
148.075592
 20
227.740829
 11
155.235596
 21
227.740829
  0
LINE
  5
51
100
AcDbEntity
  8
DD0
100
AcDbLine
 10
158.235596
 20
227.740829
 11
196.371475
 21
227.740829
  0
TEXT
  5
52
100
AcDbEntity
  8
DD0
100
AcDbText
 10
173.079801
 20
228.440826
 40
2.5
  1
Ｆ（ＷＭ－形位置）
 50
-9.159997E-013
 41
0.833333
  7
STANDARD
100
AcDbText
  0
ENDBLK
  5
53
100
AcDbEntity
  8
DD0
100
AcDbBlockEnd
  0
BLOCK
  5
56
100
AcDbEntity
  8
DD0
100
AcDbBlockBegin
  2
DIMS1
 70
     0
 10
0.0
 20
0.0
  0
LINE
  5
57
100
AcDbEntity
  8
DD0
100
AcDbLine
 10
148.075592
 20
192.804001
 11
148.075592
 21
183.040817
  0
LINE
  5
58
100
AcDbEntity
  8
DD0
100
AcDbLine
 10
151.235596
 20
201.598343
 11
151.235596
 21
183.040817
  0
INSERT
  5
59
100
AcDbEntity
  8
DD0
100
AcDbBlockReference
  2
_OPEN
 10
151.235596
 20
184.540817
 41
3.0
 42
3.0
 50
180.0
  0
INSERT
  5
5A
100
AcDbEntity
  8
DD0
100
AcDbBlockReference
  2
_OPEN
 10
148.075592
 20
184.540817
 41
3.0
 42
3.0
  0
LINE
  5
5B
100
AcDbEntity
  8
DD0
100
AcDbLine
 10
118.775593
 20
184.540817
 11
145.075592
 21
184.540817
  0
LINE
  5
5C
100
AcDbEntity
  8
DD0
100
AcDbLine
 10
148.075592
 20
184.540817
 11
151.235596
 21
184.540817
  0
LINE
  5
5D
100
AcDbEntity
  8
DD0
100
AcDbLine
 10
154.235596
 20
184.540817
 11
154.535596
 21
184.540817
  0
TEXT
  5
5E
100
AcDbEntity
  8
DD0
100
AcDbText
 10
119.62393
 20
185.240814
 40
2.5
  1
Ｅ（ＷＭ－形給水口）
 41
0.833333
  7
STANDARD
100
AcDbText
  0
ENDBLK
  5
5F
100
AcDbEntity
  8
DD0
100
AcDbBlockEnd
  0
BLOCK
  5
62
100
AcDbEntity
  8
DD0
100
AcDbBlockBegin
  2
DIMS2
 70
     0
 10
0.0
 20
0.0
  0
LINE
  5
63
100
AcDbEntity
  8
DD0
100
AcDbLine
 10
148.075592
 20
192.804001
 11
148.075592
 21
178.240829
  0
LINE
  5
64
100
AcDbEntity
  8
DD0
100
AcDbLine
 10
155.955597
 20
198.013931
 11
155.955597
 21
178.240829
  0
INSERT
  5
65
100
AcDbEntity
  8
DD0
100
AcDbBlockReference
  2
_OPEN
 10
155.955597
 20
179.740829
 41
3.0
 42
3.0
 50
180.0
  0
INSERT
  5
66
100
AcDbEntity
  8
DD0
100
AcDbBlockReference
  2
_OPEN
 10
148.075592
 20
179.740829
 41
3.0
 42
3.0
  0
LINE
  5
67
100
AcDbEntity
  8
DD0
100
AcDbLine
 10
118.775593
 20
179.740829
 11
145.075592
 21
179.740829
  0
LINE
  5
68
100
AcDbEntity
  8
DD0
100
AcDbLine
 10
148.075592
 20
179.740829
 11
155.955597
 21
179.740829
  0
LINE
  5
69
100
AcDbEntity
  8
DD0
100
AcDbLine
 10
158.955597
 20
179.740829
 11
159.255597
 21
179.740829
  0
TEXT
  5
6A
100
AcDbEntity
  8
DD0
100
AcDbText
 10
119.62393
 20
180.440826
 40
2.5
  1
Ｅ（ＷＴ－形給水口）
 41
0.833333
  7
STANDARD
100
AcDbText
  0
ENDBLK
  5
6B
100
AcDbEntity
  8
DD0
100
AcDbBlockEnd
  0
BLOCK
  5
6E
100
AcDbEntity
  8
DD0
100
AcDbBlockBegin
  2
DIMS3
 70
     0
 10
0.0
 20
0.0
  0
LINE
  5
6F
100
AcDbEntity
  8
DD0
100
AcDbLine
 10
163.066681
 20
207.420822
 11
202.375595
 21
207.420822
  0
LINE
  5
70
100
AcDbEntity
  8
DD0
100
AcDbLine
 10
173.075592
 20
208.540817
 11
202.375595
 21
208.540817
  0
INSERT
  5
71
100
AcDbEntity
  8
DD0
100
AcDbBlockReference
  2
_OPEN
 10
200.875595
 20
208.540817
 41
3.0
 42
3.0
 50
270.0
  0
INSERT
  5
72
100
AcDbEntity
  8
DD0
100
AcDbBlockReference
  2
_OPEN
 10
200.875595
 20
207.420822
 41
3.0
 42
3.0
 50
90.0
  0
LINE
  5
73
100
AcDbEntity
  8
DD0
100
AcDbLine
 10
200.875595
 20
204.120822
 11
200.875595
 21
204.420822
  0
LINE
  5
74
100
AcDbEntity
  8
DD0
100
AcDbLine
 10
200.875595
 20
207.420822
 11
200.875595
 21
208.540817
  0
LINE
  5
75
100
AcDbEntity
  8
DD0
100
AcDbLine
 10
200.875595
 20
211.540817
 11
200.875595
 21
237.840816
  0
TEXT
  5
76
100
AcDbEntity
  8
DD0
100
AcDbText
 10
200.175598
 20
212.049146
 40
2.5
  1
２８（ＷＭ－形位置）
 50
90.000003
 41
0.833333
  7
STANDARD
100
AcDbText
  0
ENDBLK
  5
77
100
AcDbEntity
  8
DD0
100
AcDbBlockEnd
  0
BLOCK
  5
7A
100
AcDbEntity
  8
DD0
100
AcDbBlockBegin
  2
DIMS4
 70
     0
 10
0.0
 20
0.0
  0
LINE
  5
7B
100
AcDbEntity
  8
DD0
100
AcDbLine
 10
173.075592
 20
208.540817
 11
207.175583
 21
208.540817
  0
LINE
  5
7C
100
AcDbEntity
  8
DD0
100
AcDbLine
 10
164.555588
 20
208.940826
 11
207.175583
 21
208.940826
  0
INSERT
  5
7D
100
AcDbEntity
  8
DD0
100
AcDbBlockReference
  2
_OPEN
 10
205.675583
 20
208.940826
 41
3.0
 42
3.0
 50
270.0
  0
INSERT
  5
7E
100
AcDbEntity
  8
DD0
100
AcDbBlockReference
  2
_OPEN
 10
205.675583
 20
208.540817
 41
3.0
 42
3.0
 50
90.0
  0
LINE
  5
7F
100
AcDbEntity
  8
DD0
100
AcDbLine
 10
205.675583
 20
205.240817
 11
205.675583
 21
205.540817
  0
LINE
  5
80
100
AcDbEntity
  8
DD0
100
AcDbLine
 10
205.675583
 20
208.540817
 11
205.675583
 21
208.940826
  0
LINE
  5
81
100
AcDbEntity
  8
DD0
100
AcDbLine
 10
205.675583
 20
211.940826
 11
205.675583
 21
238.240826
  0
TEXT
  5
82
100
AcDbEntity
  8
DD0
100
AcDbText
 10
204.975586
 20
212.449156
 40
2.5
  1
１０（ＷＴ－形位置）
 50
90.000003
 41
0.833333
  7
STANDARD
100
AcDbText
  0
ENDBLK
  5
83
100
AcDbEntity
  8
DD0
100
AcDbBlockEnd
  0
BLOCK
  5
86
100
AcDbEntity
  8
DD0
100
AcDbBlockBegin
  2
DIMS5
 70
     0
 10
0.0
 20
0.0
  0
LINE
  5
87
100
AcDbEntity
  8
DD0
100
AcDbLine
 10
173.075592
 20
208.540817
 11
211.975586
 21
208.540817
  0
LINE
  5
88
100
AcDbEntity
  8
DD0
100
AcDbLine
 10
151.975586
 20
202.140823
 11
211.975586
 21
202.140823
  0
INSERT
  5
89
100
AcDbEntity
  8
DD0
100
AcDbBlockReference
  2
_OPEN
 10
210.475586
 20
202.140823
 41
3.0
 42
3.0
 50
90.0
  0
INSERT
  5
8A
100
AcDbEntity
  8
DD0
100
AcDbBlockReference
  2
_OPEN
 10
210.475586
 20
208.540817
 41
3.0
 42
3.0
 50
270.0
  0
LINE
  5
8B
100
AcDbEntity
  8
DD0
100
AcDbLine
 10
210.475586
 20
237.840816
 11
210.475586
 21
211.540817
  0
LINE
  5
8C
100
AcDbEntity
  8
DD0
100
AcDbLine
 10
210.475586
 20
208.540817
 11
210.475586
 21
202.140823
  0
LINE
  5
8D
100
AcDbEntity
  8
DD0
100
AcDbLine
 10
210.475586
 20
199.140823
 11
210.475586
 21
198.840823
  0
TEXT
  5
8E
100
AcDbEntity
  8
DD0
100
AcDbText
 10
209.775589
 20
212.049146
 40
2.5
  1
Ｄ（ＷＭ－形給水口）
 50
90.000003
 41
0.833333
  7
STANDARD
100
AcDbText
  0
ENDBLK
  5
8F
100
AcDbEntity
  8
DD0
100
AcDbBlockEnd
  0
BLOCK
  5
92
100
AcDbEntity
  8
DD0
100
AcDbBlockBegin
  2
DIMS6
 70
     0
 10
0.0
 20
0.0
  0
LINE
  5
93
100
AcDbEntity
  8
DD0
100
AcDbLine
 10
173.075592
 20
208.540817
 11
216.775589
 21
208.540817
  0
LINE
  5
94
100
AcDbEntity
  8
DD0
100
AcDbLine
 10
156.755585
 20
199.060822
 11
216.775589
 21
199.060822
  0
INSERT
  5
95
100
AcDbEntity
  8
DD0
100
AcDbBlockReference
  2
_OPEN
 10
215.275589
 20
199.060822
 41
3.0
 42
3.0
 50
90.0
  0
INSERT
  5
96
100
AcDbEntity
  8
DD0
100
AcDbBlockReference
  2
_OPEN
 10
215.275589
 20
208.540817
 41
3.0
 42
3.0
 50
270.0
  0
LINE
  5
97
100
AcDbEntity
  8
DD0
100
AcDbLine
 10
215.275589
 20
237.840816
 11
215.275589
 21
211.540817
  0
LINE
  5
98
100
AcDbEntity
  8
DD0
100
AcDbLine
 10
215.275589
 20
208.540817
 11
215.275589
 21
199.060822
  0
LINE
  5
99
100
AcDbEntity
  8
DD0
100
AcDbLine
 10
215.275589
 20
196.060822
 11
215.275589
 21
195.760822
  0
TEXT
  5
9A
100
AcDbEntity
  8
DD0
100
AcDbText
 10
214.575592
 20
212.049146
 40
2.5
  1
Ｄ（ＷＴ－形給水口）
 50
90.000003
 41
0.833333
  7
STANDARD
100
AcDbText
  0
ENDBLK
  5
9B
100
AcDbEntity
  8
DD0
100
AcDbBlockEnd
  0
BLOCK
  5
9E
100
AcDbEntity
  8
DD0
100
AcDbBlockBegin
  2
DIMS7
 70
     0
 10
0.0
 20
0.0
  0
LINE
  5
9F
100
AcDbEntity
  8
DD0
100
AcDbLine
 10
141.075592
 20
218.35321
 11
141.075592
 21
234.040817
  0
LINE
  5
A0
100
AcDbEntity
  8
DD0
100
AcDbLine
 10
148.075592
 20
224.122894
 11
148.075592
 21
234.040817
  0
INSERT
  5
A1
100
AcDbEntity
  8
DD0
100
AcDbBlockReference
  2
_DOT
 10
148.075592
 20
232.540817
  0
INSERT
  5
A2
100
AcDbEntity
  8
DD0
100
AcDbBlockReference
  2
_OPEN
 10
141.075592
 20
232.540817
 41
3.0
 42
3.0
  0
LINE
  5
A3
100
AcDbEntity
  8
DD0
100
AcDbLine
 10
129.275592
 20
232.540817
 11
138.075592
 21
232.540817
  0
LINE
  5
A4
100
AcDbEntity
  8
DD0
100
AcDbLine
 10
141.075592
 20
232.540817
 11
147.075592
 21
232.540817
  0
TEXT
  5
A5
100
AcDbEntity
  8
DD0
100
AcDbText
 10
130.12393
 20
233.240814
 40
2.5
  1
１７５
 41
0.833333
  7
STANDARD
100
AcDbText
  0
ENDBLK
  5
A6
100
AcDbEntity
  8
DD0
100
AcDbBlockEnd
  0
BLOCK
  5
A9
100
AcDbEntity
  8
DD0
100
AcDbBlockBegin
  2
DIMS8
 70
     0
 10
0.0
 20
0.0
  0
LINE
  5
AA
100
AcDbEntity
  8
DD0
100
AcDbLine
 10
148.075592
 20
224.122894
 11
148.075592
 21
234.040817
  0
LINE
  5
AB
100
AcDbEntity
  8
DD0
100
AcDbLine
 10
155.955597
 20
217.540817
 11
155.955597
 21
234.040817
  0
INSERT
  5
AC
100
AcDbEntity
  8
DD0
100
AcDbBlockReference
  2
_OPEN
 10
155.955597
 20
232.540817
 41
3.0
 42
3.0
 50
180.0
  0
LINE
  5
AD
100
AcDbEntity
  8
DD0
100
AcDbLine
 10
148.075592
 20
232.540817
 11
155.955597
 21
232.540817
  0
LINE
  5
AE
100
AcDbEntity
  8
DD0
100
AcDbLine
 10
158.955597
 20
232.540817
 11
196.325516
 21
232.540817
  0
TEXT
  5
AF
100
AcDbEntity
  8
DD0
100
AcDbText
 10
173.033842
 20
233.240814
 40
2.5
  1
Ｆ（ＷＴ－形位置）
 50
4.133106E-013
 41
0.833333
  7
STANDARD
100
AcDbText
  0
ENDBLK
  5
B0
100
AcDbEntity
  8
DD0
100
AcDbBlockEnd
  0
BLOCK
  5
B3
100
AcDbEntity
  8
DD0
100
AcDbBlockBegin
  2
DIMS9
 70
     0
 10
0.0
 20
0.0
  0
LINE
  5
B4
100
AcDbEntity
  8
DD0
100
AcDbLine
 10
124.075592
 20
216.940826
 11
124.075592
 21
238.84082
  0
LINE
  5
B5
100
AcDbEntity
  8
DD0
100
AcDbLine
 10
172.075592
 20
216.940826
 11
172.075592
 21
238.84082
  0
INSERT
  5
B6
100
AcDbEntity
  8
DD0
100
AcDbBlockReference
  2
_OPEN
 10
172.075592
 20
237.34082
 41
3.0
 42
3.0
  0
INSERT
  5
B7
100
AcDbEntity
  8
DD0
100
AcDbBlockReference
  2
_OPEN
 10
124.075592
 20
237.34082
 41
3.0
 42
3.0
 50
180.0
  0
LINE
  5
B8
100
AcDbEntity
  8
DD0
100
AcDbLine
 10
127.075592
 20
237.34082
 11
169.075592
 21
237.34082
  0
TEXT
  5
B9
100
AcDbEntity
  8
DD0
100
AcDbText
 10
143.283918
 20
238.040817
 40
2.5
  1
１２００
 41
0.833333
  7
STANDARD
100
AcDbText
  0
ENDBLK
  5
BA
100
AcDbEntity
  8
DD0
100
AcDbBlockEnd
  0
BLOCK
  5
BD
100
AcDbEntity
  8
DD0
100
AcDbBlockBegin
  2
DIMS10
 70
     0
 10
0.0
 20
0.0
  0
LINE
  5
BE
100
AcDbEntity
  8
DD0
100
AcDbLine
 10
130.075592
 20
222.940826
 11
112.975594
 21
222.940826
  0
LINE
  5
BF
100
AcDbEntity
  8
DD0
100
AcDbLine
 10
130.075592
 20
194.140823
 11
112.975594
 21
194.140823
  0
INSERT
  5
C0
100
AcDbEntity
  8
DD0
100
AcDbBlockReference
  2
_OPEN
 10
114.475594
 20
194.140823
 41
3.0
 42
3.0
 50
270.0
  0
INSERT
  5
C1
100
AcDbEntity
  8
DD0
100
AcDbBlockReference
  2
_OPEN
 10
114.475594
 20
222.940826
 41
3.0
 42
3.0
 50
90.0
  0
LINE
  5
C2
100
AcDbEntity
  8
DD0
100
AcDbLine
 10
114.475594
 20
219.940826
 11
114.475594
 21
197.140823
  0
TEXT
  5
C3
100
AcDbEntity
  8
DD0
100
AcDbText
 10
113.775597
 20
204.999159
 40
2.5
  1
７２０
 50
90.000003
 41
0.833333
  7
STANDARD
100
AcDbText
  0
ENDBLK
  5
C4
100
AcDbEntity
  8
DD0
100
AcDbBlockEnd
  0
BLOCK
  5
D3
100
AcDbEntity
  8
DD0
100
AcDbBlockBegin
  2
DIMS11
 70
     0
 10
0.0
 20
0.0
  0
LINE
  5
D4
100
AcDbEntity
  8
DD0
100
AcDbLine
 10
163.675598
 20
137.500046
 11
183.175598
 21
137.500046
  0
LINE
  5
D5
100
AcDbEntity
  8
DD0
100
AcDbLine
 10
168.856934
 20
99.580055
 11
183.175598
 21
99.580055
  0
INSERT
  5
D6
100
AcDbEntity
  8
DD0
100
AcDbBlockReference
  2
_OPEN
 10
181.675598
 20
99.580055
 41
3.0
 42
3.0
 50
270.0
  0
INSERT
  5
D7
100
AcDbEntity
  8
DD0
100
AcDbBlockReference
  2
_OPEN
 10
181.675598
 20
137.500046
 41
3.0
 42
3.0
 50
90.0
  0
LINE
  5
D8
100
AcDbEntity
  8
DD0
100
AcDbLine
 10
181.675598
 20
134.500046
 11
181.675598
 21
102.580055
  0
TEXT
  5
D9
100
AcDbEntity
  8
DD0
100
AcDbText
 10
180.975601
 20
114.998388
 40
2.5
  1
９４８
 50
90.000003
 41
0.833333
  7
STANDARD
100
AcDbText
  0
ENDBLK
  5
DA
100
AcDbEntity
  8
DD0
100
AcDbBlockEnd
  0
BLOCK
  5
DD
100
AcDbEntity
  8
DD0
100
AcDbBlockBegin
  2
DIMS12
 70
     0
 10
0.0
 20
0.0
  0
LINE
  5
DE
100
AcDbEntity
  8
DD0
100
AcDbLine
 10
158.024246
 20
140.100052
 11
187.975586
 21
140.100052
  0
LINE
  5
DF
100
AcDbEntity
  8
DD0
100
AcDbLine
 10
168.856934
 20
99.580055
 11
187.975586
 21
99.580055
  0
INSERT
  5
E0
100
AcDbEntity
  8
DD0
100
AcDbBlockReference
  2
_OPEN
 10
186.475586
 20
99.580055
 41
3.0
 42
3.0
 50
270.0
  0
INSERT
  5
E1
100
AcDbEntity
  8
DD0
100
AcDbBlockReference
  2
_OPEN
 10
186.475586
 20
140.100052
 41
3.0
 42
3.0
 50
90.0
  0
LINE
  5
E2
100
AcDbEntity
  8
DD0
100
AcDbLine
 10
186.475586
 20
137.100052
 11
186.475586
 21
102.580055
  0
TEXT
  5
E3
100
AcDbEntity
  8
DD0
100
AcDbText
 10
185.775589
 20
105.048391
 40
2.5
  1
Ｃ（ＷＴ－形給水口高さ）
 50
90.000003
 41
0.833333
  7
STANDARD
100
AcDbText
  0
ENDBLK
  5
E4
100
AcDbEntity
  8
DD0
100
AcDbBlockEnd
  0
BLOCK
  5
E7
100
AcDbEntity
  8
DD0
100
AcDbBlockBegin
  2
DIMS13
 70
     0
 10
0.0
 20
0.0
  0
LINE
  5
E8
100
AcDbEntity
  8
DD0
100
AcDbLine
 10
152.100769
 20
140.700058
 11
192.775589
 21
140.700058
  0
LINE
  5
E9
100
AcDbEntity
  8
DD0
100
AcDbLine
 10
168.856934
 20
99.580055
 11
192.775589
 21
99.580055
  0
INSERT
  5
EA
100
AcDbEntity
  8
DD0
100
AcDbBlockReference
  2
_OPEN
 10
191.275589
 20
99.580055
 41
3.0
 42
3.0
 50
270.0
  0
INSERT
  5
EB
100
AcDbEntity
  8
DD0
100
AcDbBlockReference
  2
_OPEN
 10
191.275589
 20
140.700058
 41
3.0
 42
3.0
 50
90.0
  0
LINE
  5
EC
100
AcDbEntity
  8
DD0
100
AcDbLine
 10
191.275589
 20
137.700058
 11
191.275589
 21
102.580055
  0
TEXT
  5
ED
100
AcDbEntity
  8
DD0
100
AcDbText
 10
190.575592
 20
105.348394
 40
2.5
  1
Ｃ（ＷＭ－形給水口高さ）
 50
90.000003
 41
0.833333
  7
STANDARD
100
AcDbText
  0
ENDBLK
  5
EE
100
AcDbEntity
  8
DD0
100
AcDbBlockEnd
  0
BLOCK
  5
F1
100
AcDbEntity
  8
DD0
100
AcDbBlockBegin
  2
DIMS14
 70
     0
 10
0.0
 20
0.0
  0
LINE
  5
F2
100
AcDbEntity
  8
DD0
100
AcDbLine
 10
168.856934
 20
99.580055
 11
202.375595
 21
99.580055
  0
LINE
  5
F3
100
AcDbEntity
  8
DD0
100
AcDbLine
 10
161.435593
 20
150.180054
 11
202.375595
 21
150.180054
  0
INSERT
  5
F4
100
AcDbEntity
  8
DD0
100
AcDbBlockReference
  2
_OPEN
 10
200.875595
 20
150.180054
 41
3.0
 42
3.0
 50
90.0
  0
INSERT
  5
F5
100
AcDbEntity
  8
DD0
100
AcDbBlockReference
  2
_OPEN
 10
200.875595
 20
99.580055
 41
3.0
 42
3.0
 50
270.0
  0
LINE
  5
F6
100
AcDbEntity
  8
DD0
100
AcDbLine
 10
200.875595
 20
102.580055
 11
200.875595
 21
147.180054
  0
TEXT
  5
F7
100
AcDbEntity
  8
DD0
100
AcDbText
 10
200.175598
 20
110.088384
 40
2.5
  1
Ｃ（ＷＭ－形給水口高さ）
 50
90.000003
 41
0.833333
  7
STANDARD
100
AcDbText
  0
ENDBLK
  5
F8
100
AcDbEntity
  8
DD0
100
AcDbBlockEnd
  0
BLOCK
  5
FB
100
AcDbEntity
  8
DD0
100
AcDbBlockBegin
  2
DIMS15
 70
     0
 10
0.0
 20
0.0
  0
LINE
  5
FC
100
AcDbEntity
  8
DD0
100
AcDbLine
 10
168.856934
 20
99.580055
 11
211.975586
 21
99.580055
  0
LINE
  5
FD
100
AcDbEntity
  8
DD0
100
AcDbLine
 10
158.295273
 20
159.500046
 11
211.975586
 21
159.500046
  0
INSERT
  5
FE
100
AcDbEntity
  8
DD0
100
AcDbBlockReference
  2
_OPEN
 10
210.475586
 20
159.500046
 41
3.0
 42
3.0
 50
90.0
  0
INSERT
  5
FF
100
AcDbEntity
  8
DD0
100
AcDbBlockReference
  2
_OPEN
 10
210.475586
 20
99.580055
 41
3.0
 42
3.0
 50
270.0
  0
LINE
  5
100
100
AcDbEntity
  8
DD0
100
AcDbLine
 10
210.475586
 20
102.580055
 11
210.475586
 21
156.500046
  0
TEXT
  5
101
100
AcDbEntity
  8
DD0
100
AcDbText
 10
209.775589
 20
115.99838
 40
2.5
  1
Ａ（ＷＴ－形最大高さ）
 50
90.000003
 41
0.833333
  7
STANDARD
100
AcDbText
  0
ENDBLK
  5
102
100
AcDbEntity
  8
DD0
100
AcDbBlockEnd
  0
BLOCK
  5
105
100
AcDbEntity
  8
DD0
100
AcDbBlockBegin
  2
DIMS16
 70
     0
 10
0.0
 20
0.0
  0
LINE
  5
106
100
AcDbEntity
  8
DD0
100
AcDbLine
 10
127.275589
 20
99.580055
 11
114.575592
 21
99.580055
  0
LINE
  5
107
100
AcDbEntity
  8
DD0
100
AcDbLine
 10
123.769493
 20
101.580055
 11
114.575592
 21
101.580055
  0
INSERT
  5
108
100
AcDbEntity
  8
DD0
100
AcDbBlockReference
  2
_OPEN
 10
116.075592
 20
101.580055
 41
3.0
 42
3.0
 50
270.0
  0
INSERT
  5
109
100
AcDbEntity
  8
DD0
100
AcDbBlockReference
  2
_OPEN
 10
116.075592
 20
99.580055
 41
3.0
 42
3.0
 50
90.0
  0
LINE
  5
10A
100
AcDbEntity
  8
DD0
100
AcDbLine
 10
116.075592
 20
90.280055
 11
116.075592
 21
96.580055
  0
LINE
  5
10B
100
AcDbEntity
  8
DD0
100
AcDbLine
 10
116.075592
 20
99.580055
 11
116.075592
 21
101.580055
  0
LINE
  5
10C
100
AcDbEntity
  8
DD0
100
AcDbLine
 10
116.075592
 20
104.580055
 11
116.075592
 21
104.880055
  0
TEXT
  5
10D
100
AcDbEntity
  8
DD0
100
AcDbText
 10
115.375595
 20
91.128385
 40
2.5
  1
５０
 50
90.000003
 41
0.833333
  7
STANDARD
100
AcDbText
  0
ENDBLK
  5
10E
100
AcDbEntity
  8
DD0
100
AcDbBlockEnd
  0
BLOCK
  5
111
100
AcDbEntity
  8
DD0
100
AcDbBlockBegin
  2
DIMS17
 70
     0
 10
0.0
 20
0.0
  0
LINE
  5
112
100
AcDbEntity
  8
DD0
100
AcDbLine
 10
127.275589
 20
99.580055
 11
109.775589
 21
99.580055
  0
LINE
  5
113
100
AcDbEntity
  8
DD0
100
AcDbLine
 10
128.515594
 20
140.780045
 11
109.775589
 21
140.780045
  0
INSERT
  5
114
100
AcDbEntity
  8
DD0
100
AcDbBlockReference
  2
_OPEN
 10
111.275589
 20
140.780045
 41
3.0
 42
3.0
 50
90.0
  0
INSERT
  5
115
100
AcDbEntity
  8
DD0
100
AcDbBlockReference
  2
_OPEN
 10
111.275589
 20
99.580055
 41
3.0
 42
3.0
 50
270.0
  0
LINE
  5
116
100
AcDbEntity
  8
DD0
100
AcDbLine
 10
111.275589
 20
102.580055
 11
111.275589
 21
137.780045
  0
TEXT
  5
117
100
AcDbEntity
  8
DD0
100
AcDbText
 10
110.575592
 20
115.388387
 40
2.5
  1
１０３０
 50
90.000003
 41
0.833333
  7
STANDARD
100
AcDbText
  0
ENDBLK
  5
118
100
AcDbEntity
  8
DD0
100
AcDbBlockEnd
  0
BLOCK
  5
11B
100
AcDbEntity
  8
DD0
100
AcDbBlockBegin
  2
DIMS18
 70
     0
 10
0.0
 20
0.0
  0
LINE
  5
11C
100
AcDbEntity
  8
DD0
100
AcDbLine
 10
81.352005
 20
133.180054
 11
99.012352
 21
133.180054
  0
LINE
  5
11D
100
AcDbEntity
  8
DD0
100
AcDbLine
 10
85.549019
 20
99.580055
 11
99.012352
 21
99.580055
  0
INSERT
  5
11E
100
AcDbEntity
  8
DD0
100
AcDbBlockReference
  2
_OPEN
 10
97.512352
 20
99.580055
 41
3.0
 42
3.0
 50
270.0
  0
INSERT
  5
11F
100
AcDbEntity
  8
DD0
100
AcDbBlockReference
  2
_OPEN
 10
97.512352
 20
133.180054
 41
3.0
 42
3.0
 50
90.0
  0
LINE
  5
120
100
AcDbEntity
  8
DD0
100
AcDbLine
 10
97.512352
 20
130.180054
 11
97.512352
 21
102.580055
  0
TEXT
  5
121
100
AcDbEntity
  8
DD0
100
AcDbText
 10
96.812355
 20
112.838384
 40
2.5
  1
８４０
 50
90.000003
 41
0.833333
  7
STANDARD
100
AcDbText
  0
ENDBLK
  5
122
100
AcDbEntity
  8
DD0
100
AcDbBlockEnd
  0
BLOCK
  5
125
100
AcDbEntity
  8
DD0
100
AcDbBlockBegin
  2
DIMS19
 70
     0
 10
0.0
 20
0.0
  0
LINE
  5
126
100
AcDbEntity
  8
DD0
100
AcDbLine
 10
65.312294
 20
137.580048
 11
51.212353
 21
137.580048
  0
LINE
  5
127
100
AcDbEntity
  8
DD0
100
AcDbLine
 10
64.675682
 20
99.580055
 11
51.212353
 21
99.580055
  0
INSERT
  5
128
100
AcDbEntity
  8
DD0
100
AcDbBlockReference
  2
_OPEN
 10
52.712353
 20
99.580055
 41
3.0
 42
3.0
 50
270.0
  0
INSERT
  5
129
100
AcDbEntity
  8
DD0
100
AcDbBlockReference
  2
_OPEN
 10
52.712353
 20
137.580048
 41
3.0
 42
3.0
 50
90.0
  0
LINE
  5
12A
100
AcDbEntity
  8
DD0
100
AcDbLine
 10
52.712353
 20
134.580048
 11
52.712353
 21
102.580055
  0
TEXT
  5
12B
100
AcDbEntity
  8
DD0
100
AcDbText
 10
52.012352
 20
115.038381
 40
2.5
  1
９４０
 50
90.000003
 41
0.833333
  7
STANDARD
100
AcDbText
  0
ENDBLK
  5
12C
100
AcDbEntity
  8
DD0
100
AcDbBlockEnd
  0
BLOCK
  5
12F
100
AcDbEntity
  8
DD0
100
AcDbBlockBegin
  2
DIMS20
 70
     0
 10
0.0
 20
0.0
  0
LINE
  5
130
100
AcDbEntity
  8
DD0
100
AcDbLine
 10
66.312355
 20
138.580048
 11
66.312355
 21
151.880051
  0
LINE
  5
131
100
AcDbEntity
  8
DD0
100
AcDbLine
 10
75.11235
 20
144.783966
 11
75.11235
 21
151.880051
  0
INSERT
  5
132
100
AcDbEntity
  8
DD0
100
AcDbBlockReference
  2
_DOT
 10
75.11235
 20
150.380051
  0
INSERT
  5
133
100
AcDbEntity
  8
DD0
100
AcDbBlockReference
  2
_OPEN
 10
66.312355
 20
150.380051
 41
3.0
 42
3.0
  0
LINE
  5
134
100
AcDbEntity
  8
DD0
100
AcDbLine
 10
63.012355
 20
150.380051
 11
63.312355
 21
150.380051
  0
LINE
  5
135
100
AcDbEntity
  8
DD0
100
AcDbLine
 10
66.312355
 20
150.380051
 11
74.11235
 21
150.380051
  0
TEXT
  5
136
100
AcDbEntity
  8
DD0
100
AcDbText
 10
67.17069
 20
151.080048
 40
2.5
  1
２２０
 41
0.833333
  7
STANDARD
100
AcDbText
  0
ENDBLK
  5
137
100
AcDbEntity
  8
DD0
100
AcDbBlockEnd
  0
BLOCK
  5
13A
100
AcDbEntity
  8
DD0
100
AcDbBlockBegin
  2
DIMS21
 70
     0
 10
0.0
 20
0.0
  0
LINE
  5
13B
100
AcDbEntity
  8
DD0
100
AcDbLine
 10
75.11235
 20
144.783966
 11
75.11235
 21
151.880051
  0
LINE
  5
13C
100
AcDbEntity
  8
DD0
100
AcDbLine
 10
79.11235
 20
135.28212
 11
79.11235
 21
151.880051
  0
INSERT
  5
13D
100
AcDbEntity
  8
DD0
100
AcDbBlockReference
  2
_OPEN
 10
79.11235
 20
150.380051
 41
3.0
 42
3.0
 50
180.0
  0
LINE
  5
13E
100
AcDbEntity
  8
DD0
100
AcDbLine
 10
75.11235
 20
150.380051
 11
79.11235
 21
150.380051
  0
LINE
  5
13F
100
AcDbEntity
  8
DD0
100
AcDbLine
 10
82.11235
 20
150.380051
 11
90.912351
 21
150.380051
  0
TEXT
  5
140
100
AcDbEntity
  8
DD0
100
AcDbText
 10
82.620687
 20
151.080048
 40
2.5
  1
１００
 41
0.833333
  7
STANDARD
100
AcDbText
  0
ENDBLK
  5
141
100
AcDbEntity
  8
DD0
100
AcDbBlockEnd
  0
BLOCK
  5
152
100
AcDbEntity
  8
DD0
100
AcDbBlockBegin
  2
DIMS22
 70
     0
 10
0.0
 20
0.0
  0
LINE
  5
153
100
AcDbEntity
  8
DD0
100
AcDbLine
 10
164.167389
 20
152.100052
 11
207.175583
 21
152.100052
  0
LINE
  5
154
100
AcDbEntity
  8
DD0
100
AcDbLine
 10
168.856934
 20
99.580055
 11
207.175583
 21
99.580055
  0
INSERT
  5
155
100
AcDbEntity
  8
DD0
100
AcDbBlockReference
  2
_OPEN
 10
205.675583
 20
99.580055
 41
3.0
 42
3.0
 50
270.0
  0
INSERT
  5
156
100
AcDbEntity
  8
DD0
100
AcDbBlockReference
  2
_OPEN
 10
205.675583
 20
152.100052
 41
3.0
 42
3.0
 50
90.0
  0
LINE
  5
157
100
AcDbEntity
  8
DD0
100
AcDbLine
 10
205.675583
 20
149.100052
 11
205.675583
 21
102.580055
  0
TEXT
  5
158
100
AcDbEntity
  8
DD0
100
AcDbText
 10
204.975586
 20
109.798391
 40
2.5
  1
Ｂ（ＷＴ－形ポンプの中心）
 50
90.000003
 41
0.833333
  7
STANDARD
100
AcDbText
  0
ENDBLK
  5
159
100
AcDbEntity
  8
DD0
100
AcDbBlockEnd
  0
BLOCK
  5
15C
100
AcDbEntity
  8
DD0
100
AcDbBlockBegin
  2
DIMS23
 70
     0
 10
0.0
 20
0.0
  0
LINE
  5
15D
100
AcDbEntity
  8
DD0
100
AcDbLine
 10
168.856934
 20
99.580055
 11
197.575592
 21
99.580055
  0
LINE
  5
15E
100
AcDbEntity
  8
DD0
100
AcDbLine
 10
164.167389
 20
142.780045
 11
197.575592
 21
142.780045
  0
INSERT
  5
15F
100
AcDbEntity
  8
DD0
100
AcDbBlockReference
  2
_OPEN
 10
196.075592
 20
142.780045
 41
3.0
 42
3.0
 50
90.0
  0
INSERT
  5
160
100
AcDbEntity
  8
DD0
100
AcDbBlockReference
  2
_OPEN
 10
196.075592
 20
99.580055
 41
3.0
 42
3.0
 50
270.0
  0
LINE
  5
161
100
AcDbEntity
  8
DD0
100
AcDbLine
 10
196.075592
 20
102.580055
 11
196.075592
 21
139.780045
  0
TEXT
  5
162
100
AcDbEntity
  8
DD0
100
AcDbText
 10
195.375595
 20
105.138387
 40
2.5
  1
Ｂ（ＷＭ－形ポンプの中心）
 50
90.000003
 41
0.833333
  7
STANDARD
100
AcDbText
  0
ENDBLK
  5
163
100
AcDbEntity
  8
DD0
100
AcDbBlockEnd
  0
ENDSEC
  0
SECTION
  2
ENTITIES
  0
INSERT
  5
54
100
AcDbEntity
  8
DD0
100
AcDbBlockReference
  2
DIMS0
 10
0.0
 20
0.0
  0
INSERT
  5
60
100
AcDbEntity
  8
DD0
100
AcDbBlockReference
  2
DIMS1
 10
0.0
 20
0.0
  0
INSERT
  5
6C
100
AcDbEntity
  8
DD0
100
AcDbBlockReference
  2
DIMS2
 10
0.0
 20
0.0
  0
INSERT
  5
78
100
AcDbEntity
  8
DD0
100
AcDbBlockReference
  2
DIMS3
 10
0.0
 20
0.0
  0
INSERT
  5
84
100
AcDbEntity
  8
DD0
100
AcDbBlockReference
  2
DIMS4
 10
0.0
 20
0.0
  0
INSERT
  5
90
100
AcDbEntity
  8
DD0
100
AcDbBlockReference
  2
DIMS5
 10
0.0
 20
0.0
  0
INSERT
  5
9C
100
AcDbEntity
  8
DD0
100
AcDbBlockReference
  2
DIMS6
 10
0.0
 20
0.0
  0
INSERT
  5
A7
100
AcDbEntity
  8
DD0
100
AcDbBlockReference
  2
DIMS7
 10
0.0
 20
0.0
  0
INSERT
  5
B1
100
AcDbEntity
  8
DD0
100
AcDbBlockReference
  2
DIMS8
 10
0.0
 20
0.0
  0
INSERT
  5
BB
100
AcDbEntity
  8
DD0
100
AcDbBlockReference
  2
DIMS9
 10
0.0
 20
0.0
  0
INSERT
  5
C5
100
AcDbEntity
  8
DD0
100
AcDbBlockReference
  2
DIMS10
 10
0.0
 20
0.0
  0
LEADER
  5
C6
100
AcDbEntity
  8
DD0
100
AcDbLeader
  3
LEADSTYL
 76
     3
 10
158.998306
 20
214.797592
 10
177.969879
 20
223.148422
 10
189.969879
 20
223.148422
340
C7
 77
     4
  0
TEXT
  5
C7
100
AcDbEntity
  8
DD0
100
AcDbText
 10
179.178205
 20
223.848419
 40
2.5
  1
ＷＴ－形
 41
0.833333
  7
STANDARD
100
AcDbText
  0
LEADER
  5
C8
100
AcDbEntity
  8
DD0
100
AcDbLeader
  3
LEADSTYL
 76
     3
 10
159.679794
 20
213.097656
 10
178.325851
 20
218.976425
 10
190.325851
 20
218.976425
340
C9
 77
     4
  0
TEXT
  5
C9
100
AcDbEntity
  8
DD0
100
AcDbText
 10
179.534178
 20
219.676422
 40
2.5
  1
ＷＭ－形
 41
0.833333
  7
STANDARD
100
AcDbText
  0
LEADER
  5
CA
100
AcDbEntity
  8
DD0
100
AcDbLeader
  3
LEADSTYL
 76
     3
 10
156.393448
 20
199.060822
 10
170.953812
 20
189.722229
 10
225.453812
 20
189.722229
340
CB
 77
     4
  0
TEXT
  5
CB
100
AcDbEntity
  8
DD0
100
AcDbText
 10
172.162138
 20
190.422226
 40
2.5
  1
ＷＴ－形給水口位置（反対側に位置変更可能）
 41
0.833333
  7
STANDARD
100
AcDbText
  0
LEADER
  5
CC
100
AcDbEntity
  8
DD0
100
AcDbLeader
  3
LEADSTYL
 76
     3
 10
151.478745
 20
202.140823
 10
171.688721
 20
184.62381
 10
196.188721
 20
184.62381
340
CD
 77
     4
  0
TEXT
  5
CD
100
AcDbEntity
  8
DD0
100
AcDbText
 10
172.897047
 20
185.323807
 40
2.5
  1
ＷＭ－形給水口位置
 41
0.833333
  7
STANDARD
100
AcDbText
  0
LEADER
  5
CE
100
AcDbEntity
  8
DD0
100
AcDbLeader
  3
LEADSTYL
 76
     3
 10
145.913925
 20
215.886078
 10
122.380974
 20
227.511932
 10
100.380974
 20
227.511932
340
CF
 77
     4
  0
TEXT
  5
CF
100
AcDbEntity
  8
DD0
100
AcDbText
 10
101.589308
 20
228.211929
 40
2.5
  1
満水警報器取付口
 41
0.833333
  7
STANDARD
100
AcDbText
  0
LEADER
  5
D0
100
AcDbEntity
  8
DD0
100
AcDbLeader
  3
LEADSTYL
 76
     3
 10
145.419174
 20
200.68605
 10
136.608337
 20
189.352982
 10
122.108337
 20
189.352982
340
D1
 77
     4
  0
TEXT
  5
D1
100
AcDbEntity
  8
DD0
100
AcDbText
 10
123.316671
 20
190.052979
 40
2.5
  1
断水リレー
 41
0.833333
  7
STANDARD
100
AcDbText
  0
INSERT
  5
DB
100
AcDbEntity
  8
DD0
100
AcDbBlockReference
  2
DIMS11
 10
0.0
 20
0.0
  0
INSERT
  5
E5
100
AcDbEntity
  8
DD0
100
AcDbBlockReference
  2
DIMS12
 10
0.0
 20
0.0
  0
INSERT
  5
EF
100
AcDbEntity
  8
DD0
100
AcDbBlockReference
  2
DIMS13
 10
0.0
 20
0.0
  0
INSERT
  5
F9
100
AcDbEntity
  8
DD0
100
AcDbBlockReference
  2
DIMS14
 10
0.0
 20
0.0
  0
INSERT
  5
103
100
AcDbEntity
  8
DD0
100
AcDbBlockReference
  2
DIMS15
 10
0.0
 20
0.0
  0
INSERT
  5
10F
100
AcDbEntity
  8
DD0
100
AcDbBlockReference
  2
DIMS16
 10
0.0
 20
0.0
  0
INSERT
  5
119
100
AcDbEntity
  8
DD0
100
AcDbBlockReference
  2
DIMS17
 10
0.0
 20
0.0
  0
INSERT
  5
123
100
AcDbEntity
  8
DD0
100
AcDbBlockReference
  2
DIMS18
 10
0.0
 20
0.0
  0
INSERT
  5
12D
100
AcDbEntity
  8
DD0
100
AcDbBlockReference
  2
DIMS19
 10
0.0
 20
0.0
  0
INSERT
  5
138
100
AcDbEntity
  8
DD0
100
AcDbBlockReference
  2
DIMS20
 10
0.0
 20
0.0
  0
INSERT
  5
142
100
AcDbEntity
  8
DD0
100
AcDbBlockReference
  2
DIMS21
 10
0.0
 20
0.0
  0
LEADER
  5
143
100
AcDbEntity
  8
DD0
100
AcDbLeader
  3
LEADSTYL
 76
     3
 10
132.038132
 20
140.780045
 10
126.158859
 20
145.519806
 10
114.158859
 20
145.519806
340
144
 77
     4
  0
TEXT
  5
144
100
AcDbEntity
  8
DD0
100
AcDbText
 10
115.367193
 20
146.219803
 40
2.5
  1
点検ふた
 41
0.833333
  7
STANDARD
100
AcDbText
  0
LEADER
  5
145
100
AcDbEntity
  8
DD0
100
AcDbLeader
  3
LEADSTYL
 76
     3
 10
79.852394
 20
133.822495
 10
95.219887
 20
149.874634
 10
139.719879
 20
149.874634
340
146
 77
     4
  0
TEXT
  5
146
100
AcDbEntity
  8
DD0
100
AcDbText
 10
96.42822
 20
150.574631
 40
2.5
  1
いっ水口（塩ビ管３０ｍｍ接続可能）
 41
0.833333
  7
STANDARD
100
AcDbText
  0
LEADER
  5
147
100
AcDbEntity
  8
DD0
100
AcDbLeader
  3
LEADSTYL
 76
     3
 10
65.912354
 20
137.634232
 10
46.497768
 20
155.351746
 10
85.997772
 20
155.351746
340
148
 77
     4
  0
TEXT
  5
148
100
AcDbEntity
  8
DD0
100
AcDbText
 10
47.706102
 20
156.051743
 40
2.5
  1
水道接続口１３ｍｍ（１／２Ｂ）
 41
0.833333
  7
STANDARD
100
AcDbText
  0
LEADER
  5
149
100
AcDbEntity
  8
DD0
100
AcDbLeader
  3
LEADSTYL
 76
     3
 10
124.275589
 20
101.023994
 10
115.456757
 20
85.095184
 10
70.956757
 20
85.095184
340
14A
 77
     4
  0
TEXT
  5
14A
100
AcDbEntity
  8
DD0
100
AcDbText
 10
72.16509
 20
85.795181
 40
2.5
  1
水抜き口　２５ｍｍ（１Ｂ）配管可能
 41
0.833333
  7
STANDARD
100
AcDbText
  0
LEADER
  5
14B
100
AcDbEntity
  8
DD0
100
AcDbLeader
  3
LEADSTYL
 76
     3
 10
147.057816
 20
99.580055
 10
138.238907
 20
84.911461
 10
128.738907
 20
84.911461
340
14C
 77
     4
  0
TEXT
  5
14C
100
AcDbEntity
  8
DD0
100
AcDbText
 10
129.947233
 20
85.611458
 40
2.5
  1
受水槽
 41
0.833333
  7
STANDARD
100
AcDbText
  0
LEADER
  5
14D
100
AcDbEntity
  8
DD0
100
AcDbLeader
  3
LEADSTYL
 76
     3
 10
151.880646
 20
150.180054
 10
142.602432
 20
156.130051
 10
130.602432
 20
156.130051
340
14E
 77
     4
  0
TEXT
  5
14E
100
AcDbEntity
  8
DD0
100
AcDbText
 10
131.810758
 20
156.830048
 40
2.5
  1
ＷＭ－形
 41
0.833333
  7
STANDARD
100
AcDbText
  0
LEADER
  5
14F
100
AcDbEntity
  8
DD0
100
AcDbLeader
  3
LEADSTYL
 76
     3
 10
149.49559
 20
156.497498
 10
142.051254
 20
161.45813
 10
130.051254
 20
161.45813
340
150
 77
     4
  0
TEXT
  5
150
100
AcDbEntity
  8
DD0
100
AcDbText
 10
131.25958
 20
162.158127
 40
2.5
  1
ＷＴ－形
 41
0.833333
  7
STANDARD
100
AcDbText
  0
INSERT
  5
15A
100
AcDbEntity
  8
DD0
100
AcDbBlockReference
  2
DIMS22
 10
0.0
 20
0.0
  0
INSERT
  5
164
100
AcDbEntity
  8
DD0
100
AcDbBlockReference
  2
DIMS23
 10
0.0
 20
0.0
  0
LINE
  5
165
100
AcDbEntity
  8
M0
 62
     7
100
AcDbLine
 10
172.075591
 20
200.140823
 11
172.075591
 21
216.940823
  0
LINE
  5
166
100
AcDbEntity
  8
M0
 62
     7
100
AcDbLine
 10
166.075591
 20
222.940822
 11
130.075592
 21
222.940822
  0
LINE
  5
167
100
AcDbEntity
  8
M0
 62
     7
100
AcDbLine
 10
124.075592
 20
216.940823
 11
124.075592
 21
205.540823
  0
LINE
  5
168
100
AcDbEntity
  8
M0
 62
     7
100
AcDbLine
 10
130.075592
 20
194.140823
 11
166.075591
 21
194.140823
  0
LINE
  5
169
100
AcDbEntity
  8
M0
  6
DASHDOT
 62
     7
100
AcDbLine
 10
123.075592
 20
208.540823
 11
173.075591
 21
208.540823
  0
ARC
  5
16A
100
AcDbEntity
  8
M0
 62
     7
100
AcDbCircle
 10
166.075591
 20
200.140823
 40
6.0
100
AcDbArc
 50
270.0
 51
360.0
  0
ARC
  5
16B
100
AcDbEntity
  8
M0
 62
     7
100
AcDbCircle
 10
166.075591
 20
216.940823
 40
6.0
100
AcDbArc
 50
0.0
 51
90.0
  0
ARC
  5
16C
100
AcDbEntity
  8
M0
 62
     7
100
AcDbCircle
 10
130.075592
 20
216.940823
 40
6.0
100
AcDbArc
 50
90.0
 51
180.0
  0
ARC
  5
16D
100
AcDbEntity
  8
M0
 62
     7
100
AcDbCircle
 10
130.075592
 20
200.140823
 40
6.0
100
AcDbArc
 50
180.0
 51
270.0
  0
LINE
  5
16E
100
AcDbEntity
  8
M0
 62
     7
100
AcDbLine
 10
162.075591
 20
199.740823
 11
156.755591
 21
199.740823
  0
LINE
  5
16F
100
AcDbEntity
  8
M0
 62
     7
100
AcDbLine
 10
151.675591
 20
200.940823
 11
151.675591
 21
201.540823
  0
LINE
  5
170
100
AcDbEntity
  8
M0
 62
     7
100
AcDbLine
 10
154.475591
 20
200.940823
 11
154.475591
 21
201.540823
  0
LINE
  5
171
100
AcDbEntity
  8
M0
 62
     7
100
AcDbLine
 10
150.475591
 20
199.740823
 11
149.475591
 21
199.740823
  0
ARC
  5
172
100
AcDbEntity
  8
M0
 62
     7
100
AcDbCircle
 10
155.675591
 20
200.940823
 40
1.2
100
AcDbArc
 50
180.0
 51
244.320711
  0
ARC
  5
173
100
AcDbEntity
  8
M0
 62
     7
100
AcDbCircle
 10
149.475591
 20
200.940823
 40
1.2
100
AcDbArc
 50
180.0
 51
270.0
  0
ARC
  5
174
100
AcDbEntity
  8
M0
 62
     7
100
AcDbCircle
 10
150.475591
 20
200.940823
 40
1.2
100
AcDbArc
 50
270.0
 51
360.0
  0
LINE
  5
175
100
AcDbEntity
  8
M0
 62
     7
100
AcDbLine
 10
148.275591
 20
220.940822
 11
148.275591
 21
196.140823
  0
LINE
  5
176
100
AcDbEntity
  8
M0
 62
     7
100
AcDbLine
 10
162.075591
 20
217.340822
 11
159.675591
 21
217.340822
  0
ARC
  5
177
100
AcDbEntity
  8
M0
 62
     7
100
AcDbCircle
 10
159.675591
 20
216.140823
 40
1.2
100
AcDbArc
 50
90.0
 51
170.405932
  0
LINE
  5
178
100
AcDbEntity
  8
M0
 62
     7
100
AcDbLine
 10
149.475591
 20
217.340822
 11
154.075591
 21
217.340822
  0
ARC
  5
179
100
AcDbEntity
  8
M0
 62
     7
100
AcDbCircle
 10
154.075591
 20
216.140823
 40
1.2
100
AcDbArc
 50
9.594068
 51
90.0
  0
ARC
  5
17A
100
AcDbEntity
  8
M0
 62
     7
100
AcDbCircle
 10
149.475591
 20
216.140823
 40
1.2
100
AcDbArc
 50
90.0
 51
180.0
  0
ARC
  5
17B
100
AcDbEntity
  8
M0
 62
     7
100
AcDbCircle
 10
148.675591
 20
211.540823
 40
0.4
100
AcDbArc
 50
180.0
 51
270.0
  0
LINE
  5
17C
100
AcDbEntity
  8
M0
 62
     7
100
AcDbLine
 10
148.755591
 20
205.940823
 11
148.675591
 21
205.940823
  0
ARC
  5
17D
100
AcDbEntity
  8
M0
 62
     7
100
AcDbCircle
 10
148.675591
 20
205.540823
 40
0.4
100
AcDbArc
 50
90.0
 51
180.0
  0
LINE
  5
17E
100
AcDbEntity
  8
M0
  6
DASHDOT
 62
     7
100
AcDbLine
 10
137.075591
 20
219.054193
 11
137.075591
 21
197.977325
  0
CIRCLE
  5
17F
100
AcDbEntity
  8
M0
 62
     7
100
AcDbCircle
 10
137.075591
 20
208.540823
 40
8.8
  0
LINE
  5
180
100
AcDbEntity
  8
M0
 62
     7
100
AcDbLine
 10
126.875592
 20
202.979009
 11
126.875592
 21
210.740823
  0
LINE
  5
181
100
AcDbEntity
  8
M0
 62
     7
100
AcDbLine
 10
127.675592
 20
211.540823
 11
128.259697
 21
211.540823
  0
ARC
  5
182
100
AcDbEntity
  8
M0
 62
     7
100
AcDbCircle
 10
127.675592
 20
210.740823
 40
0.8
100
AcDbArc
 50
90.0
 51
180.0
  0
LINE
  5
183
100
AcDbEntity
  8
M0
 62
     7
100
AcDbLine
 10
127.675592
 20
205.540823
 11
128.259697
 21
205.540823
  0
ARC
  5
184
100
AcDbEntity
  8
M0
 62
     7
100
AcDbCircle
 10
127.675592
 20
206.340823
 40
0.8
100
AcDbArc
 50
180.0
 51
270.0
  0
ARC
  5
185
100
AcDbEntity
  8
M0
 62
     7
100
AcDbCircle
 10
128.259697
 20
204.740823
 40
0.8
100
AcDbArc
 50
23.317957
 51
90.0
  0
ARC
  5
186
100
AcDbEntity
  8
M0
 62
     7
100
AcDbCircle
 10
128.259697
 20
212.340823
 40
0.8
100
AcDbArc
 50
270.0
 51
336.682043
  0
ARC
  5
187
100
AcDbEntity
  8
M0
 62
     7
100
AcDbCircle
 10
145.891486
 20
204.740823
 40
0.8
100
AcDbArc
 50
90.0
 51
156.682043
  0
ARC
  5
188
100
AcDbEntity
  8
M0
 62
     7
100
AcDbCircle
 10
146.475591
 20
206.340823
 40
0.8
100
AcDbArc
 50
270.0
 51
360.0
  0
LINE
  5
189
100
AcDbEntity
  8
M0
 62
     7
100
AcDbLine
 10
146.475591
 20
205.540823
 11
145.891486
 21
205.540823
  0
LINE
  5
18A
100
AcDbEntity
  8
M0
 62
     7
100
AcDbLine
 10
147.275591
 20
196.140823
 11
147.275591
 21
200.859574
  0
ARC
  5
18B
100
AcDbEntity
  8
M0
 62
     7
100
AcDbCircle
 10
146.475591
 20
210.740823
 40
0.8
100
AcDbArc
 50
0.0
 51
90.0
  0
LINE
  5
18C
100
AcDbEntity
  8
M0
 62
     7
100
AcDbLine
 10
146.475591
 20
211.540823
 11
145.891486
 21
211.540823
  0
ARC
  5
18D
100
AcDbEntity
  8
M0
 62
     7
100
AcDbCircle
 10
145.891486
 20
212.340823
 40
0.8
100
AcDbArc
 50
203.317957
 51
270.0
  0
LINE
  5
18E
100
AcDbEntity
  8
M0
 62
     7
100
AcDbLine
 10
137.075591
 20
217.340822
 11
145.275591
 21
217.340822
  0
ARC
  5
18F
100
AcDbEntity
  8
M0
 62
     7
100
AcDbCircle
 10
145.275591
 20
215.340823
 40
2.0
100
AcDbArc
 50
0.0
 51
90.0
  0
ARC
  5
190
100
AcDbEntity
  8
M0
 62
     7
100
AcDbCircle
 10
145.275591
 20
201.740823
 40
2.0
100
AcDbArc
 50
270.0
 51
319.926711
  0
LINE
  5
191
100
AcDbEntity
  8
M0
 62
     7
100
AcDbLine
 10
137.075591
 20
199.740823
 11
145.275591
 21
199.740823
  0
ARC
  5
192
100
AcDbEntity
  8
M0
 62
     7
100
AcDbCircle
 10
145.275591
 20
196.140823
 40
2.0
100
AcDbArc
 50
270.0
 51
360.0
  0
ARC
  5
193
100
AcDbEntity
  8
M0
 62
     7
100
AcDbCircle
 10
150.275591
 20
196.140823
 40
2.0
100
AcDbArc
 50
180.0
 51
270.0
  0
ARC
  5
194
100
AcDbEntity
  8
M0
 62
     7
100
AcDbCircle
 10
150.275591
 20
220.940822
 40
2.0
100
AcDbArc
 50
90.0
 51
180.0
  0
ARC
  5
195
100
AcDbEntity
  8
M0
 62
     7
100
AcDbCircle
 10
145.275591
 20
220.940822
 40
2.0
100
AcDbArc
 50
0.0
 51
90.0
  0
LINE
  5
196
100
AcDbEntity
  8
M0
 62
     7
100
AcDbLine
 10
163.675591
 20
211.740823
 11
166.475591
 21
211.740823
  0
LINE
  5
197
100
AcDbEntity
  8
M0
 62
     7
100
AcDbLine
 10
163.675591
 20
203.740823
 11
166.475591
 21
203.740823
  0
ARC
  5
198
100
AcDbEntity
  8
M0
 62
     7
100
AcDbCircle
 10
166.475591
 20
206.940823
 40
3.2
100
AcDbArc
 50
270.0
 51
360.0
  0
ARC
  5
199
100
AcDbEntity
  8
M0
 62
     7
100
AcDbCircle
 10
166.475591
 20
208.540823
 40
3.2
100
AcDbArc
 50
0.0
 51
90.0
  0
LINE
  5
19A
100
AcDbEntity
  8
M0
  6
DASHDOT
 62
     7
100
AcDbLine
 10
127.975592
 20
210.04327
 11
127.975592
 21
207.193084
  0
LINE
  5
19B
100
AcDbEntity
  8
M0
 62
     7
100
AcDbLine
 10
163.275591
 20
201.540823
 11
163.275591
 21
200.940823
  0
ARC
  5
19C
100
AcDbEntity
  8
M0
 62
     7
100
AcDbCircle
 10
162.075591
 20
200.940823
 40
1.2
100
AcDbArc
 50
270.0
 51
360.0
  0
ARC
  5
19D
100
AcDbEntity
  8
M0
 62
     7
100
AcDbCircle
 10
162.075591
 20
216.140823
 40
1.2
100
AcDbArc
 50
9.594068
 51
90.0
  0
LINE
  5
19E
100
AcDbEntity
  8
M0
 62
     7
100
AcDbLine
 10
169.675591
 20
206.940823
 11
169.675591
 21
208.540823
  0
LINE
  5
19F
100
AcDbEntity
  8
M0
  6
DASHDOT
 62
     7
100
AcDbLine
 10
148.075591
 20
224.122892
 11
148.075591
 21
192.803994
  0
LINE
  5
1A0
100
AcDbEntity
  8
M0
  6
DASHDOT
 62
     7
100
AcDbLine
 10
166.102192
 20
207.740823
 11
164.894554
 21
207.740823
  0
LINE
  5
1A1
100
AcDbEntity
  8
M0
  6
DASHDOT
 62
     7
100
AcDbLine
 10
165.475591
 20
212.120623
 11
165.475591
 21
203.560637
  0
LINE
  5
1A2
100
AcDbEntity
  8
M0
  6
DASHDOT
 62
     7
100
AcDbLine
 10
162.221699
 20
210.140823
 11
167.053464
 21
210.140823
  0
LINE
  5
1A3
100
AcDbEntity
  8
M0
 62
     7
100
AcDbLine
 10
123.875592
 20
205.540823
 11
123.875592
 21
203.540823
  0
LINE
  5
1A4
100
AcDbEntity
  8
M0
 62
     7
100
AcDbLine
 10
125.075592
 20
209.140823
 11
125.075592
 21
203.098525
  0
LINE
  5
1A5
100
AcDbEntity
  8
M0
  6
DASHDOT
 62
     7
100
AcDbLine
 10
122.743694
 20
204.540823
 11
126.161858
 21
204.540823
  0
LINE
  5
1A6
100
AcDbEntity
  8
M0
 62
     7
100
AcDbLine
 10
125.475592
 20
209.540823
 11
126.875592
 21
209.540823
  0
ARC
  5
1A7
100
AcDbEntity
  8
M0
 62
     7
100
AcDbCircle
 10
125.475592
 20
209.140823
 40
0.4
100
AcDbArc
 50
90.0
 51
180.0
  0
LINE
  5
1A8
100
AcDbEntity
  8
M0
 62
     7
100
AcDbLine
 10
123.875592
 20
205.540823
 11
125.075592
 21
205.540823
  0
LINE
  5
1A9
100
AcDbEntity
  8
M0
 62
     7
100
AcDbLine
 10
123.875592
 20
203.540823
 11
125.075592
 21
203.540823
  0
LINE
  5
1AA
100
AcDbEntity
  8
M0
 62
     7
100
AcDbLine
 10
124.075592
 20
203.540823
 11
124.075592
 21
200.140823
  0
LINE
  5
1AB
100
AcDbEntity
  8
M0
  6
DASHDOT
 62
     7
100
AcDbLine
 10
141.075591
 20
218.353208
 11
141.075591
 21
216.888392
  0
LINE
  5
1AC
100
AcDbEntity
  8
M0
 62
     7
100
AcDbLine
 10
141.575591
 20
217.740822
 11
140.575591
 21
217.740822
  0
LINE
  5
1AD
100
AcDbEntity
  8
M0
 62
     7
100
AcDbLine
 10
141.575591
 20
217.340822
 11
141.575591
 21
217.740822
  0
LINE
  5
1AE
100
AcDbEntity
  8
M0
 62
     7
100
AcDbLine
 10
140.575591
 20
217.340822
 11
140.575591
 21
217.740822
  0
CIRCLE
  5
1AF
100
AcDbEntity
  8
M0
 62
     7
100
AcDbCircle
 10
146.275591
 20
215.540823
 40
0.5
  0
LINE
  5
1B0
100
AcDbEntity
  8
M0
  6
DASHDOT
 62
     7
100
AcDbLine
 10
145.535567
 20
215.540823
 11
147.015615
 21
215.540823
  0
LINE
  5
1B1
100
AcDbEntity
  8
M0
  6
DASHDOT
 62
     7
100
AcDbLine
 10
146.275591
 20
214.800799
 11
146.275591
 21
216.280846
  0
LINE
  5
1B2
100
AcDbEntity
  8
M0
 62
     7
100
AcDbLine
 10
147.275591
 20
202.222072
 11
147.275591
 21
220.940822
  0
ARC
  5
1B3
100
AcDbEntity
  8
M0
 62
     7
100
AcDbCircle
 10
165.475591
 20
210.140823
 40
1.16
100
AcDbArc
 50
208.865727
 51
511.134273
  0
ARC
  5
1B4
100
AcDbEntity
  8
M0
 62
     7
100
AcDbCircle
 10
165.475591
 20
205.340823
 40
1.16
100
AcDbArc
 50
208.865727
 51
511.134273
  0
CIRCLE
  5
1B5
100
AcDbEntity
  8
M0
 62
     7
100
AcDbCircle
 10
146.275591
 20
201.540823
 40
1.21
  0
LINE
  5
1B6
100
AcDbEntity
  8
M0
  6
DASHDOT
 62
     7
100
AcDbLine
 10
144.798925
 20
201.540823
 11
147.752258
 21
201.540823
  0
LINE
  5
1B7
100
AcDbEntity
  8
M0
  6
DASHDOT
 62
     7
100
AcDbLine
 10
146.275591
 20
200.064156
 11
146.275591
 21
203.017489
  0
LINE
  5
1B8
100
AcDbEntity
  8
M0
  6
DIVIDE
 62
     7
100
AcDbLine
 10
162.555591
 20
210.800823
 11
162.955591
 21
210.800823
  0
LINE
  5
1B9
100
AcDbEntity
  8
M0
  6
DIVIDE
 62
     7
100
AcDbLine
 10
162.555591
 20
209.480823
 11
162.955591
 21
209.480823
  0
LINE
  5
1BA
100
AcDbEntity
  8
M0
  6
DIVIDE
 62
     7
100
AcDbLine
 10
162.555591
 20
210.800823
 11
162.555591
 21
209.480823
  0
LINE
  5
1BB
100
AcDbEntity
  8
M0
  6
DIVIDE
 62
     7
100
AcDbLine
 10
162.955591
 20
209.480823
 11
162.955591
 21
210.800823
  0
LINE
  5
1BC
100
AcDbEntity
  8
M0
  6
DIVIDE
 62
     7
100
AcDbLine
 10
162.955591
 20
210.700823
 11
165.475591
 21
210.700823
  0
LINE
  5
1BD
100
AcDbEntity
  8
M0
  6
DIVIDE
 62
     7
100
AcDbLine
 10
162.955591
 20
209.580823
 11
165.475591
 21
209.580823
  0
LINE
  5
1BE
100
AcDbEntity
  8
M0
  6
DIVIDE
 62
     7
100
AcDbLine
 10
162.555591
 20
210.140823
 11
162.955591
 21
210.140823
  0
ARC
  5
1BF
100
AcDbEntity
  8
M0
  6
DIVIDE
 62
     7
100
AcDbCircle
 10
165.475591
 20
210.140823
 40
0.56
100
AcDbArc
 50
270.0
 51
450.0
  0
LINE
  5
1C0
100
AcDbEntity
  8
M0
  6
DIVIDE
 62
     7
100
AcDbLine
 10
162.555591
 20
206.000823
 11
162.955591
 21
206.000823
  0
LINE
  5
1C1
100
AcDbEntity
  8
M0
  6
DIVIDE
 62
     7
100
AcDbLine
 10
162.555591
 20
204.680823
 11
162.955591
 21
204.680823
  0
LINE
  5
1C2
100
AcDbEntity
  8
M0
  6
DIVIDE
 62
     7
100
AcDbLine
 10
162.555591
 20
206.000823
 11
162.555591
 21
204.680823
  0
LINE
  5
1C3
100
AcDbEntity
  8
M0
  6
DIVIDE
 62
     7
100
AcDbLine
 10
162.955591
 20
204.680823
 11
162.955591
 21
206.000823
  0
LINE
  5
1C4
100
AcDbEntity
  8
M0
  6
DIVIDE
 62
     7
100
AcDbLine
 10
162.141215
 20
205.340823
 11
166.772338
 21
205.340823
  0
LINE
  5
1C5
100
AcDbEntity
  8
M0
  6
DIVIDE
 62
     7
100
AcDbLine
 10
162.955591
 20
205.900823
 11
165.475591
 21
205.900823
  0
LINE
  5
1C6
100
AcDbEntity
  8
M0
  6
DIVIDE
 62
     7
100
AcDbLine
 10
162.955591
 20
204.780823
 11
165.475591
 21
204.780823
  0
LINE
  5
1C7
100
AcDbEntity
  8
M0
  6
DIVIDE
 62
     7
100
AcDbLine
 10
162.555591
 20
205.340823
 11
162.955591
 21
205.340823
  0
ARC
  5
1C8
100
AcDbEntity
  8
M0
  6
DIVIDE
 62
     7
100
AcDbCircle
 10
165.475591
 20
205.340823
 40
0.56
100
AcDbArc
 50
270.0
 51
450.0
  0
LINE
  5
1C9
100
AcDbEntity
  8
M0
  6
DASHDOT
 62
     7
100
AcDbLine
 10
163.066688
 20
207.420823
 11
147.43808
 21
207.420823
  0
LINE
  5
1CA
100
AcDbEntity
  8
M0
  6
DIVIDE
 62
     7
100
AcDbLine
 10
155.235591
 20
200.748532
 11
155.235591
 21
201.700823
  0
ARC
  5
1CB
100
AcDbEntity
  8
M0
  6
DIVIDE
 62
     7
100
AcDbCircle
 10
155.235591
 20
281.860821
 40
80.239998
100
AcDbArc
 50
266.083035
 51
273.916965
  0
ARC
  5
1CC
100
AcDbEntity
  8
M0
  6
DIVIDE
 62
     7
100
AcDbCircle
 10
236.895589
 20
207.420823
 40
88.159998
100
AcDbArc
 50
176.940049
 51
183.059951
  0
ARC
  5
1CD
100
AcDbEntity
  8
M0
  6
DIVIDE
 62
     7
100
AcDbCircle
 10
149.819919
 20
202.766013
 40
0.96
100
AcDbArc
 50
183.059951
 51
266.083035
  0
ARC
  5
1CE
100
AcDbEntity
  8
M0
  6
DIVIDE
 62
     7
100
AcDbCircle
 10
160.651263
 20
202.766013
 40
0.96
100
AcDbArc
 50
273.916965
 51
356.940049
  0
ARC
  5
1CF
100
AcDbEntity
  8
M0
  6
DIVIDE
 62
     7
100
AcDbCircle
 10
73.575593
 20
207.420823
 40
88.159998
100
AcDbArc
 50
-3.059951
 51
3.059951
  0
ARC
  5
1D0
100
AcDbEntity
  8
M0
  6
DIVIDE
 62
     7
100
AcDbCircle
 10
155.235591
 20
132.980824
 40
80.239998
100
AcDbArc
 50
86.083035
 51
93.916965
  0
ARC
  5
1D1
100
AcDbEntity
  8
M0
  6
DIVIDE
 62
     7
100
AcDbCircle
 10
149.819919
 20
212.075632
 40
0.96
100
AcDbArc
 50
93.916965
 51
176.940049
  0
ARC
  5
1D2
100
AcDbEntity
  8
M0
  6
DIVIDE
 62
     7
100
AcDbCircle
 10
160.651263
 20
212.075632
 40
0.96
100
AcDbArc
 50
3.059951
 51
86.083035
  0
LINE
  5
1D3
100
AcDbEntity
  8
M0
  6
DASHDOT
 62
     7
100
AcDbLine
 10
155.235591
 20
213.617696
 11
155.235591
 21
200.985577
  0
LINE
  5
1D4
100
AcDbEntity
  8
M0
  6
DIVIDE
 62
     7
100
AcDbLine
 10
150.455591
 20
202.780823
 11
149.595591
 21
202.780823
  0
ARC
  5
1D5
100
AcDbEntity
  8
M0
  6
DIVIDE
 62
     7
100
AcDbCircle
 10
149.595591
 20
202.860823
 40
0.08
100
AcDbArc
 50
180.0
 51
270.0
  0
LINE
  5
1D6
100
AcDbEntity
  8
M0
  6
DIVIDE
 62
     7
100
AcDbLine
 10
149.515591
 20
203.020823
 11
149.515591
 21
202.860823
  0
LINE
  5
1D7
100
AcDbEntity
  8
M0
  6
DIVIDE
 62
     7
100
AcDbLine
 10
152.955591
 20
203.020823
 11
149.515591
 21
203.020823
  0
LINE
  5
1D8
100
AcDbEntity
  8
M0
  6
DASHDOT
 62
     7
100
AcDbLine
 10
151.235591
 20
201.598343
 11
151.235591
 21
203.40097
  0
LINE
  5
1D9
100
AcDbEntity
  8
M0
  6
DIVIDE
 62
     7
100
AcDbLine
 10
152.015591
 20
202.180823
 11
152.015591
 21
202.780823
  0
LINE
  5
1DA
100
AcDbEntity
  8
M0
  6
DIVIDE
 62
     7
100
AcDbLine
 10
152.015591
 20
202.780823
 11
152.875591
 21
202.780823
  0
ARC
  5
1DB
100
AcDbEntity
  8
M0
  6
DIVIDE
 62
     7
100
AcDbCircle
 10
152.875591
 20
202.860823
 40
0.08
100
AcDbArc
 50
-90.0
 51
0.0
  0
LINE
  5
1DC
100
AcDbEntity
  8
M0
  6
DIVIDE
 62
     7
100
AcDbLine
 10
152.955591
 20
203.020823
 11
152.955591
 21
202.860823
  0
LINE
  5
1DD
100
AcDbEntity
  8
M0
  6
DIVIDE
 62
     7
100
AcDbLine
 10
150.455591
 20
202.180823
 11
150.455591
 21
202.780823
  0
ARC
  5
1DE
100
AcDbEntity
  8
M0
  6
DIVIDE
 62
     7
100
AcDbCircle
 10
150.495591
 20
202.180823
 40
0.04
100
AcDbArc
 50
180.0
 51
270.0
  0
LINE
  5
1DF
100
AcDbEntity
  8
M0
  6
DIVIDE
 62
     7
100
AcDbLine
 10
150.495591
 20
202.140823
 11
151.975591
 21
202.140823
  0
ARC
  5
1E0
100
AcDbEntity
  8
M0
  6
DIVIDE
 62
     7
100
AcDbCircle
 10
151.975591
 20
202.180823
 40
0.04
100
AcDbArc
 50
-90.0
 51
0.0
  0
LINE
  5
1E1
100
AcDbEntity
  8
M0
 62
     7
100
AcDbLine
 10
148.755591
 20
216.340823
 11
163.755591
 21
216.340823
  0
LINE
  5
1E2
100
AcDbEntity
  8
M0
 62
     7
100
AcDbLine
 10
148.755591
 20
201.540823
 11
163.755591
 21
201.540823
  0
LINE
  5
1E3
100
AcDbEntity
  8
M0
 62
     7
100
AcDbLine
 10
148.755591
 20
216.340823
 11
148.755591
 21
201.540823
  0
LINE
  5
1E4
100
AcDbEntity
  8
M0
 62
     7
100
AcDbLine
 10
163.755591
 20
201.540823
 11
163.755591
 21
216.340823
  0
CIRCLE
  5
1E5
100
AcDbEntity
  8
M0
  6
DIVIDE
 62
     7
100
AcDbCircle
 10
155.955591
 20
208.940823
 40
6.6
  0
LINE
  5
1E6
100
AcDbEntity
  8
M0
  6
DASHDOT
 62
     7
100
AcDbLine
 10
147.355592
 20
208.940823
 11
164.55559
 21
208.940823
  0
LINE
  5
1E7
100
AcDbEntity
  8
M0
  6
DASHDOT
 62
     7
100
AcDbLine
 10
155.955591
 20
198.01393
 11
155.955591
 21
217.540822
  0
LINE
  5
1E8
100
AcDbEntity
  8
M0
  6
DIVIDE
 62
     7
100
AcDbLine
 10
156.755591
 20
199.060823
 11
155.155591
 21
199.060823
  0
LINE
  5
1E9
100
AcDbEntity
  8
M0
  6
DIVIDE
 62
     7
100
AcDbLine
 10
155.155591
 20
199.060823
 11
155.155591
 21
200.506704
  0
LINE
  5
1EA
100
AcDbEntity
  8
M0
  6
DIVIDE
 62
     7
100
AcDbLine
 10
154.755591
 20
200.506704
 11
154.755591
 21
202.450831
  0
LINE
  5
1EB
100
AcDbEntity
  8
M0
  6
DIVIDE
 62
     7
100
AcDbLine
 10
157.155591
 20
200.506704
 11
157.155591
 21
202.450831
  0
LINE
  5
1EC
100
AcDbEntity
  8
M0
  6
DIVIDE
 62
     7
100
AcDbLine
 10
156.755591
 20
199.060823
 11
156.755591
 21
200.506704
  0
LINE
  5
1ED
100
AcDbEntity
  8
M0
  6
DIVIDE
 62
     7
100
AcDbLine
 10
154.755591
 20
200.506704
 11
157.155591
 21
200.506704
  0
TEXT
  5
1EE
100
AcDbEntity
  8
M0
100
AcDbText
 10
47.450787
 20
253.899581
 40
6.0
  1
寸法図　ＵＢ－５００Ｊ
 41
0.861111
  7
STANDARD
100
AcDbText
  0
LINE
  5
1EF
100
AcDbEntity
  8
M0
100
AcDbLine
 10
172.075591
 20
119.180052
 11
172.075591
 21
129.580052
  0
LINE
  5
1F0
100
AcDbEntity
  8
M0
100
AcDbLine
 10
124.075592
 20
131.173832
 11
124.075592
 21
119.278537
  0
LINE
  5
1F1
100
AcDbEntity
  8
M0
100
AcDbLine
 10
127.275592
 20
99.580052
 11
168.856931
 21
99.580052
  0
LINE
  5
1F2
100
AcDbEntity
  8
M0
  6
DASHDOT
100
AcDbLine
 10
148.075591
 20
96.221248
 11
148.075591
 21
140.054345
  0
LINE
  5
1F3
100
AcDbEntity
  8
M0
100
AcDbLine
 10
172.075591
 20
104.580052
 11
124.460519
 21
104.580052
  0
LINE
  5
1F4
100
AcDbEntity
  8
M0
100
AcDbLine
 10
170.528189
 20
100.711549
 11
171.646451
 21
103.507203
  0
ARC
  5
1F5
100
AcDbEntity
  8
M0
100
AcDbCircle
 10
166.075591
 20
105.735547
 40
6.0
100
AcDbArc
 50
338.198591
 51
360.0
  0
ARC
  5
1F6
100
AcDbEntity
  8
M0
100
AcDbCircle
 10
168.856931
 20
101.380052
 40
1.8
100
AcDbArc
 50
270.0
 51
338.198591
  0
ARC
  5
1F7
100
AcDbEntity
  8
M0
100
AcDbCircle
 10
128.894251
 20
101.380052
 40
1.8
100
AcDbArc
 50
201.801409
 51
270.0
  0
LINE
  5
1F8
100
AcDbEntity
  8
M0
100
AcDbLine
 10
125.091503
 20
113.580052
 11
171.059679
 21
113.580052
  0
LINE
  5
1F9
100
AcDbEntity
  8
M0
100
AcDbLine
 10
124.25968
 20
113.180052
 11
171.891502
 21
113.180052
  0
LINE
  5
1FA
100
AcDbEntity
  8
M0
100
AcDbLine
 10
124.787902
 20
117.580052
 11
171.36328
 21
117.580052
  0
LINE
  5
1FB
100
AcDbEntity
  8
M0
100
AcDbLine
 10
124.075592
 20
119.180052
 11
172.069505
 21
119.180052
  0
LINE
  5
1FC
100
AcDbEntity
  8
M0
100
AcDbLine
 10
125.275592
 20
116.980052
 11
125.275592
 21
115.89628
  0
LINE
  5
1FD
100
AcDbEntity
  8
M0
100
AcDbLine
 10
124.485855
 20
113.316807
 11
124.865328
 21
113.443298
  0
LINE
  5
1FE
100
AcDbEntity
  8
M0
100
AcDbLine
 10
124.399845
 20
117.883038
 11
124.099478
 21
119.084508
  0
ARC
  5
1FF
100
AcDbEntity
  8
M0
100
AcDbCircle
 10
124.787902
 20
117.980052
 40
0.4
100
AcDbArc
 50
194.036243
 51
270.0
  0
LINE
  5
200
100
AcDbEntity
  8
M0
100
AcDbLine
 10
124.075592
 20
112.747597
 11
124.075592
 21
105.692514
  0
ARC
  5
201
100
AcDbEntity
  8
M0
100
AcDbCircle
 10
124.875592
 20
119.278537
 40
0.8
100
AcDbArc
 50
180.0
 51
194.036243
  0
ARC
  5
202
100
AcDbEntity
  8
M0
100
AcDbCircle
 10
124.675592
 20
116.980052
 40
0.6
100
AcDbArc
 50
0.0
 51
90.0
  0
ARC
  5
203
100
AcDbEntity
  8
M0
100
AcDbCircle
 10
124.675592
 20
114.012508
 40
0.6
100
AcDbArc
 50
288.434949
 51
360.0
  0
ARC
  5
204
100
AcDbEntity
  8
M0
100
AcDbCircle
 10
124.675592
 20
112.747597
 40
0.6
100
AcDbArc
 50
108.434949
 51
180.0
  0
LINE
  5
205
100
AcDbEntity
  8
M0
100
AcDbLine
 10
172.075591
 20
112.747597
 11
172.075591
 21
105.692514
  0
ARC
  5
206
100
AcDbEntity
  8
M0
100
AcDbCircle
 10
171.475591
 20
112.747597
 40
0.6
100
AcDbArc
 50
0.0
 51
71.565051
  0
ARC
  5
207
100
AcDbEntity
  8
M0
100
AcDbCircle
 10
171.475591
 20
114.012508
 40
0.6
100
AcDbArc
 50
180.0
 51
251.565051
  0
LINE
  5
208
100
AcDbEntity
  8
M0
100
AcDbLine
 10
171.665327
 20
113.316807
 11
171.285854
 21
113.443298
  0
LINE
  5
209
100
AcDbEntity
  8
M0
100
AcDbLine
 10
170.875591
 20
116.980052
 11
170.875591
 21
115.89628
  0
ARC
  5
20A
100
AcDbEntity
  8
M0
100
AcDbCircle
 10
171.475591
 20
116.980052
 40
0.6
100
AcDbArc
 50
90.0
 51
180.0
  0
ARC
  5
20B
100
AcDbEntity
  8
M0
100
AcDbCircle
 10
171.36328
 20
117.980052
 40
0.4
100
AcDbArc
 50
270.0
 51
345.963757
  0
LINE
  5
20C
100
AcDbEntity
  8
M0
100
AcDbLine
 10
171.751337
 20
117.883038
 11
172.051705
 21
119.084508
  0
ARC
  5
20D
100
AcDbEntity
  8
M0
100
AcDbCircle
 10
171.275591
 20
119.278537
 40
0.8
100
AcDbArc
 50
-14.036243
 51
0.0
  0
LINE
  5
20E
100
AcDbEntity
  8
M0
100
AcDbLine
 10
169.675591
 20
135.980052
 11
163.675591
 21
135.980052
  0
LINE
  5
20F
100
AcDbEntity
  8
M0
100
AcDbLine
 10
163.275591
 20
136.980052
 11
163.275591
 21
128.433857
  0
LINE
  5
210
100
AcDbEntity
  8
M0
100
AcDbLine
 10
163.675591
 20
135.980052
 11
163.675591
 21
128.728171
  0
LINE
  5
211
100
AcDbEntity
  8
M0
100
AcDbLine
 10
163.675591
 20
135.980052
 11
163.275591
 21
136.980052
  0
LINE
  5
212
100
AcDbEntity
  8
M0
100
AcDbLine
 10
166.075591
 20
135.580052
 11
163.675591
 21
135.580052
  0
ARC
  5
213
100
AcDbEntity
  8
M0
100
AcDbCircle
 10
166.075591
 20
129.580052
 40
6.0
100
AcDbArc
 50
0.0
 51
90.0
  0
LINE
  5
214
100
AcDbEntity
  8
M0
100
AcDbLine
 10
129.059592
 20
136.980052
 11
163.275591
 21
136.980052
  0
LINE
  5
215
100
AcDbEntity
  8
M0
100
AcDbLine
 10
157.075591
 20
135.830238
 11
157.075591
 21
130.580052
  0
LINE
  5
216
100
AcDbEntity
  8
M0
100
AcDbLine
 10
153.075591
 20
135.830238
 11
153.075591
 21
130.580052
  0
LINE
  5
217
100
AcDbEntity
  8
M0
100
AcDbLine
 10
156.763734
 20
130.580052
 11
153.313709
 21
130.580052
  0
LINE
  5
218
100
AcDbEntity
  8
M0
100
AcDbLine
 10
158.475591
 20
136.980052
 11
158.475591
 21
136.860052
  0
LINE
  5
219
100
AcDbEntity
  8
M0
100
AcDbLine
 10
151.675591
 20
136.980052
 11
151.675591
 21
136.860052
  0
LINE
  5
21A
100
AcDbEntity
  8
M0
100
AcDbLine
 10
158.475591
 20
136.860052
 11
158.075591
 21
136.860052
  0
ARC
  5
21B
100
AcDbEntity
  8
M0
100
AcDbCircle
 10
152.075591
 20
136.060052
 40
0.8
100
AcDbArc
 50
5.73917
 51
90.0
  0
LINE
  5
21C
100
AcDbEntity
  8
M0
100
AcDbLine
 10
153.269576
 20
135.780052
 11
156.881606
 21
135.780052
  0
ARC
  5
21D
100
AcDbEntity
  8
M0
100
AcDbCircle
 10
153.269576
 20
136.180052
 40
0.4
100
AcDbArc
 50
185.73917
 51
270.0
  0
ARC
  5
21E
100
AcDbEntity
  8
M0
100
AcDbCircle
 10
158.075591
 20
136.060052
 40
0.8
100
AcDbArc
 50
90.0
 51
174.26083
  0
ARC
  5
21F
100
AcDbEntity
  8
M0
100
AcDbCircle
 10
156.881606
 20
136.180052
 40
0.4
100
AcDbArc
 50
270.0
 51
354.26083
  0
LINE
  5
220
100
AcDbEntity
  8
M0
100
AcDbLine
 10
152.075591
 20
136.860052
 11
151.675591
 21
136.860052
  0
LINE
  5
221
100
AcDbEntity
  8
M0
100
AcDbLine
 10
128.515592
 20
140.780052
 11
145.105591
 21
140.780052
  0
LINE
  5
222
100
AcDbEntity
  8
M0
100
AcDbLine
 10
127.275592
 20
138.980052
 11
147.275591
 21
138.980052
  0
LINE
  5
223
100
AcDbEntity
  8
M0
  6
DASHDOT
100
AcDbLine
 10
137.075591
 20
141.700565
 11
137.075591
 21
137.87265
  0
LINE
  5
224
100
AcDbEntity
  8
M0
100
AcDbLine
 10
147.275591
 20
138.980052
 11
147.275591
 21
136.980052
  0
LINE
  5
225
100
AcDbEntity
  8
M0
100
AcDbLine
 10
126.875592
 20
138.580052
 11
126.875592
 21
136.780052
  0
LINE
  5
226
100
AcDbEntity
  8
M0
  6
DASHDOT
100
AcDbLine
 10
123.412939
 20
133.180052
 11
125.677789
 21
133.180052
  0
LINE
  5
227
100
AcDbEntity
  8
M0
100
AcDbLine
 10
126.075592
 20
135.980052
 11
125.275592
 21
135.980052
  0
LINE
  5
228
100
AcDbEntity
  8
M0
100
AcDbLine
 10
125.075592
 20
135.780052
 11
125.075592
 21
134.384605
  0
ARC
  5
229
100
AcDbEntity
  8
M0
100
AcDbCircle
 10
125.275592
 20
135.780052
 40
0.2
100
AcDbArc
 50
90.0
 51
180.0
  0
ARC
  5
22A
100
AcDbEntity
  8
M0
100
AcDbCircle
 10
126.075592
 20
136.780052
 40
0.8
100
AcDbArc
 50
270.0
 51
360.0
  0
ARC
  5
22B
100
AcDbEntity
  8
M0
100
AcDbCircle
 10
127.275592
 20
138.580052
 40
0.4
100
AcDbArc
 50
90.0
 51
180.0
  0
ARC
  5
22C
100
AcDbEntity
  8
M0
100
AcDbCircle
 10
130.074632
 20
131.066534
 40
6.0
100
AcDbArc
 50
99.739763
 51
181.024675
  0
LINE
  5
22D
100
AcDbEntity
  8
M0
100
AcDbLine
 10
125.835592
 20
100.33644
 11
125.835592
 21
102.823665
  0
LINE
  5
22E
100
AcDbEntity
  8
M0
  6
DASHDOT
100
AcDbLine
 10
123.769493
 20
101.580052
 11
126.663855
 21
101.580052
  0
LINE
  5
22F
100
AcDbEntity
  8
M0
100
AcDbLine
 10
127.222993
 20
100.711549
 11
126.075592
 21
103.580052
  0
LINE
  5
230
100
AcDbEntity
  8
M0
100
AcDbLine
 10
126.075592
 20
103.580052
 11
125.070607
 21
104.082545
  0
ARC
  5
231
100
AcDbEntity
  8
M0
100
AcDbCircle
 10
125.875592
 20
105.692514
 40
1.8
100
AcDbArc
 50
180.0
 51
243.434949
  0
ARC
  5
232
100
AcDbEntity
  8
M0
100
AcDbCircle
 10
127.275592
 20
100.780052
 40
1.2
100
AcDbArc
 50
180.0
 51
270.0
  0
LINE
  5
233
100
AcDbEntity
  8
M0
100
AcDbLine
 10
126.075592
 20
103.580052
 11
126.075592
 21
100.780052
  0
ARC
  5
234
100
AcDbEntity
  8
M0
100
AcDbCircle
 10
125.955592
 20
102.823665
 40
0.12
100
AcDbArc
 50
105.0
 51
180.0
  0
ARC
  5
235
100
AcDbEntity
  8
M0
100
AcDbCircle
 10
125.915592
 20
103.102825
 40
0.16
100
AcDbArc
 50
285.0
 51
360.0
  0
LINE
  5
236
100
AcDbEntity
  8
M0
100
AcDbLine
 10
125.957003
 20
102.948277
 11
125.924533
 21
102.939576
  0
ARC
  5
237
100
AcDbEntity
  8
M0
100
AcDbCircle
 10
125.955592
 20
100.33644
 40
0.12
100
AcDbArc
 50
180.0
 51
255.0
  0
LINE
  5
238
100
AcDbEntity
  8
M0
100
AcDbLine
 10
126.267859
 20
100.128534
 11
125.924533
 21
100.220528
  0
LINE
  5
239
100
AcDbEntity
  8
M0
100
AcDbLine
 10
125.432181
 20
102.580052
 11
125.835592
 21
102.580052
  0
LINE
  5
23A
100
AcDbEntity
  8
M0
100
AcDbLine
 10
125.675592
 20
100.580052
 11
125.675592
 21
102.580052
  0
LINE
  5
23B
100
AcDbEntity
  8
M0
100
AcDbLine
 10
125.515592
 20
100.580052
 11
125.515592
 21
102.580052
  0
LINE
  5
23C
100
AcDbEntity
  8
M0
100
AcDbLine
 10
128.515592
 20
140.780052
 11
128.515592
 21
139.180052
  0
LINE
  5
23D
100
AcDbEntity
  8
M0
100
AcDbLine
 10
145.635591
 20
139.500052
 11
145.635591
 21
139.180052
  0
LINE
  5
23E
100
AcDbEntity
  8
M0
100
AcDbLine
 10
169.675591
 20
135.980052
 11
169.675591
 21
134.380052
  0
LINE
  5
23F
100
AcDbEntity
  8
M0
100
AcDbLine
 10
125.432181
 20
100.580052
 11
125.835592
 21
100.580052
  0
LINE
  5
240
100
AcDbEntity
  8
M0
100
AcDbLine
 10
128.515592
 20
139.180052
 11
145.635591
 21
139.180052
  0
LINE
  5
241
100
AcDbEntity
  8
M0
100
AcDbLine
 10
145.435591
 20
138.980052
 11
145.435591
 21
139.180052
  0
LINE
  5
242
100
AcDbEntity
  8
M0
100
AcDbLine
 10
128.715592
 20
138.980052
 11
128.715592
 21
139.180052
  0
LINE
  5
243
100
AcDbEntity
  8
M0
100
AcDbLine
 10
129.475592
 20
140.780052
 11
129.475592
 21
139.180052
  0
LINE
  5
244
100
AcDbEntity
  8
M0
100
AcDbLine
 10
130.475592
 20
139.180052
 11
130.475592
 21
140.780052
  0
LINE
  5
245
100
AcDbEntity
  8
M0
100
AcDbLine
 10
131.675592
 20
139.180052
 11
131.675592
 21
140.780052
  0
LINE
  5
246
100
AcDbEntity
  8
M0
100
AcDbLine
 10
134.075591
 20
139.180052
 11
134.075591
 21
140.780052
  0
LINE
  5
247
100
AcDbEntity
  8
M0
100
AcDbLine
 10
136.475591
 20
139.180052
 11
136.475591
 21
140.780052
  0
LINE
  5
248
100
AcDbEntity
  8
M0
100
AcDbLine
 10
132.875591
 20
139.180052
 11
132.875591
 21
140.780052
  0
LINE
  5
249
100
AcDbEntity
  8
M0
100
AcDbLine
 10
137.675591
 20
139.180052
 11
137.675591
 21
140.780052
  0
LINE
  5
24A
100
AcDbEntity
  8
M0
100
AcDbLine
 10
135.275591
 20
139.180052
 11
135.275591
 21
140.780052
  0
LINE
  5
24B
100
AcDbEntity
  8
M0
100
AcDbLine
 10
138.875591
 20
139.180052
 11
138.875591
 21
140.780052
  0
LINE
  5
24C
100
AcDbEntity
  8
M0
100
AcDbLine
 10
140.075591
 20
139.180052
 11
140.075591
 21
140.780052
  0
LINE
  5
24D
100
AcDbEntity
  8
M0
100
AcDbLine
 10
142.475591
 20
139.180052
 11
142.475591
 21
140.780052
  0
LINE
  5
24E
100
AcDbEntity
  8
M0
100
AcDbLine
 10
143.675591
 20
139.180052
 11
143.675591
 21
140.780052
  0
LINE
  5
24F
100
AcDbEntity
  8
M0
100
AcDbLine
 10
144.675591
 20
140.780052
 11
144.675591
 21
139.180052
  0
LINE
  5
250
100
AcDbEntity
  8
M0
100
AcDbLine
 10
141.275591
 20
139.180052
 11
141.275591
 21
140.780052
  0
LINE
  5
251
100
AcDbEntity
  8
M0
100
AcDbLine
 10
145.069954
 20
139.920052
 11
147.481229
 21
139.920052
  0
LINE
  5
252
100
AcDbEntity
  8
M0
100
AcDbLine
 10
147.489591
 20
139.500052
 11
145.061591
 21
139.500052
  0
LINE
  5
253
100
AcDbEntity
  8
M0
100
AcDbLine
 10
147.489591
 20
139.500052
 11
147.489591
 21
139.862823
  0
LINE
  5
254
100
AcDbEntity
  8
M0
100
AcDbLine
 10
147.445591
 20
140.045207
 11
147.445591
 21
142.700052
  0
ARC
  5
255
100
AcDbEntity
  8
M0
100
AcDbCircle
 10
147.645591
 20
140.045207
 40
0.2
100
AcDbArc
 50
180.0
 51
207.126753
  0
ARC
  5
256
100
AcDbEntity
  8
M0
100
AcDbCircle
 10
147.289591
 20
139.862823
 40
0.2
100
AcDbArc
 50
0.0
 51
27.126753
  0
LINE
  5
257
100
AcDbEntity
  8
M0
100
AcDbLine
 10
145.425591
 20
143.020052
 11
147.125591
 21
143.020052
  0
ARC
  5
258
100
AcDbEntity
  8
M0
100
AcDbCircle
 10
147.125591
 20
142.700052
 40
0.32
100
AcDbArc
 50
0.0
 51
90.0
  0
ARC
  5
259
100
AcDbEntity
  8
M0
100
AcDbCircle
 10
145.425591
 20
142.700052
 40
0.32
100
AcDbArc
 50
90.0
 51
180.0
  0
LINE
  5
25A
100
AcDbEntity
  8
M0
100
AcDbLine
 10
145.105591
 20
140.045207
 11
145.105591
 21
142.700052
  0
ARC
  5
25B
100
AcDbEntity
  8
M0
100
AcDbCircle
 10
145.261591
 20
139.862823
 40
0.2
100
AcDbArc
 50
152.873247
 51
180.0
  0
ARC
  5
25C
100
AcDbEntity
  8
M0
100
AcDbCircle
 10
144.905591
 20
140.045207
 40
0.2
100
AcDbArc
 50
-27.126753
 51
0.0
  0
LINE
  5
25D
100
AcDbEntity
  8
M0
100
AcDbLine
 10
145.061591
 20
139.500052
 11
145.061591
 21
139.862823
  0
LINE
  5
25E
100
AcDbEntity
  8
M0
100
AcDbLine
 10
147.489591
 20
139.588052
 11
147.489591
 21
139.812052
  0
LINE
  5
25F
100
AcDbEntity
  8
M0
100
AcDbLine
 10
145.715591
 20
139.500052
 11
145.715591
 21
139.020052
  0
ARC
  5
260
100
AcDbEntity
  8
M0
100
AcDbCircle
 10
145.755591
 20
139.020052
 40
0.04
100
AcDbArc
 50
180.0
 51
270.0
  0
LINE
  5
261
100
AcDbEntity
  8
M0
100
AcDbLine
 10
146.795591
 20
138.980052
 11
145.755591
 21
138.980052
  0
LINE
  5
262
100
AcDbEntity
  8
M0
100
AcDbLine
 10
146.835591
 20
139.500052
 11
146.835591
 21
139.020052
  0
ARC
  5
263
100
AcDbEntity
  8
M0
100
AcDbCircle
 10
146.795591
 20
139.020052
 40
0.04
100
AcDbArc
 50
270.0
 51
360.0
  0
LINE
  5
264
100
AcDbEntity
  8
M0
100
AcDbLine
 10
145.061591
 20
139.588052
 11
145.061591
 21
139.812052
  0
LINE
  5
265
100
AcDbEntity
  8
M0
  6
DASHDOT
100
AcDbLine
 10
146.275591
 20
144.295945
 11
146.275591
 21
135.878289
  0
LINE
  5
266
100
AcDbEntity
  8
M0
  6
DIVIDE
100
AcDbLine
 10
161.635591
 20
139.700052
 11
161.635591
 21
149.980051
  0
LINE
  5
267
100
AcDbEntity
  8
M0
  6
DIVIDE
100
AcDbLine
 10
148.835591
 20
149.980051
 11
148.835591
 21
139.700052
  0
LINE
  5
268
100
AcDbEntity
  8
M0
  6
DASHDOT
100
AcDbLine
 10
155.235591
 20
136.534249
 11
155.235591
 21
151.187705
  0
ARC
  5
269
100
AcDbEntity
  8
M0
  6
DIVIDE
100
AcDbCircle
 10
149.035591
 20
149.980051
 40
0.2
100
AcDbArc
 50
90.0
 51
180.0
  0
LINE
  5
26A
100
AcDbEntity
  8
M0
  6
DIVIDE
100
AcDbLine
 10
161.735591
 20
137.500052
 11
161.735591
 21
137.580052
  0
LINE
  5
26B
100
AcDbEntity
  8
M0
  6
DIVIDE
100
AcDbLine
 10
148.735591
 20
137.500052
 11
148.735591
 21
137.580052
  0
LINE
  5
26C
100
AcDbEntity
  8
M0
  6
DIVIDE
100
AcDbLine
 10
161.655591
 20
137.660052
 11
161.655591
 21
139.700052
  0
ARC
  5
26D
100
AcDbEntity
  8
M0
  6
DIVIDE
100
AcDbCircle
 10
161.735591
 20
137.660052
 40
0.08
100
AcDbArc
 50
180.0
 51
270.0
  0
ARC
  5
26E
100
AcDbEntity
  8
M0
  6
DIVIDE
100
AcDbCircle
 10
148.735591
 20
137.660052
 40
0.08
100
AcDbArc
 50
-90.0
 51
0.0
  0
LINE
  5
26F
100
AcDbEntity
  8
M0
  6
DIVIDE
100
AcDbLine
 10
148.815591
 20
137.660052
 11
148.815591
 21
139.700052
  0
LINE
  5
270
100
AcDbEntity
  8
M0
  6
DASHDOT
100
AcDbLine
 10
151.235591
 20
141.537342
 11
151.235591
 21
139.795439
  0
LINE
  5
271
100
AcDbEntity
  8
M0
  6
DASHDOT
100
AcDbLine
 10
150.472405
 20
140.700052
 11
152.10077
 21
140.700052
  0
LINE
  5
272
100
AcDbEntity
  8
M0
  6
DIVIDE
100
AcDbLine
 10
148.835591
 20
140.060052
 11
148.275591
 21
140.060052
  0
LINE
  5
273
100
AcDbEntity
  8
M0
  6
DIVIDE
100
AcDbLine
 10
148.235591
 20
141.300052
 11
148.235591
 21
140.100052
  0
ARC
  5
274
100
AcDbEntity
  8
M0
  6
DIVIDE
100
AcDbCircle
 10
148.275591
 20
141.300052
 40
0.04
100
AcDbArc
 50
90.0
 51
180.0
  0
LINE
  5
275
100
AcDbEntity
  8
M0
  6
DIVIDE
100
AcDbLine
 10
148.835591
 20
141.340052
 11
148.275591
 21
141.340052
  0
ARC
  5
276
100
AcDbEntity
  8
M0
  6
DIVIDE
100
AcDbCircle
 10
148.275591
 20
140.100052
 40
0.04
100
AcDbArc
 50
180.0
 51
270.0
  0
ARC
  5
277
100
AcDbEntity
  8
M0
  6
DIVIDE
100
AcDbCircle
 10
161.435591
 20
149.980051
 40
0.2
100
AcDbArc
 50
0.0
 51
90.0
  0
LINE
  5
278
100
AcDbEntity
  8
M0
  6
DIVIDE
100
AcDbLine
 10
149.035591
 20
150.180051
 11
161.435591
 21
150.180051
  0
LINE
  5
279
100
AcDbEntity
  8
M0
  6
DIVIDE
100
AcDbLine
 10
148.735591
 20
137.500052
 11
149.035591
 21
137.500052
  0
LINE
  5
27A
100
AcDbEntity
  8
M0
100
AcDbLine
 10
164.16739
 20
142.780052
 11
160.125396
 21
142.780052
  0
LINE
  5
27B
100
AcDbEntity
  8
M0
  6
DIVIDE
100
AcDbLine
 10
149.255591
 20
146.980051
 11
149.255591
 21
147.457209
  0
LINE
  5
27C
100
AcDbEntity
  8
M0
  6
DIVIDE
100
AcDbLine
 10
149.594244
 20
158.15954
 11
149.495591
 21
157.600051
  0
LINE
  5
27D
100
AcDbEntity
  8
M0
  6
DIVIDE
100
AcDbLine
 10
149.495591
 20
157.600051
 11
149.495591
 21
147.862894
  0
ARC
  5
27E
100
AcDbEntity
  8
M0
  6
DIVIDE
100
AcDbCircle
 10
155.955591
 20
135.500052
 40
23.999999
100
AcDbArc
 50
96.394995
 51
103.900535
  0
ARC
  5
27F
100
AcDbEntity
  8
M0
  6
DIVIDE
100
AcDbCircle
 10
150.38209
 20
158.020622
 40
0.8
100
AcDbArc
 50
103.900535
 51
170.0
  0
ARC
  5
280
100
AcDbEntity
  8
M0
  6
DIVIDE
100
AcDbCircle
 10
153.215591
 20
159.946981
 40
0.6
100
AcDbArc
 50
276.394995
 51
311.850881
  0
ARC
  5
281
100
AcDbEntity
  8
M0
  6
DIVIDE
100
AcDbCircle
 10
155.955591
 20
135.500052
 40
23.999999
100
AcDbArc
 50
76.099465
 51
83.605005
  0
ARC
  5
282
100
AcDbEntity
  8
M0
  6
DIVIDE
100
AcDbCircle
 10
158.695591
 20
159.946981
 40
0.6
100
AcDbArc
 50
228.149119
 51
263.605005
  0
LINE
  5
283
100
AcDbEntity
  8
M0
  6
DIVIDE
100
AcDbLine
 10
158.295274
 20
159.500051
 11
153.615908
 21
159.500051
  0
ARC
  5
284
100
AcDbEntity
  8
M0
  6
DIVIDE
100
AcDbCircle
 10
161.529092
 20
158.020622
 40
0.8
100
AcDbArc
 50
10.0
 51
76.099465
  0
LINE
  5
285
100
AcDbEntity
  8
M0
  6
DIVIDE
100
AcDbLine
 10
162.415591
 20
157.600051
 11
162.415591
 21
147.862894
  0
LINE
  5
286
100
AcDbEntity
  8
M0
  6
DIVIDE
100
AcDbLine
 10
162.316938
 20
158.15954
 11
162.415591
 21
157.600051
  0
LINE
  5
287
100
AcDbEntity
  8
M0
  6
DIVIDE
100
AcDbLine
 10
149.31417
 20
147.59863
 11
149.437012
 21
147.721473
  0
ARC
  5
288
100
AcDbEntity
  8
M0
  6
DIVIDE
100
AcDbCircle
 10
149.455591
 20
147.457209
 40
0.2
100
AcDbArc
 50
135.0
 51
180.0
  0
ARC
  5
289
100
AcDbEntity
  8
M0
  6
DIVIDE
100
AcDbCircle
 10
149.295591
 20
147.862894
 40
0.2
100
AcDbArc
 50
315.0
 51
360.0
  0
LINE
  5
28A
100
AcDbEntity
  8
M0
  6
DIVIDE
100
AcDbLine
 10
162.655591
 20
146.980051
 11
162.655591
 21
147.457209
  0
ARC
  5
28B
100
AcDbEntity
  8
M0
  6
DIVIDE
100
AcDbCircle
 10
162.455591
 20
147.457209
 40
0.2
100
AcDbArc
 50
0.0
 51
45.0
  0
ARC
  5
28C
100
AcDbEntity
  8
M0
  6
DIVIDE
100
AcDbCircle
 10
162.615591
 20
147.862894
 40
0.2
100
AcDbArc
 50
180.0
 51
225.0
  0
LINE
  5
28D
100
AcDbEntity
  8
M0
  6
DIVIDE
100
AcDbLine
 10
162.597012
 20
147.59863
 11
162.474169
 21
147.721473
  0
LINE
  5
28E
100
AcDbEntity
  8
M0
  6
DIVIDE
100
AcDbLine
 10
149.495591
 20
157.380051
 11
162.415591
 21
157.380051
  0
LINE
  5
28F
100
AcDbEntity
  8
M0
  6
DIVIDE
100
AcDbLine
 10
149.654232
 20
137.500052
 11
153.955591
 21
137.500052
  0
LINE
  5
290
100
AcDbEntity
  8
M0
  6
DIVIDE
100
AcDbLine
 10
149.654232
 20
137.820052
 11
149.654232
 21
137.500052
  0
LINE
  5
291
100
AcDbEntity
  8
M0
  6
DIVIDE
100
AcDbLine
 10
149.355591
 20
138.220052
 11
149.654232
 21
137.820052
  0
LINE
  5
292
100
AcDbEntity
  8
M0
  6
DIVIDE
100
AcDbLine
 10
162.25695
 20
137.820052
 11
162.25695
 21
137.500052
  0
LINE
  5
293
100
AcDbEntity
  8
M0
  6
DIVIDE
100
AcDbLine
 10
162.555591
 20
138.220052
 11
162.25695
 21
137.820052
  0
LINE
  5
294
100
AcDbEntity
  8
M0
  6
DIVIDE
100
AcDbLine
 10
157.955591
 20
137.500052
 11
162.25695
 21
137.500052
  0
LINE
  5
295
100
AcDbEntity
  8
M0
  6
DIVIDE
100
AcDbLine
 10
149.355591
 20
146.980051
 11
149.355591
 21
138.220052
  0
LINE
  5
296
100
AcDbEntity
  8
M0
  6
DIVIDE
100
AcDbLine
 10
162.555591
 20
146.980051
 11
162.555591
 21
138.220052
  0
LINE
  5
297
100
AcDbEntity
  8
M0
  6
DIVIDE
100
AcDbLine
 10
148.959591
 20
141.680052
 11
148.959591
 21
139.720052
  0
LINE
  5
298
100
AcDbEntity
  8
M0
  6
DIVIDE
100
AcDbLine
 10
148.959591
 20
141.680052
 11
149.355591
 21
141.680052
  0
LINE
  5
299
100
AcDbEntity
  8
M0
  6
DIVIDE
100
AcDbLine
 10
148.959591
 20
139.720052
 11
149.355591
 21
139.720052
  0
LINE
  5
29A
100
AcDbEntity
  8
M0
  6
DASHDOT
100
AcDbLine
 10
155.235591
 20
140.700052
 11
156.804874
 21
140.700052
  0
LINE
  5
29B
100
AcDbEntity
  8
M0
  6
DIVIDE
100
AcDbLine
 10
149.255591
 20
146.980051
 11
149.355591
 21
146.980051
  0
LINE
  5
29C
100
AcDbEntity
  8
M0
  6
DASHDOT
100
AcDbLine
 10
156.513875
 20
140.100052
 11
158.024242
 21
140.100052
  0
LINE
  5
29D
100
AcDbEntity
  8
M0
  6
DASHDOT
100
AcDbLine
 10
157.355591
 20
140.782158
 11
157.355591
 21
139.27179
  0
LINE
  5
29E
100
AcDbEntity
  8
M0
  6
DIVIDE
100
AcDbLine
 10
162.555591
 20
146.980051
 11
162.655591
 21
146.980051
  0
LINE
  5
29F
100
AcDbEntity
  8
M0
  6
DASHDOT
100
AcDbLine
 10
155.955591
 20
160.384013
 11
155.955591
 21
135.525728
  0
LINE
  5
2A0
100
AcDbEntity
  8
M0
100
AcDbLine
 10
164.16739
 20
152.100051
 11
160.125396
 21
152.100051
  0
LINE
  5
2A1
100
AcDbEntity
  8
M0
100
AcDbLine
 10
163.675591
 20
137.500052
 11
149.035591
 21
137.500052
  0
LINE
  5
2A2
100
AcDbEntity
  8
M0
100
AcDbLine
 10
149.035591
 20
137.480052
 11
149.035591
 21
137.500052
  0
LINE
  5
2A3
100
AcDbEntity
  8
M0
100
AcDbLine
 10
163.675591
 20
137.480052
 11
163.675591
 21
137.500052
  0
LINE
  5
2A4
100
AcDbEntity
  8
M0
  6
DIVIDE
100
AcDbLine
 10
164.829337
 20
138.112052
 11
164.829337
 21
135.980052
  0
LINE
  5
2A5
100
AcDbEntity
  8
M0
  6
DIVIDE
100
AcDbLine
 10
166.109337
 20
138.112052
 11
166.109337
 21
135.980052
  0
LINE
  5
2A6
100
AcDbEntity
  8
M0
  6
DIVIDE
100
AcDbLine
 10
164.829337
 20
144.512051
 11
164.829337
 21
141.272052
  0
LINE
  5
2A7
100
AcDbEntity
  8
M0
  6
DIVIDE
100
AcDbLine
 10
166.109337
 20
144.512051
 11
166.109337
 21
140.223693
  0
LINE
  5
2A8
100
AcDbEntity
  8
M0
  6
DIVIDE
100
AcDbLine
 10
161.635591
 20
141.272052
 11
165.115591
 21
141.272052
  0
LINE
  5
2A9
100
AcDbEntity
  8
M0
  6
DIVIDE
100
AcDbLine
 10
161.635591
 20
140.152052
 11
164.635591
 21
140.152052
  0
LINE
  5
2AA
100
AcDbEntity
  8
M0
  6
DASHDOT
100
AcDbLine
 10
165.475591
 20
148.213111
 11
165.475591
 21
134.418069
  0
ARC
  5
2AB
100
AcDbEntity
  8
M0
  6
DIVIDE
100
AcDbCircle
 10
165.115591
 20
140.352052
 40
0.92
100
AcDbArc
 50
357.237547
 51
450.0
  0
LINE
  5
2AC
100
AcDbEntity
  8
M0
  6
DIVIDE
100
AcDbLine
 10
166.275591
 20
140.05787
 11
166.275591
 21
138.112052
  0
LINE
  5
2AD
100
AcDbEntity
  8
M0
  6
DIVIDE
100
AcDbLine
 10
166.275591
 20
138.112052
 11
164.675591
 21
138.112052
  0
LINE
  5
2AE
100
AcDbEntity
  8
M0
  6
DIVIDE
100
AcDbLine
 10
164.675591
 20
140.112052
 11
164.675591
 21
138.112052
  0
ARC
  5
2AF
100
AcDbEntity
  8
M0
  6
DIVIDE
100
AcDbCircle
 10
164.635591
 20
140.112052
 40
0.04
100
AcDbArc
 50
0.0
 51
90.0
  0
LINE
  5
2B0
100
AcDbEntity
  8
M0
  6
DIVIDE
100
AcDbLine
 10
166.275591
 20
140.05787
 11
166.034522
 21
140.307712
  0
LINE
  5
2B1
100
AcDbEntity
  8
M0
  6
DIVIDE
100
AcDbLine
 10
162.555766
 20
147.672051
 11
165.115591
 21
147.672051
  0
LINE
  5
2B2
100
AcDbEntity
  8
M0
  6
DIVIDE
100
AcDbLine
 10
162.555591
 20
146.552051
 11
164.635591
 21
146.552051
  0
ARC
  5
2B3
100
AcDbEntity
  8
M0
  6
DIVIDE
100
AcDbCircle
 10
165.115591
 20
146.752051
 40
0.92
100
AcDbArc
 50
357.237547
 51
450.0
  0
LINE
  5
2B4
100
AcDbEntity
  8
M0
  6
DIVIDE
100
AcDbLine
 10
166.275591
 20
146.45787
 11
166.275591
 21
144.512051
  0
LINE
  5
2B5
100
AcDbEntity
  8
M0
  6
DIVIDE
100
AcDbLine
 10
166.275591
 20
144.512051
 11
164.675591
 21
144.512051
  0
LINE
  5
2B6
100
AcDbEntity
  8
M0
  6
DIVIDE
100
AcDbLine
 10
164.675591
 20
146.512051
 11
164.675591
 21
144.512051
  0
ARC
  5
2B7
100
AcDbEntity
  8
M0
  6
DIVIDE
100
AcDbCircle
 10
164.635591
 20
146.512051
 40
0.04
100
AcDbArc
 50
0.0
 51
90.0
  0
LINE
  5
2B8
100
AcDbEntity
  8
M0
  6
DIVIDE
100
AcDbLine
 10
166.275591
 20
146.45787
 11
166.034522
 21
146.707712
  0
LINE
  5
2B9
100
AcDbEntity
  8
M0
100
AcDbLine
 10
64.675683
 20
99.580052
 11
85.549021
 21
99.580052
  0
LINE
  5
2BA
100
AcDbEntity
  8
M0
100
AcDbLine
 10
66.312352
 20
136.980052
 11
83.512352
 21
136.980052
  0
LINE
  5
2BB
100
AcDbEntity
  8
M0
100
AcDbLine
 10
66.712352
 20
138.980052
 11
83.512352
 21
138.980052
  0
LINE
  5
2BC
100
AcDbEntity
  8
M0
100
AcDbLine
 10
67.112352
 20
140.780052
 11
83.112352
 21
140.780052
  0
LINE
  5
2BD
100
AcDbEntity
  8
M0
100
AcDbLine
 10
89.512351
 20
104.625049
 11
89.512351
 21
112.81632
  0
ARC
  5
2BE
100
AcDbEntity
  8
M0
100
AcDbCircle
 10
83.512352
 20
130.980052
 40
6.0
100
AcDbArc
 50
0.0
 51
90.0
  0
LINE
  5
2BF
100
AcDbEntity
  8
M0
100
AcDbLine
 10
62.109422
 20
104.580052
 11
87.525263
 21
104.580052
  0
LINE
  5
2C0
100
AcDbEntity
  8
M0
100
AcDbLine
 10
87.392148
 20
103.580052
 11
62.832555
 21
103.580052
  0
LINE
  5
2C1
100
AcDbEntity
  8
M0
100
AcDbLine
 10
87.046711
 20
100.381592
 11
89.210042
 21
103.626588
  0
ARC
  5
2C2
100
AcDbEntity
  8
M0
100
AcDbCircle
 10
85.549021
 20
101.380052
 40
1.8
100
AcDbArc
 50
270.0
 51
326.309932
  0
ARC
  5
2C3
100
AcDbEntity
  8
M0
100
AcDbCircle
 10
87.712351
 20
104.625049
 40
1.8
100
AcDbArc
 50
326.309932
 51
360.0
  0
LINE
  5
2C4
100
AcDbEntity
  8
M0
100
AcDbLine
 10
61.59118
 20
117.580052
 11
88.633523
 21
117.580052
  0
LINE
  5
2C5
100
AcDbEntity
  8
M0
100
AcDbLine
 10
60.730021
 20
119.180052
 11
89.495171
 21
119.180052
  0
LINE
  5
2C6
100
AcDbEntity
  8
M0
100
AcDbLine
 10
61.706182
 20
113.580052
 11
88.582473
 21
113.580052
  0
LINE
  5
2C7
100
AcDbEntity
  8
M0
100
AcDbLine
 10
60.835174
 20
113.180052
 11
89.38953
 21
113.180052
  0
LINE
  5
2C8
100
AcDbEntity
  8
M0
100
AcDbLine
 10
89.512351
 20
119.34726
 11
89.512351
 21
130.980052
  0
LINE
  5
2C9
100
AcDbEntity
  8
M0
100
AcDbLine
 10
83.912352
 20
138.580052
 11
83.912352
 21
136.966703
  0
ARC
  5
2CA
100
AcDbEntity
  8
M0
100
AcDbCircle
 10
83.512352
 20
138.580052
 40
0.4
100
AcDbArc
 50
0.0
 51
90.0
  0
LINE
  5
2CB
100
AcDbEntity
  8
M0
  6
DASHDOT
100
AcDbLine
 10
76.767851
 20
133.180052
 11
81.352006
 21
133.180052
  0
LINE
  5
2CC
100
AcDbEntity
  8
M0
  6
DASHDOT
100
AcDbLine
 10
79.112352
 20
135.28212
 11
79.112352
 21
131.069654
  0
CIRCLE
  5
2CD
100
AcDbEntity
  8
M0
100
AcDbCircle
 10
79.112352
 20
133.180052
 40
0.98
  0
ARC
  5
2CE
100
AcDbEntity
  8
M0
100
AcDbCircle
 10
64.675683
 20
101.380052
 40
1.8
100
AcDbArc
 50
213.690068
 51
270.0
  0
LINE
  5
2CF
100
AcDbEntity
  8
M0
100
AcDbLine
 10
63.177992
 20
100.381592
 11
61.014662
 21
103.626588
  0
ARC
  5
2D0
100
AcDbEntity
  8
M0
100
AcDbCircle
 10
62.512352
 20
104.625049
 40
1.8
100
AcDbArc
 50
180.0
 51
213.690068
  0
LINE
  5
2D1
100
AcDbEntity
  8
M0
100
AcDbLine
 10
60.712352
 20
104.625049
 11
60.712352
 21
112.81632
  0
LINE
  5
2D2
100
AcDbEntity
  8
M0
100
AcDbLine
 10
60.712352
 20
119.34726
 11
60.712352
 21
130.980052
  0
ARC
  5
2D3
100
AcDbEntity
  8
M0
100
AcDbCircle
 10
66.712352
 20
130.980052
 40
6.0
100
AcDbArc
 50
90.0
 51
180.0
  0
LINE
  5
2D4
100
AcDbEntity
  8
M0
100
AcDbLine
 10
66.312352
 20
138.580052
 11
66.312352
 21
136.966703
  0
ARC
  5
2D5
100
AcDbEntity
  8
M0
100
AcDbCircle
 10
66.712352
 20
138.580052
 40
0.4
100
AcDbArc
 50
90.0
 51
180.0
  0
LINE
  5
2D6
100
AcDbEntity
  8
M0
  6
DASHDOT
100
AcDbLine
 10
73.103765
 20
101.580052
 11
76.980789
 21
101.580052
  0
LINE
  5
2D7
100
AcDbEntity
  8
M0
100
AcDbLine
 10
61.122615
 20
113.38553
 11
61.502089
 21
113.512021
  0
ARC
  5
2D8
100
AcDbEntity
  8
M0
100
AcDbCircle
 10
61.312352
 20
112.81632
 40
0.6
100
AcDbArc
 50
108.434949
 51
180.0
  0
ARC
  5
2D9
100
AcDbEntity
  8
M0
100
AcDbCircle
 10
61.312352
 20
114.081231
 40
0.6
100
AcDbArc
 50
288.434949
 51
360.0
  0
LINE
  5
2DA
100
AcDbEntity
  8
M0
100
AcDbLine
 10
61.912352
 20
117.048775
 11
61.912352
 21
114.081231
  0
ARC
  5
2DB
100
AcDbEntity
  8
M0
100
AcDbCircle
 10
61.312352
 20
117.048775
 40
0.6
100
AcDbArc
 50
0.0
 51
90.0
  0
LINE
  5
2DC
100
AcDbEntity
  8
M0
100
AcDbLine
 10
61.036606
 20
117.951761
 11
60.736238
 21
119.153231
  0
ARC
  5
2DD
100
AcDbEntity
  8
M0
100
AcDbCircle
 10
61.512352
 20
119.34726
 40
0.8
100
AcDbArc
 50
180.0
 51
194.036243
  0
ARC
  5
2DE
100
AcDbEntity
  8
M0
100
AcDbCircle
 10
61.424663
 20
118.048775
 40
0.4
100
AcDbArc
 50
194.036243
 51
270.0
  0
ARC
  5
2DF
100
AcDbEntity
  8
M0
100
AcDbCircle
 10
88.912351
 20
112.81632
 40
0.6
100
AcDbArc
 50
0.0
 51
71.565051
  0
LINE
  5
2E0
100
AcDbEntity
  8
M0
100
AcDbLine
 10
89.102088
 20
113.38553
 11
88.722615
 21
113.512021
  0
ARC
  5
2E1
100
AcDbEntity
  8
M0
100
AcDbCircle
 10
88.912351
 20
114.081231
 40
0.6
100
AcDbArc
 50
180.0
 51
251.565051
  0
LINE
  5
2E2
100
AcDbEntity
  8
M0
100
AcDbLine
 10
88.312351
 20
117.048775
 11
88.312351
 21
114.081231
  0
ARC
  5
2E3
100
AcDbEntity
  8
M0
100
AcDbCircle
 10
88.912351
 20
117.048775
 40
0.6
100
AcDbArc
 50
90.0
 51
180.0
  0
LINE
  5
2E4
100
AcDbEntity
  8
M0
100
AcDbLine
 10
89.188098
 20
117.951761
 11
89.488465
 21
119.153231
  0
ARC
  5
2E5
100
AcDbEntity
  8
M0
100
AcDbCircle
 10
88.712351
 20
119.34726
 40
0.8
100
AcDbArc
 50
-14.036243
 51
0.0
  0
ARC
  5
2E6
100
AcDbEntity
  8
M0
100
AcDbCircle
 10
88.800041
 20
118.048775
 40
0.4
100
AcDbArc
 50
270.0
 51
345.963757
  0
LINE
  5
2E7
100
AcDbEntity
  8
M0
100
AcDbLine
 10
83.112352
 20
140.780052
 11
83.112352
 21
139.180052
  0
LINE
  5
2E8
100
AcDbEntity
  8
M0
100
AcDbLine
 10
67.112352
 20
140.780052
 11
67.112352
 21
139.180052
  0
LINE
  5
2E9
100
AcDbEntity
  8
M0
  6
DASHDOT
100
AcDbLine
 10
75.112352
 20
96.135451
 11
75.112352
 21
144.783967
  0
CIRCLE
  5
2EA
100
AcDbEntity
  8
M0
100
AcDbCircle
 10
75.112352
 20
101.580052
 40
1.4
  0
LINE
  5
2EB
100
AcDbEntity
  8
M0
100
AcDbLine
 10
83.112352
 20
139.180052
 11
67.112352
 21
139.180052
  0
LINE
  5
2EC
100
AcDbEntity
  8
M0
100
AcDbLine
 10
82.912352
 20
138.980052
 11
82.912352
 21
139.180052
  0
LINE
  5
2ED
100
AcDbEntity
  8
M0
100
AcDbLine
 10
67.312352
 20
138.980052
 11
67.312352
 21
139.180052
  0
LINE
  5
2EE
100
AcDbEntity
  8
M0
100
AcDbLine
 10
67.512352
 20
140.780052
 11
67.512352
 21
139.180052
  0
LINE
  5
2EF
100
AcDbEntity
  8
M0
100
AcDbLine
 10
68.512352
 20
139.180052
 11
68.512352
 21
140.780052
  0
LINE
  5
2F0
100
AcDbEntity
  8
M0
100
AcDbLine
 10
69.712352
 20
139.180052
 11
69.712352
 21
140.780052
  0
LINE
  5
2F1
100
AcDbEntity
  8
M0
100
AcDbLine
 10
70.912352
 20
139.180052
 11
70.912352
 21
140.780052
  0
LINE
  5
2F2
100
AcDbEntity
  8
M0
100
AcDbLine
 10
72.112352
 20
139.180052
 11
72.112352
 21
140.780052
  0
LINE
  5
2F3
100
AcDbEntity
  8
M0
100
AcDbLine
 10
73.312352
 20
139.180052
 11
73.312352
 21
140.780052
  0
LINE
  5
2F4
100
AcDbEntity
  8
M0
100
AcDbLine
 10
74.512352
 20
139.180052
 11
74.512352
 21
140.780052
  0
LINE
  5
2F5
100
AcDbEntity
  8
M0
100
AcDbLine
 10
75.712352
 20
139.180052
 11
75.712352
 21
140.780052
  0
LINE
  5
2F6
100
AcDbEntity
  8
M0
100
AcDbLine
 10
76.912352
 20
139.180052
 11
76.912352
 21
140.780052
  0
LINE
  5
2F7
100
AcDbEntity
  8
M0
100
AcDbLine
 10
78.112352
 20
139.180052
 11
78.112352
 21
140.780052
  0
LINE
  5
2F8
100
AcDbEntity
  8
M0
100
AcDbLine
 10
79.312352
 20
139.180052
 11
79.312352
 21
140.780052
  0
LINE
  5
2F9
100
AcDbEntity
  8
M0
100
AcDbLine
 10
80.512352
 20
139.180052
 11
80.512352
 21
140.780052
  0
LINE
  5
2FA
100
AcDbEntity
  8
M0
100
AcDbLine
 10
81.712352
 20
139.180052
 11
81.712352
 21
140.780052
  0
LINE
  5
2FB
100
AcDbEntity
  8
M0
100
AcDbLine
 10
82.712352
 20
140.780052
 11
82.712352
 21
139.180052
  0
LINE
  5
2FC
100
AcDbEntity
  8
M0
100
AcDbLine
 10
66.312352
 20
137.080052
 11
66.312352
 21
138.080052
  0
LINE
  5
2FD
100
AcDbEntity
  8
M0
100
AcDbLine
 10
66.312352
 20
138.080052
 11
65.912352
 21
138.080052
  0
LINE
  5
2FE
100
AcDbEntity
  8
M0
100
AcDbLine
 10
65.912352
 20
138.080052
 11
65.912352
 21
137.080052
  0
LINE
  5
2FF
100
AcDbEntity
  8
M0
100
AcDbLine
 10
65.912352
 20
137.080052
 11
66.312352
 21
137.080052
  0
LINE
  5
300
100
AcDbEntity
  8
M0
  6
DASHDOT
100
AcDbLine
 10
65.312292
 20
137.580052
 11
66.912412
 21
137.580052
  0
LINE
  5
301
100
AcDbEntity
  8
M0
100
AcDbLine
 10
124.723294
 20
133.780052
 11
123.875592
 21
133.780052
  0
LINE
  5
302
100
AcDbEntity
  8
M0
100
AcDbLine
 10
123.875592
 20
133.780052
 11
123.875592
 21
132.580052
  0
LINE
  5
303
100
AcDbEntity
  8
M0
100
AcDbLine
 10
123.875592
 20
132.580052
 11
124.268664
 21
132.580052
  0
CIRCLE
  5
304
100
AcDbEntity
  8
M0
100
AcDbCircle
 10
79.112352
 20
133.180052
 40
0.6
  0
LINE
  5
305
100
AcDbEntity
  8
M0
100
AcDbLine
 10
125.432181
 20
100.180052
 11
125.432181
 21
102.980052
  0
ARC
  5
306
100
AcDbEntity
  8
M0
100
AcDbCircle
 10
124.475592
 20
100.380052
 40
0.2
100
AcDbArc
 50
180.0
 51
270.0
  0
LINE
  5
307
100
AcDbEntity
  8
M0
100
AcDbLine
 10
124.275592
 20
102.780052
 11
124.275592
 21
100.380052
  0
ARC
  5
308
100
AcDbEntity
  8
M0
100
AcDbCircle
 10
124.475592
 20
102.780052
 40
0.2
100
AcDbArc
 50
90.0
 51
180.0
  0
LINE
  5
309
100
AcDbEntity
  8
M0
100
AcDbLine
 10
124.475592
 20
102.980052
 11
125.432181
 21
102.980052
  0
LINE
  5
30A
100
AcDbEntity
  8
M0
100
AcDbLine
 10
124.475592
 20
100.180052
 11
125.432181
 21
100.180052
  0
LINE
  5
30B
100
AcDbEntity
  8
M0
100
AcDbLine
 10
162.163591
 20
137.196052
 11
162.163591
 21
136.980052
  0
LINE
  5
30C
100
AcDbEntity
  8
M0
100
AcDbLine
 10
162.163591
 20
136.980052
 11
162.255591
 21
136.980052
  0
LINE
  5
30D
100
AcDbEntity
  8
M0
100
AcDbLine
 10
162.255591
 20
137.196052
 11
162.255591
 21
136.980052
  0
LINE
  5
30E
100
AcDbEntity
  8
M0
100
AcDbLine
 10
161.855591
 20
137.296052
 11
162.063591
 21
137.296052
  0
LINE
  5
30F
100
AcDbEntity
  8
M0
100
AcDbLine
 10
161.855591
 20
137.296052
 11
161.855591
 21
137.388052
  0
LINE
  5
310
100
AcDbEntity
  8
M0
100
AcDbLine
 10
161.855591
 20
137.388052
 11
162.055591
 21
137.388052
  0
ARC
  5
311
100
AcDbEntity
  8
M0
100
AcDbCircle
 10
162.063591
 20
137.196052
 40
0.1
100
AcDbArc
 50
0.0
 51
90.0
  0
ARC
  5
312
100
AcDbEntity
  8
M0
100
AcDbCircle
 10
162.063591
 20
137.196052
 40
0.192
100
AcDbArc
 50
0.0
 51
90.0
  0
LINE
  5
313
100
AcDbEntity
  8
M0
100
AcDbLine
 10
148.755591
 20
137.288052
 11
148.755591
 21
136.980052
  0
LINE
  5
314
100
AcDbEntity
  8
M0
100
AcDbLine
 10
148.847591
 20
137.288052
 11
148.847591
 21
136.980052
  0
LINE
  5
315
100
AcDbEntity
  8
M0
100
AcDbLine
 10
163.555591
 20
137.388052
 11
148.947591
 21
137.388052
  0
LINE
  5
316
100
AcDbEntity
  8
M0
100
AcDbLine
 10
163.555591
 20
137.480052
 11
148.947591
 21
137.480052
  0
LINE
  5
317
100
AcDbEntity
  8
M0
100
AcDbLine
 10
148.847591
 20
136.980052
 11
148.755591
 21
136.980052
  0
LINE
  5
318
100
AcDbEntity
  8
M0
100
AcDbLine
 10
148.755591
 20
136.980052
 11
148.755591
 21
137.288052
  0
LINE
  5
319
100
AcDbEntity
  8
M0
100
AcDbLine
 10
163.755591
 20
137.280052
 11
163.755591
 21
136.989044
  0
ARC
  5
31A
100
AcDbEntity
  8
M0
100
AcDbCircle
 10
148.947591
 20
137.288052
 40
0.1
100
AcDbArc
 50
90.0
 51
180.0
  0
ARC
  5
31B
100
AcDbEntity
  8
M0
100
AcDbCircle
 10
148.947591
 20
137.288052
 40
0.192
100
AcDbArc
 50
90.0
 51
180.0
  0
ARC
  5
31C
100
AcDbEntity
  8
M0
100
AcDbCircle
 10
163.555591
 20
137.280052
 40
0.108
100
AcDbArc
 50
0.0
 51
90.0
  0
LINE
  5
31D
100
AcDbEntity
  8
M0
100
AcDbLine
 10
163.663591
 20
137.280052
 11
163.663591
 21
136.980052
  0
LINE
  5
31E
100
AcDbEntity
  8
M0
100
AcDbLine
 10
149.035591
 20
137.480052
 11
163.675591
 21
137.480052
  0
ARC
  5
31F
100
AcDbEntity
  8
M0
100
AcDbCircle
 10
163.555591
 20
137.280052
 40
0.2
100
AcDbArc
 50
0.0
 51
90.0
  0
LINE
  5
320
100
AcDbEntity
  8
M0
100
AcDbLine
 10
163.755591
 20
136.980052
 11
163.663591
 21
136.980052
  0
LINE
  5
321
100
AcDbEntity
  8
M0
100
AcDbLine
 10
125.275592
 20
115.09628
 11
125.275592
 21
114.012508
  0
LINE
  5
322
100
AcDbEntity
  8
M0
100
AcDbLine
 10
170.875591
 20
115.09628
 11
170.875591
 21
114.012508
  0
LINE
  5
323
100
AcDbEntity
  8
M0
100
AcDbLine
 10
144.875591
 20
115.09628
 11
124.555592
 21
115.09628
  0
LINE
  5
324
100
AcDbEntity
  8
M0
100
AcDbLine
 10
144.875591
 20
115.89628
 11
124.555592
 21
115.89628
  0
LINE
  5
325
100
AcDbEntity
  8
M0
100
AcDbLine
 10
151.275591
 20
115.89628
 11
171.595591
 21
115.89628
  0
LINE
  5
326
100
AcDbEntity
  8
M0
100
AcDbLine
 10
170.875591
 20
116.09628
 11
171.675591
 21
116.09628
  0
LINE
  5
327
100
AcDbEntity
  8
M0
100
AcDbLine
 10
171.875591
 20
115.89628
 11
171.875591
 21
115.09628
  0
ARC
  5
328
100
AcDbEntity
  8
M0
100
AcDbCircle
 10
171.595591
 20
115.81628
 40
0.08
100
AcDbArc
 50
0.0
 51
90.0
  0
ARC
  5
329
100
AcDbEntity
  8
M0
100
AcDbCircle
 10
171.675591
 20
115.89628
 40
0.2
100
AcDbArc
 50
0.0
 51
90.0
  0
LINE
  5
32A
100
AcDbEntity
  8
M0
100
AcDbLine
 10
171.675591
 20
115.81628
 11
171.675591
 21
115.17628
  0
LINE
  5
32B
100
AcDbEntity
  8
M0
100
AcDbLine
 10
151.275591
 20
115.09628
 11
171.595591
 21
115.09628
  0
ARC
  5
32C
100
AcDbEntity
  8
M0
100
AcDbCircle
 10
171.675591
 20
115.09628
 40
0.2
100
AcDbArc
 50
270.0
 51
360.0
  0
LINE
  5
32D
100
AcDbEntity
  8
M0
100
AcDbLine
 10
170.875591
 20
114.89628
 11
171.675591
 21
114.89628
  0
LINE
  5
32E
100
AcDbEntity
  8
M0
100
AcDbLine
 10
144.875591
 20
116.09628
 11
151.275591
 21
116.09628
  0
LINE
  5
32F
100
AcDbEntity
  8
M0
100
AcDbLine
 10
144.875591
 20
114.89628
 11
151.275591
 21
114.89628
  0
LINE
  5
330
100
AcDbEntity
  8
M0
100
AcDbLine
 10
144.875591
 20
116.09628
 11
144.875591
 21
115.49628
  0
LINE
  5
331
100
AcDbEntity
  8
M0
100
AcDbLine
 10
144.875591
 20
114.89628
 11
144.875591
 21
115.49628
  0
LINE
  5
332
100
AcDbEntity
  8
M0
100
AcDbLine
 10
151.275591
 20
114.89628
 11
151.275591
 21
115.49628
  0
LINE
  5
333
100
AcDbEntity
  8
M0
100
AcDbLine
 10
151.275591
 20
116.09628
 11
151.275591
 21
115.49628
  0
LINE
  5
334
100
AcDbEntity
  8
M0
100
AcDbLine
 10
125.275592
 20
116.09628
 11
124.475592
 21
116.09628
  0
ARC
  5
335
100
AcDbEntity
  8
M0
100
AcDbCircle
 10
124.475592
 20
115.89628
 40
0.2
100
AcDbArc
 50
90.0
 51
180.0
  0
LINE
  5
336
100
AcDbEntity
  8
M0
100
AcDbLine
 10
124.275592
 20
115.89628
 11
124.275592
 21
115.09628
  0
ARC
  5
337
100
AcDbEntity
  8
M0
100
AcDbCircle
 10
124.475592
 20
115.09628
 40
0.2
100
AcDbArc
 50
180.0
 51
270.0
  0
LINE
  5
338
100
AcDbEntity
  8
M0
100
AcDbLine
 10
125.275592
 20
114.89628
 11
124.475592
 21
114.89628
  0
LINE
  5
339
100
AcDbEntity
  8
M0
100
AcDbLine
 10
124.475592
 20
115.81628
 11
124.475592
 21
115.17628
  0
ARC
  5
33A
100
AcDbEntity
  8
M0
100
AcDbCircle
 10
124.555592
 20
115.17628
 40
0.08
100
AcDbArc
 50
180.0
 51
270.0
  0
ARC
  5
33B
100
AcDbEntity
  8
M0
100
AcDbCircle
 10
124.555592
 20
115.81628
 40
0.08
100
AcDbArc
 50
90.0
 51
180.0
  0
ARC
  5
33C
100
AcDbEntity
  8
M0
100
AcDbCircle
 10
171.595591
 20
115.17628
 40
0.08
100
AcDbArc
 50
270.0
 51
360.0
  0
LINE
  5
33D
100
AcDbEntity
  8
M0
100
AcDbLine
 10
89.112351
 20
115.885003
 11
89.112351
 21
115.245003
  0
LINE
  5
33E
100
AcDbEntity
  8
M0
100
AcDbLine
 10
61.112352
 20
115.885003
 11
61.112352
 21
115.245003
  0
LINE
  5
33F
100
AcDbEntity
  8
M0
100
AcDbLine
 10
88.312351
 20
115.885003
 11
88.312351
 21
115.245003
  0
LINE
  5
340
100
AcDbEntity
  8
M0
100
AcDbLine
 10
88.312351
 20
116.165003
 11
89.112351
 21
116.165003
  0
ARC
  5
341
100
AcDbEntity
  8
M0
100
AcDbCircle
 10
89.112351
 20
115.965003
 40
0.2
100
AcDbArc
 50
0.0
 51
90.0
  0
ARC
  5
342
100
AcDbEntity
  8
M0
100
AcDbCircle
 10
89.032351
 20
115.885003
 40
0.08
100
AcDbArc
 50
0.0
 51
90.0
  0
LINE
  5
343
100
AcDbEntity
  8
M0
100
AcDbLine
 10
89.312351
 20
115.965003
 11
89.312351
 21
115.165003
  0
ARC
  5
344
100
AcDbEntity
  8
M0
100
AcDbCircle
 10
89.112351
 20
115.165003
 40
0.2
100
AcDbArc
 50
270.0
 51
360.0
  0
LINE
  5
345
100
AcDbEntity
  8
M0
100
AcDbLine
 10
88.312351
 20
114.965003
 11
89.112351
 21
114.965003
  0
ARC
  5
346
100
AcDbEntity
  8
M0
100
AcDbCircle
 10
89.032351
 20
115.245003
 40
0.08
100
AcDbArc
 50
270.0
 51
360.0
  0
LINE
  5
347
100
AcDbEntity
  8
M0
100
AcDbLine
 10
78.312352
 20
115.965003
 11
89.032351
 21
115.965003
  0
LINE
  5
348
100
AcDbEntity
  8
M0
100
AcDbLine
 10
78.312352
 20
115.165003
 11
89.032351
 21
115.165003
  0
LINE
  5
349
100
AcDbEntity
  8
M0
100
AcDbLine
 10
71.912352
 20
116.165003
 11
71.912352
 21
114.965003
  0
LINE
  5
34A
100
AcDbEntity
  8
M0
100
AcDbLine
 10
71.912352
 20
114.965003
 11
71.912352
 21
115.565003
  0
LINE
  5
34B
100
AcDbEntity
  8
M0
100
AcDbLine
 10
71.912352
 20
114.965003
 11
78.312352
 21
114.965003
  0
LINE
  5
34C
100
AcDbEntity
  8
M0
100
AcDbLine
 10
71.912352
 20
116.165003
 11
78.312352
 21
116.165003
  0
LINE
  5
34D
100
AcDbEntity
  8
M0
100
AcDbLine
 10
78.312352
 20
116.165003
 11
78.312352
 21
114.965003
  0
LINE
  5
34E
100
AcDbEntity
  8
M0
100
AcDbLine
 10
61.912352
 20
116.165003
 11
61.112352
 21
116.165003
  0
LINE
  5
34F
100
AcDbEntity
  8
M0
100
AcDbLine
 10
71.912352
 20
115.965003
 11
61.192352
 21
115.965003
  0
ARC
  5
350
100
AcDbEntity
  8
M0
100
AcDbCircle
 10
61.192352
 20
115.885003
 40
0.08
100
AcDbArc
 50
90.0
 51
180.0
  0
ARC
  5
351
100
AcDbEntity
  8
M0
100
AcDbCircle
 10
61.112352
 20
115.965003
 40
0.2
100
AcDbArc
 50
90.0
 51
180.0
  0
LINE
  5
352
100
AcDbEntity
  8
M0
100
AcDbLine
 10
60.912352
 20
115.965003
 11
60.912352
 21
115.165003
  0
ARC
  5
353
100
AcDbEntity
  8
M0
100
AcDbCircle
 10
61.192352
 20
115.245003
 40
0.08
100
AcDbArc
 50
180.0
 51
270.0
  0
ARC
  5
354
100
AcDbEntity
  8
M0
100
AcDbCircle
 10
61.112352
 20
115.165003
 40
0.2
100
AcDbArc
 50
180.0
 51
270.0
  0
LINE
  5
355
100
AcDbEntity
  8
M0
100
AcDbLine
 10
71.912352
 20
115.165003
 11
61.192352
 21
115.165003
  0
LINE
  5
356
100
AcDbEntity
  8
M0
100
AcDbLine
 10
61.912352
 20
114.965003
 11
61.112352
 21
114.965003
  0
TEXT
  5
357
100
AcDbEntity
  8
M0
 62
   253
100
AcDbText
 10
288.905567
 20
138.780052
 40
3.2
  1
Ａ
 41
0.8125
  7
STANDARD
100
AcDbText
  0
TEXT
  5
358
100
AcDbEntity
  8
M0
 62
   253
100
AcDbText
 10
304.105567
 20
138.780052
 40
3.2
  1
Ｂ
 41
0.8125
  7
STANDARD
100
AcDbText
  0
TEXT
  5
359
100
AcDbEntity
  8
M0
 62
   253
100
AcDbText
 10
319.305566
 20
138.780052
 40
3.2
  1
Ｃ
 41
0.8125
  7
STANDARD
100
AcDbText
  0
TEXT
  5
35A
100
AcDbEntity
  8
M0
 62
   253
100
AcDbText
 10
334.505566
 20
138.780052
 40
3.2
  1
Ｄ
 41
0.8125
  7
STANDARD
100
AcDbText
  0
LINE
  5
35B
100
AcDbEntity
  8
M0
 62
   253
100
AcDbLine
 10
405.485564
 20
137.980052
 11
221.485568
 21
137.980052
  0
LINE
  5
35C
100
AcDbEntity
  8
M0
 62
   253
100
AcDbLine
 10
221.485568
 20
142.780052
 11
405.485564
 21
142.780052
  0
LINE
  5
35D
100
AcDbEntity
  8
M0
 62
   253
100
AcDbLine
 10
282.285567
 20
137.980052
 11
282.285567
 21
142.780052
  0
LINE
  5
35E
100
AcDbEntity
  8
M0
 62
   253
100
AcDbLine
 10
298.285567
 20
142.780052
 11
298.285567
 21
137.980052
  0
LINE
  5
35F
100
AcDbEntity
  8
M0
 62
   253
100
AcDbLine
 10
312.685566
 20
142.780052
 11
312.685566
 21
137.980052
  0
LINE
  5
360
100
AcDbEntity
  8
M0
 62
   253
100
AcDbLine
 10
328.685566
 20
142.780052
 11
328.685566
 21
137.980052
  0
LINE
  5
361
100
AcDbEntity
  8
M0
 62
   253
100
AcDbLine
 10
343.085566
 20
142.780052
 11
343.085566
 21
137.980052
  0
LINE
  5
362
100
AcDbEntity
  8
M0
 62
   253
100
AcDbLine
 10
357.485565
 20
137.980052
 11
357.485565
 21
142.780052
  0
LINE
  5
363
100
AcDbEntity
  8
M0
 62
   253
100
AcDbLine
 10
371.885565
 20
137.980052
 11
371.885565
 21
142.780052
  0
TEXT
  5
364
100
AcDbEntity
  8
M0
 62
   253
100
AcDbText
 10
363.305565
 20
138.780052
 40
3.2
  1
Ｆ
 41
0.8125
  7
STANDARD
100
AcDbText
  0
TEXT
  5
365
100
AcDbEntity
  8
M0
 62
   253
100
AcDbText
 10
348.905566
 20
138.780052
 40
3.2
  1
Ｅ
 41
0.8125
  7
STANDARD
100
AcDbText
  0
TEXT
  5
366
100
AcDbEntity
  8
M0
 62
   253
100
AcDbText
 10
377.705565
 20
138.780052
 40
3.2
  1
　給　水　管
 41
0.8125
  7
STANDARD
100
AcDbText
  0
LINE
  5
367
100
AcDbEntity
  8
M0
 62
   253
100
AcDbLine
 10
405.485564
 20
137.980052
 11
405.485564
 21
142.780052
  0
TEXT
  5
368
100
AcDbEntity
  8
M0
 62
   253
100
AcDbText
 10
234.105568
 20
138.780052
 40
3.2
  1
　搭載ポンプ形式（別売）
 41
0.8125
  7
STANDARD
100
AcDbText
  0
TEXT
  5
369
100
AcDbEntity
  8
M0
 62
   253
100
AcDbText
 10
283.705567
 20
124.380052
 40
3.2
  1
１４９８
 41
0.8125
  7
STANDARD
100
AcDbText
  0
TEXT
  5
36A
100
AcDbEntity
  8
M0
 62
   253
100
AcDbText
 10
283.705567
 20
119.580052
 40
3.2
  1
１４９８
 41
0.8125
  7
STANDARD
100
AcDbText
  0
TEXT
  5
36B
100
AcDbEntity
  8
M0
 62
   253
100
AcDbText
 10
283.705567
 20
114.780052
 40
3.2
  1
１４９８
 41
0.8125
  7
STANDARD
100
AcDbText
  0
TEXT
  5
36C
100
AcDbEntity
  8
M0
 62
   253
100
AcDbText
 10
283.705567
 20
109.980052
 40
3.2
  1
１４９８
 41
0.8125
  7
STANDARD
100
AcDbText
  0
TEXT
  5
36D
100
AcDbEntity
  8
M0
 62
   253
100
AcDbText
 10
283.705567
 20
105.180052
 40
3.2
  1
１２６５
 41
0.8125
  7
STANDARD
100
AcDbText
  0
TEXT
  5
36E
100
AcDbEntity
  8
M0
 62
   253
100
AcDbText
 10
283.705567
 20
129.180052
 40
3.2
  1
１４２３
 41
0.8125
  7
STANDARD
100
AcDbText
  0
TEXT
  5
36F
100
AcDbEntity
  8
M0
 62
   253
100
AcDbText
 10
299.785567
 20
124.380052
 40
3.2
  1
１３１３
 41
0.8125
  7
STANDARD
100
AcDbText
  0
TEXT
  5
370
100
AcDbEntity
  8
M0
 62
   253
100
AcDbText
 10
299.785567
 20
119.580052
 40
3.2
  1
１３１３
 41
0.8125
  7
STANDARD
100
AcDbText
  0
TEXT
  5
371
100
AcDbEntity
  8
M0
 62
   253
100
AcDbText
 10
299.785567
 20
114.780052
 40
3.2
  1
１３１３
 41
0.8125
  7
STANDARD
100
AcDbText
  0
TEXT
  5
372
100
AcDbEntity
  8
M0
 62
   253
100
AcDbText
 10
299.785567
 20
109.980052
 40
3.2
  1
１３１３
 41
0.8125
  7
STANDARD
100
AcDbText
  0
TEXT
  5
373
100
AcDbEntity
  8
M0
 62
   253
100
AcDbText
 10
299.785567
 20
105.180052
 40
3.2
  1
１０８０
 41
0.8125
  7
STANDARD
100
AcDbText
  0
TEXT
  5
374
100
AcDbEntity
  8
M0
 62
   253
100
AcDbText
 10
299.785567
 20
129.180052
 40
3.2
  1
１２３８
 41
0.8125
  7
STANDARD
100
AcDbText
  0
TEXT
  5
375
100
AcDbEntity
  8
M0
 62
   253
100
AcDbText
 10
330.505566
 20
124.380052
 40
3.2
  1
１７９
 41
0.8125
  7
STANDARD
100
AcDbText
  0
TEXT
  5
376
100
AcDbEntity
  8
M0
 62
   253
100
AcDbText
 10
330.505566
 20
119.580052
 40
3.2
  1
１７９
 41
0.8125
  7
STANDARD
100
AcDbText
  0
TEXT
  5
377
100
AcDbEntity
  8
M0
 62
   253
100
AcDbText
 10
330.505566
 20
114.780052
 40
3.2
  1
１７９
 41
0.8125
  7
STANDARD
100
AcDbText
  0
TEXT
  5
378
100
AcDbEntity
  8
M0
 62
   253
100
AcDbText
 10
330.505566
 20
109.980052
 40
3.2
  1
１７９
 41
0.8125
  7
STANDARD
100
AcDbText
  0
TEXT
  5
379
100
AcDbEntity
  8
M0
 62
   253
100
AcDbText
 10
330.505566
 20
105.180052
 40
3.2
  1
１５７
 41
0.8125
  7
STANDARD
100
AcDbText
  0
TEXT
  5
37A
100
AcDbEntity
  8
M0
 62
   253
100
AcDbText
 10
330.505566
 20
129.180052
 40
3.2
  1
１７６
 41
0.8125
  7
STANDARD
100
AcDbText
  0
LINE
  5
37B
100
AcDbEntity
  8
M0
 62
   253
100
AcDbLine
 10
405.485564
 20
109.180052
 11
221.485568
 21
109.180052
  0
LINE
  5
37C
100
AcDbEntity
  8
M0
 62
   253
100
AcDbLine
 10
405.485564
 20
113.980052
 11
221.485568
 21
113.980052
  0
LINE
  5
37D
100
AcDbEntity
  8
M0
 62
   253
100
AcDbLine
 10
405.485564
 20
118.780052
 11
221.485568
 21
118.780052
  0
LINE
  5
37E
100
AcDbEntity
  8
M0
 62
   253
100
AcDbLine
 10
405.485564
 20
123.580052
 11
221.485568
 21
123.580052
  0
LINE
  5
37F
100
AcDbEntity
  8
M0
 62
   253
100
AcDbLine
 10
221.485568
 20
128.380052
 11
405.485564
 21
128.380052
  0
LINE
  5
380
100
AcDbEntity
  8
M0
 62
   253
100
AcDbLine
 10
221.485568
 20
133.180052
 11
405.485564
 21
133.180052
  0
LINE
  5
381
100
AcDbEntity
  8
M0
 62
   253
100
AcDbLine
 10
221.485568
 20
142.780052
 11
221.485568
 21
99.580052
  0
LINE
  5
382
100
AcDbEntity
  8
M0
 62
   253
100
AcDbLine
 10
282.285567
 20
99.580052
 11
282.285567
 21
137.980052
  0
LINE
  5
383
100
AcDbEntity
  8
M0
 62
   253
100
AcDbLine
 10
298.285567
 20
137.980052
 11
298.285567
 21
99.580052
  0
LINE
  5
384
100
AcDbEntity
  8
M0
 62
   253
100
AcDbLine
 10
312.685566
 20
137.980052
 11
312.685566
 21
99.580052
  0
LINE
  5
385
100
AcDbEntity
  8
M0
 62
   253
100
AcDbLine
 10
328.685566
 20
137.980052
 11
328.685566
 21
99.580052
  0
LINE
  5
386
100
AcDbEntity
  8
M0
 62
   253
100
AcDbLine
 10
343.085566
 20
137.980052
 11
343.085566
 21
99.580052
  0
TEXT
  5
387
100
AcDbEntity
  8
M0
 62
   253
100
AcDbText
 10
314.185566
 20
105.180052
 40
3.2
  1
１０２８
 41
0.8125
  7
STANDARD
100
AcDbText
  0
TEXT
  5
388
100
AcDbEntity
  8
M0
 62
   253
100
AcDbText
 10
314.185566
 20
109.980052
 40
3.2
  1
１０２８
 41
0.8125
  7
STANDARD
100
AcDbText
  0
TEXT
  5
389
100
AcDbEntity
  8
M0
 62
   253
100
AcDbText
 10
314.185566
 20
114.780052
 40
3.2
  1
１０２８
 41
0.8125
  7
STANDARD
100
AcDbText
  0
TEXT
  5
38A
100
AcDbEntity
  8
M0
 62
   253
100
AcDbText
 10
314.185566
 20
119.580052
 40
3.2
  1
１０２８
 41
0.8125
  7
STANDARD
100
AcDbText
  0
TEXT
  5
38B
100
AcDbEntity
  8
M0
 62
   253
100
AcDbText
 10
314.185566
 20
124.380052
 40
3.2
  1
１０２８
 41
0.8125
  7
STANDARD
100
AcDbText
  0
TEXT
  5
38C
100
AcDbEntity
  8
M0
 62
   253
100
AcDbText
 10
314.185566
 20
129.180052
 40
3.2
  1
１０１３
 41
0.8125
  7
STANDARD
100
AcDbText
  0
LINE
  5
38D
100
AcDbEntity
  8
M0
 62
   253
100
AcDbLine
 10
357.485565
 20
99.580052
 11
357.485565
 21
137.980052
  0
LINE
  5
38E
100
AcDbEntity
  8
M0
 62
   253
100
AcDbLine
 10
371.885565
 20
99.580052
 11
371.885565
 21
137.980052
  0
TEXT
  5
38F
100
AcDbEntity
  8
M0
 62
   253
100
AcDbText
 10
344.905566
 20
129.180052
 40
3.2
  1
２３２
 41
0.8125
  7
STANDARD
100
AcDbText
  0
TEXT
  5
390
100
AcDbEntity
  8
M0
 62
   253
100
AcDbText
 10
344.905566
 20
124.380052
 40
3.2
  1
１９７
 41
0.8125
  7
STANDARD
100
AcDbText
  0
TEXT
  5
391
100
AcDbEntity
  8
M0
 62
   253
100
AcDbText
 10
344.905566
 20
119.580052
 40
3.2
  1
１９７
 41
0.8125
  7
STANDARD
100
AcDbText
  0
TEXT
  5
392
100
AcDbEntity
  8
M0
 62
   253
100
AcDbText
 10
344.905566
 20
114.780052
 40
3.2
  1
１９７
 41
0.8125
  7
STANDARD
100
AcDbText
  0
TEXT
  5
393
100
AcDbEntity
  8
M0
 62
   253
100
AcDbText
 10
359.305565
 20
129.180052
 40
3.2
  1
２３２
 41
0.8125
  7
STANDARD
100
AcDbText
  0
TEXT
  5
394
100
AcDbEntity
  8
M0
 62
   253
100
AcDbText
 10
359.305565
 20
124.380052
 40
3.2
  1
１９７
 41
0.8125
  7
STANDARD
100
AcDbText
  0
TEXT
  5
395
100
AcDbEntity
  8
M0
 62
   253
100
AcDbText
 10
359.305565
 20
119.580052
 40
3.2
  1
１９７
 41
0.8125
  7
STANDARD
100
AcDbText
  0
TEXT
  5
396
100
AcDbEntity
  8
M0
 62
   253
100
AcDbText
 10
359.305565
 20
114.780052
 40
3.2
  1
１９７
 41
0.8125
  7
STANDARD
100
AcDbText
  0
TEXT
  5
397
100
AcDbEntity
  8
M0
 62
   253
100
AcDbText
 10
359.305565
 20
109.980052
 40
3.2
  1
１９７
 41
0.8125
  7
STANDARD
100
AcDbText
  0
TEXT
  5
398
100
AcDbEntity
  8
M0
 62
   253
100
AcDbText
 10
359.305565
 20
105.180052
 40
3.2
  1
１７９
 41
0.8125
  7
STANDARD
100
AcDbText
  0
TEXT
  5
399
100
AcDbEntity
  8
M0
 62
   253
100
AcDbText
 10
344.905566
 20
109.980052
 40
3.2
  1
１９７
 41
0.8125
  7
STANDARD
100
AcDbText
  0
TEXT
  5
39A
100
AcDbEntity
  8
M0
 62
   253
100
AcDbText
 10
344.905566
 20
105.180052
 40
3.2
  1
　７９
 41
0.8125
  7
STANDARD
100
AcDbText
  0
LINE
  5
39B
100
AcDbEntity
  8
M0
 62
   253
100
AcDbLine
 10
405.485564
 20
99.580052
 11
221.485568
 21
99.580052
  0
TEXT
  5
39C
100
AcDbEntity
  8
M0
 62
   253
100
AcDbText
 10
283.705567
 20
133.980052
 40
3.2
  1
１４２３
 41
0.8125
  7
STANDARD
100
AcDbText
  0
TEXT
  5
39D
100
AcDbEntity
  8
M0
 62
   253
100
AcDbText
 10
299.785567
 20
133.980052
 40
3.2
  1
１２３８
 41
0.8125
  7
STANDARD
100
AcDbText
  0
TEXT
  5
39E
100
AcDbEntity
  8
M0
 62
   253
100
AcDbText
 10
314.185566
 20
133.980052
 40
3.2
  1
１０１３
 41
0.8125
  7
STANDARD
100
AcDbText
  0
TEXT
  5
39F
100
AcDbEntity
  8
M0
 62
   253
100
AcDbText
 10
330.505566
 20
133.980052
 40
3.2
  1
１７６
 41
0.8125
  7
STANDARD
100
AcDbText
  0
TEXT
  5
3A0
100
AcDbEntity
  8
M0
 62
   253
100
AcDbText
 10
344.905566
 20
133.980052
 40
3.2
  1
２３２
 41
0.8125
  7
STANDARD
100
AcDbText
  0
TEXT
  5
3A1
100
AcDbEntity
  8
M0
 62
   253
100
AcDbText
 10
359.305565
 20
133.980052
 40
3.2
  1
２３２
 41
0.8125
  7
STANDARD
100
AcDbText
  0
TEXT
  5
3A2
100
AcDbEntity
  8
M0
 62
   253
100
AcDbText
 10
373.705565
 20
114.780052
 40
3.2
  1
２５ｍｍ（１Ｂ）
 41
0.8125
  7
STANDARD
100
AcDbText
  0
TEXT
  5
3A3
100
AcDbEntity
  8
M0
 62
   253
100
AcDbText
 10
373.705565
 20
119.580052
 40
3.2
  1
２５ｍｍ（１Ｂ）
 41
0.8125
  7
STANDARD
100
AcDbText
  0
TEXT
  5
3A4
100
AcDbEntity
  8
M0
 62
   253
100
AcDbText
 10
373.705565
 20
124.380052
 40
3.2
  1
２５ｍｍ（１Ｂ）
 41
0.8125
  7
STANDARD
100
AcDbText
  0
TEXT
  5
3A5
100
AcDbEntity
  8
M0
 62
   253
100
AcDbText
 10
373.705565
 20
129.180052
 40
3.2
  1
２０ｍｍ（３／４Ｂ）
 41
0.8125
  7
STANDARD
100
AcDbText
  0
TEXT
  5
3A6
100
AcDbEntity
  8
M0
 62
   253
100
AcDbText
 10
373.705565
 20
133.980052
 40
3.2
  1
２０ｍｍ（３／４Ｂ）
 41
0.8125
  7
STANDARD
100
AcDbText
  0
LINE
  5
3A7
100
AcDbEntity
  8
M0
 62
   253
100
AcDbLine
 10
405.485564
 20
99.580052
 11
405.485564
 21
137.980052
  0
LINE
  5
3A8
100
AcDbEntity
  8
M0
 62
   253
100
AcDbLine
 10
405.485564
 20
104.380052
 11
221.485568
 21
104.380052
  0
TEXT
  5
3A9
100
AcDbEntity
  8
M0
 62
   253
100
AcDbText
 10
283.705567
 20
100.380052
 40
3.2
  1
１２６５
 41
0.8125
  7
STANDARD
100
AcDbText
  0
TEXT
  5
3AA
100
AcDbEntity
  8
M0
 62
   253
100
AcDbText
 10
299.785567
 20
100.380052
 40
3.2
  1
１０８０
 41
0.8125
  7
STANDARD
100
AcDbText
  0
TEXT
  5
3AB
100
AcDbEntity
  8
M0
 62
   253
100
AcDbText
 10
314.185566
 20
100.380052
 40
3.2
  1
１０２８
 41
0.8125
  7
STANDARD
100
AcDbText
  0
TEXT
  5
3AC
100
AcDbEntity
  8
M0
 62
   253
100
AcDbText
 10
330.505566
 20
100.380052
 40
3.2
  1
１６０
 41
0.8125
  7
STANDARD
100
AcDbText
  0
TEXT
  5
3AD
100
AcDbEntity
  8
M0
 62
   253
100
AcDbText
 10
344.905566
 20
100.380052
 40
3.2
  1
　７９
 41
0.8125
  7
STANDARD
100
AcDbText
  0
TEXT
  5
3AE
100
AcDbEntity
  8
M0
 62
   253
100
AcDbText
 10
359.305565
 20
100.380052
 40
3.2
  1
１７９
 41
0.8125
  7
STANDARD
100
AcDbText
  0
TEXT
  5
3AF
100
AcDbEntity
  8
M0
 62
   253
100
AcDbText
 10
373.705565
 20
100.380052
 40
3.2
  1
２５ｍｍ（１Ｂ）
 41
0.8125
  7
STANDARD
100
AcDbText
  0
TEXT
  5
3B0
100
AcDbEntity
  8
M0
 62
   253
100
AcDbText
 10
373.705565
 20
105.180052
 40
3.2
  1
２０ｍｍ（３／４Ｂ）
 41
0.8125
  7
STANDARD
100
AcDbText
  0
TEXT
  5
3B1
100
AcDbEntity
  8
M0
 62
   253
100
AcDbText
 10
373.705565
 20
109.980052
 40
3.2
  1
２５ｍｍ（１Ｂ）
 41
0.8125
  7
STANDARD
100
AcDbText
  0
TEXT
  5
3B2
100
AcDbEntity
  8
M0
 62
   253
100
AcDbText
 10
229.111953
 20
144.7795
 40
3.2
  1
単位：ｍｍ
 41
0.791667
  7
STANDARD
100
AcDbText
  0
TEXT
  5
3B3
100
AcDbEntity
  8
M0
 62
   253
100
AcDbText
 10
223.080893
 20
133.980052
 40
3.2
  1
ＷＴ－Ｐ８０Ｈ，ＷＴ－Ｐ８０Ｊ
 41
0.8125
  7
STANDARD
100
AcDbText
  0
TEXT
  5
3B4
100
AcDbEntity
  8
M0
 62
   253
100
AcDbText
 10
223.080893
 20
129.180052
 40
3.2
  1
ＷＴ－Ｐ１２５Ｈ，ＷＴ－Ｐ１２５Ｊ
 41
0.8125
  7
STANDARD
100
AcDbText
  0
TEXT
  5
3B5
100
AcDbEntity
  8
M0
 62
   253
100
AcDbText
 10
223.080893
 20
124.380052
 40
3.2
  1
ＷＴ－Ｐ２００Ｈ，ＷＴ－Ｐ２００Ｊ
 41
0.8125
  7
STANDARD
100
AcDbText
  0
TEXT
  5
3B6
100
AcDbEntity
  8
M0
 62
   253
100
AcDbText
 10
223.080893
 20
119.580052
 40
3.2
  1
ＷＴ－ＰＬ２００Ｈ，ＷＴ－ＰＬ２００Ｊ
 41
0.8125
  7
STANDARD
100
AcDbText
  0
TEXT
  5
3B7
100
AcDbEntity
  8
M0
 62
   253
100
AcDbText
 10
223.080893
 20
114.780052
 40
3.2
  1
ＷＴ－Ｐ３００Ｈ，ＷＴ－Ｐ３００Ｊ
 41
0.8125
  7
STANDARD
100
AcDbText
  0
TEXT
  5
3B8
100
AcDbEntity
  8
M0
 62
   253
100
AcDbText
 10
223.080893
 20
109.980052
 40
3.2
  1
ＷＴ－ＰＬ３００Ｈ，ＷＴ－ＰＬ３００Ｊ
 41
0.8125
  7
STANDARD
100
AcDbText
  0
TEXT
  5
3B9
100
AcDbEntity
  8
M0
 62
   253
100
AcDbText
 10
223.080893
 20
105.180052
 40
3.2
  1
ＷＭ－Ｐ１２５Ｈ，ＷＭ－Ｐ１２５Ｊ
 41
0.8125
  7
STANDARD
100
AcDbText
  0
TEXT
  5
3BA
100
AcDbEntity
  8
M0
 62
   253
100
AcDbText
 10
223.080893
 20
100.380052
 40
3.2
  1
ＷＭ－Ｐ２００Ｈ，ＷＭ－Ｐ２００Ｊ
 41
0.8125
  7
STANDARD
100
AcDbText
  0
ENDSEC
  0
SECTION
  2
OBJECTS
  0
DICTIONARY
  5
C
100
AcDbDictionary
  3
ACAD_GROUP
350
D
  3
ACAD_MLINESTYLE
350
E
  0
DICTIONARY
  5
D
102
{ACAD_REACTORS
330
C
102
}
100
AcDbDictionary
  0
DICTIONARY
  5
E
102
{ACAD_REACTORS
330
C
102
}
100
AcDbDictionary
  3
STANDARD
350
13
  0
MLINESTYLE
  5
13
102
{ACAD_REACTORS
330
E
102
}
100
AcDbMlineStyle
  2
STANDARD
 70
     0
  3

 62
     0
 51
90.0
 52
90.0
 71
     2
 49
0.5
 62
   256
  6
BYLAYER
 49
-0.5
 62
   256
  6
BYLAYER
  0
ENDSEC
  0
EOF
