  0
SECTION
  2
HEADER
  9
$ACADVER
  1
AC1012
  9
$INSBASE
 10
0.0
 20
0.0
  9
$VIEWCTR
 10
7.531722
 20
4.5
  9
$VIEWSIZE
 40
9.0
  9
$SNAPMODE
 70
     0
  9
$SNAPUNIT
 10
1.0
 20
1.0
  9
$SNAPBASE
 10
0.0
 20
0.0
  9
$SNAPANG
 50
0.0
  9
$SNAPSTYLE
 70
     0
  9
$SNAPISOPAIR
 70
     0
  9
$GRIDMODE
 70
     0
  9
$GRIDUNIT
 10
0.0
 20
0.0
  9
$ORTHOMODE
 70
     0
  9
$REGENMODE
 70
     1
  9
$FILLMODE
 70
     1
  9
$QTEXTMODE
 70
     0
  9
$DRAGMODE
 70
     2
  9
$LTSCALE
 40
1.0
  9
$OSMODE
 70
     0
  9
$ATTMODE
 70
     1
  9
$TEXTSIZE
 40
0.2
  9
$TRACEWID
 40
0.05
  9
$TEXTSTYLE
  7
STANDARD
  9
$CELTYPE
  6
BYLAYER
  9
$CECOLOR
 62
   256
  9
$DIMSCALE
 40
1.0
  9
$DIMASZ
 40
0.18
  9
$DIMEXO
 40
0.0625
  9
$DIMDLI
 40
0.38
  9
$DIMRND
 40
0.0
  9
$DIMDLE
 40
0.0
  9
$DIMEXE
 40
0.18
  9
$DIMTP
 40
0.0
  9
$DIMTM
 40
0.0
  9
$DIMTXT
 40
0.18
  9
$DIMCEN
 40
0.09
  9
$DIMTSZ
 40
0.0
  9
$DIMTOL
 70
     0
  9
$DIMLIM
 70
     0
  9
$DIMTIH
 70
     1
  9
$DIMTOH
 70
     1
  9
$DIMSE1
 70
     0
  9
$DIMSE2
 70
     0
  9
$DIMTAD
 70
     0
  9
$DIMZIN
 70
     0
  9
$DIMBLK
  1

  9
$LUNITS
 70
     2
  9
$LUPREC
 70
     4
  9
$AXISMODE
 70
     0
  9
$AXISUNIT
 10
0.0
 20
0.0
  9
$SKETCHINC
 40
0.1
  9
$FILLETRAD
 40
0.0
  9
$AUNITS
 70
     0
  9
$AUPREC
 70
     0
  9
$MENU
  1
ACAD
  9
$ELEVATION
 40
0.0
  9
$THICKNESS
 40
0.0
  9
$VIEWDIR
 10
0.0
 20
0.0
 30
1.0
  9
$LIMCHECK
 70
     0
  9
$BLIPMODE
 70
     1
  9
$CHAMFERA
 40
0.0
  9
$CHAMFERB
 40
0.0
  9
$FASTZOOM
 70
     1
  9
$SKPOLY
 70
     0
  9
$TDCREATE
 40
0000000.0000000000
  9
$TDUPDATE
 40
0000000.0000000000
  9
$TDINDWG
 40
0.0000000000
  9
$TDUSRTIMER
 40
0.0000000000
  9
$USRTIMER
 70
     1
  9
$ANGBASE
 50
0.0
  9
$ANGDIR
 70
     0
  9
$PDMODE
 70
     0
  9
$PDSIZE
 40
0.0
  9
$PLINEWID
 40
0.0
  9
$COORDS
 70
     0
  9
$USERI1
 70
     0
  9
$USERI2
 70
     0
  9
$USERI3
 70
     0
  9
$USERI4
 70
     0
  9
$USERI5
 70
     0
  9
$USERR1
 40
0.0
  9
$USERR2
 40
0.0
  9
$USERR3
 40
0.0
  9
$USERR4
 40
0.0
  9
$USERR5
 40
0.0
  9
$CLAYER
  8
M0
  9
$EXTMIN
 10
0.0
 20
0.0
  9
$EXTMAX
 10
420.0
 20
297.0
  9
$LIMMIN
 10
0.0
 20
0.0
  9
$LIMMAX
 10
420.0
 20
297.0
  9
$HANDSEED
  5
2DA
  0
ENDSEC
  0
SECTION
  2
CLASSES
  0
ENDSEC
  0
SECTION
  2
TABLES
  0
TABLE
  2
VPORT
  5
8
100
AcDbSymbolTable
 70
     2
  0
VPORT
  5
14
100
AcDbSymbolTableRecord
100
AcDbViewportTableRecord
  2
*ACTIVE
 70
     0
 10
0.0
 20
0.0
 11
1.0
 21
1.0
 12
484.0
 22
297.0
 13
0.0
 23
0.0
 14
1.0
 24
1.0
 15
0.0
 25
0.0
 16
0.0
 26
0.0
 36
1.0
 17
0.0
 27
0.0
 37
0.0
 40
594.0
 41
2.0
 42
50.0
 43
0.0
 44
0.0
 50
0.0
 51
0.0
 71
     0
 72
   100
 73
     1
 74
     1
 75
     0
 76
     0
 77
     0
 78
     0
  0
ENDTAB
  0
TABLE
  2
LTYPE
  5
5
100
AcDbSymbolTable
 70
     5
  0
LTYPE
  5
15
100
AcDbSymbolTableRecord
100
AcDbLinetypeTableRecord
  2
BYBLOCK
 70
     0
  3

 72
    65
 73
     0
 40
0.0
  0
LTYPE
  5
16
100
AcDbSymbolTableRecord
100
AcDbLinetypeTableRecord
  2
BYLAYER
 70
     0
  3

 72
    65
 73
     0
 40
0.0
  0
LTYPE
  5
17
100
AcDbSymbolTableRecord
100
AcDbLinetypeTableRecord
  2
CONTINUOUS
 70
    64
  3
Solid line
 72
    65
 73
     0
 40
0.0
  0
LTYPE
  5
18
100
AcDbSymbolTableRecord
100
AcDbLinetypeTableRecord
  2
DASHED
 70
    64
  3
__ __ __ __ __ __ __ __ __ __ __ __ __ __ __ __
 72
    65
 73
     2
 40
0.75
 49
0.5
 74
     0
 49
-0.25
 74
     0
  0
LTYPE
  5
19
100
AcDbSymbolTableRecord
100
AcDbLinetypeTableRecord
  2
DASHDOT
 70
    64
  3
__ . __ . __ . __ . __ . __ . __ . __ . __ . __
 72
    65
 73
     4
 40
1.0
 49
0.5
 74
     0
 49
-0.25
 74
     0
 49
0.0
 74
     0
 49
-0.25
 74
     0
  0
LTYPE
  5
1A
100
AcDbSymbolTableRecord
100
AcDbLinetypeTableRecord
  2
DIVIDE
 70
    64
  3
____ . . ____ . . ____ . . ____ . . ____ . . __
 72
    65
 73
     6
 40
1.25
 49
0.5
 74
     0
 49
-0.25
 74
     0
 49
0.0
 74
     0
 49
-0.25
 74
     0
 49
0.0
 74
     0
 49
-0.25
 74
     0
  0
LTYPE
  5
1B
100
AcDbSymbolTableRecord
100
AcDbLinetypeTableRecord
  2
DOT
 70
    64
  3
. . . . . . . . . . . . . . . . . . . . . . . .
 72
    65
 73
     2
 40
0.25
 49
0.0
 74
     0
 49
-0.25
 74
     0
  0
ENDTAB
  0
TABLE
  2
LAYER
  5
2
100
AcDbSymbolTable
 70
   102
  0
LAYER
  5
F
100
AcDbSymbolTableRecord
100
AcDbLayerTableRecord
  2
0
 70
     0
 62
     7
  6
CONTINUOUS
  0
LAYER
  5
1C
100
AcDbSymbolTableRecord
100
AcDbLayerTableRecord
  2
DEFPOINTS
 70
     0
 62
     7
  6
CONTINUOUS
  0
LAYER
  5
1D
100
AcDbSymbolTableRecord
100
AcDbLayerTableRecord
  2
M0
 70
     0
 62
     3
  6
CONTINUOUS
  0
LAYER
  5
1E
100
AcDbSymbolTableRecord
100
AcDbLayerTableRecord
  2
DD0
 70
     0
 62
     4
  6
CONTINUOUS
  0
ENDTAB
  0
TABLE
  2
STYLE
  5
3
100
AcDbSymbolTable
 70
     2
  0
STYLE
  5
10
100
AcDbSymbolTableRecord
100
AcDbTextStyleTableRecord
  2
STANDARD
 70
     0
 40
0.0
 41
1.0
 50
0.0
 71
     0
 42
0.2
  3
txt
  4
BIGFONT
  0
ENDTAB
  0
TABLE
  2
VIEW
  5
6
100
AcDbSymbolTable
 70
     0
  0
ENDTAB
  0
TABLE
  2
UCS
  5
7
100
AcDbSymbolTable
 70
     0
  0
ENDTAB
  0
TABLE
  2
APPID
  5
9
100
AcDbSymbolTable
 70
     1
  0
APPID
  5
11
100
AcDbSymbolTableRecord
100
AcDbRegAppTableRecord
  2
ACAD
 70
     0
  0
ENDTAB
  0
TABLE
  2
DIMSTYLE
  5
A
100
AcDbSymbolTable
 70
     2
  0
DIMSTYLE
105
25
100
AcDbSymbolTableRecord
100
AcDbDimStyleTableRecord
  2
STANDARD
 70
     0
  3

  4

  5

  6
_OPEN
  7
_OPEN
 40
1.0
 41
3.0
 42
0.0
 43
8.0
 44
1.5
 45
0.0
 46
0.0
 47
0.0
 48
0.0
140
3.5
141
0.09
142
0.0
143
0.03937
144
1.0
145
0.0
146
1.0
147
1.0
 71
     0
 72
     0
 73
     0
 74
     0
 75
     0
 76
     0
 77
     3
 78
     8
170
     0
171
     2
172
     0
173
     1
174
     0
175
     0
176
     0
177
     0
178
     0
270
     2
271
     2
272
     4
273
     2
274
     2
340
10
275
     0
280
     0
281
     0
282
     0
283
     1
284
     0
285
     0
286
     0
287
     3
288
     0
  0
DIMSTYLE
105
26
100
AcDbSymbolTableRecord
100
AcDbDimStyleTableRecord
  2
LEADSTYL
 70
     0
  3

  4

  5

  6
_OPEN
  7
_OPEN
 40
1.0
 41
3.0
 42
0.0625
 43
0.38
 44
0.18
 45
0.0
 46
0.0
 47
0.0
 48
0.0
140
3.5
141
0.09
142
0.0
143
25.4
144
1.0
145
0.0
146
1.0
147
1.0
 71
     0
 72
     0
 73
     1
 74
     1
 75
     0
 76
     0
 77
     0
 78
     0
170
     0
171
     2
172
     0
173
     1
174
     0
175
     0
176
     0
177
     0
178
     0
270
     2
271
     4
272
     4
273
     2
274
     2
340
10
275
     0
280
     0
281
     0
282
     0
283
     1
284
     0
285
     0
286
     0
287
     3
288
     0
  0
ENDTAB
  0
TABLE
  2
BLOCK_RECORD
  5
1
100
AcDbSymbolTable
 70
    23
  0
BLOCK_RECORD
  5
1F
100
AcDbSymbolTableRecord
100
AcDbBlockTableRecord
  2
*MODEL_SPACE
  0
BLOCK_RECORD
  5
22
100
AcDbSymbolTableRecord
100
AcDbBlockTableRecord
  2
*PAPER_SPACE
  0
BLOCK_RECORD
  5
27
100
AcDbSymbolTableRecord
100
AcDbBlockTableRecord
  2
_NONE
  0
BLOCK_RECORD
  5
2B
100
AcDbSymbolTableRecord
100
AcDbBlockTableRecord
  2
_OPEN
  0
BLOCK_RECORD
  5
31
100
AcDbSymbolTableRecord
100
AcDbBlockTableRecord
  2
_CLOSED
  0
BLOCK_RECORD
  5
38
100
AcDbSymbolTableRecord
100
AcDbBlockTableRecord
  2
_ORIGIN
  0
BLOCK_RECORD
  5
3D
100
AcDbSymbolTableRecord
100
AcDbBlockTableRecord
  2
_DOT
  0
BLOCK_RECORD
  5
45
100
AcDbSymbolTableRecord
100
AcDbBlockTableRecord
  2
_OBLIQUE
  0
BLOCK_RECORD
  5
49
100
AcDbSymbolTableRecord
100
AcDbBlockTableRecord
  2
DIMS0
  0
BLOCK_RECORD
  5
53
100
AcDbSymbolTableRecord
100
AcDbBlockTableRecord
  2
DIMS1
  0
BLOCK_RECORD
  5
5D
100
AcDbSymbolTableRecord
100
AcDbBlockTableRecord
  2
DIMS2
  0
BLOCK_RECORD
  5
67
100
AcDbSymbolTableRecord
100
AcDbBlockTableRecord
  2
DIMS3
  0
BLOCK_RECORD
  5
71
100
AcDbSymbolTableRecord
100
AcDbBlockTableRecord
  2
DIMS4
  0
BLOCK_RECORD
  5
7B
100
AcDbSymbolTableRecord
100
AcDbBlockTableRecord
  2
DIMS5
  0
BLOCK_RECORD
  5
85
100
AcDbSymbolTableRecord
100
AcDbBlockTableRecord
  2
DIMS6
  0
BLOCK_RECORD
  5
8F
100
AcDbSymbolTableRecord
100
AcDbBlockTableRecord
  2
DIMS7
  0
BLOCK_RECORD
  5
99
100
AcDbSymbolTableRecord
100
AcDbBlockTableRecord
  2
DIMS8
  0
BLOCK_RECORD
  5
A3
100
AcDbSymbolTableRecord
100
AcDbBlockTableRecord
  2
DIMS9
  0
BLOCK_RECORD
  5
AD
100
AcDbSymbolTableRecord
100
AcDbBlockTableRecord
  2
DIMS10
  0
BLOCK_RECORD
  5
B6
100
AcDbSymbolTableRecord
100
AcDbBlockTableRecord
  2
DIMS11
  0
BLOCK_RECORD
  5
C0
100
AcDbSymbolTableRecord
100
AcDbBlockTableRecord
  2
DIMS12
  0
BLOCK_RECORD
  5
CA
100
AcDbSymbolTableRecord
100
AcDbBlockTableRecord
  2
DIMS13
  0
BLOCK_RECORD
  5
D4
100
AcDbSymbolTableRecord
100
AcDbBlockTableRecord
  2
DIMS14
  0
BLOCK_RECORD
  5
DE
100
AcDbSymbolTableRecord
100
AcDbBlockTableRecord
  2
DIMS15
  0
BLOCK_RECORD
  5
E8
100
AcDbSymbolTableRecord
100
AcDbBlockTableRecord
  2
DIMS16
  0
ENDTAB
  0
ENDSEC
  0
SECTION
  2
BLOCKS
  0
BLOCK
  5
20
100
AcDbEntity
  8
0
100
AcDbBlockBegin
  2
*MODEL_SPACE
 70
     0
 10
0.0
 20
0.0
 30
0.0
  3
*MODEL_SPACE
  1

  0
ENDBLK
  5
21
100
AcDbEntity
  8
0
100
AcDbBlockEnd
  0
BLOCK
  5
23
100
AcDbEntity
 67
     1
  8
0
100
AcDbBlockBegin
  2
*PAPER_SPACE
 70
     0
 10
0.0
 20
0.0
 30
0.0
  3
*PAPER_SPACE
  1

  0
ENDBLK
  5
24
100
AcDbEntity
 67
     1
  8
0
100
AcDbBlockEnd
  0
BLOCK
  5
28
100
AcDbEntity
  8
0
100
AcDbBlockBegin
  2
_NONE
 70
     0
 10
0.0
 20
0.0
  0
CIRCLE
  5
29
100
AcDbEntity
  8
0
 62
     0
100
AcDbCircle
 10
0.0
 20
0.0
 40
0.25
  0
ENDBLK
  5
2A
100
AcDbEntity
  8
0
100
AcDbBlockEnd
  0
BLOCK
  5
2C
100
AcDbEntity
  8
0
100
AcDbBlockBegin
  2
_OPEN
 70
     0
 10
0.0
 20
0.0
  0
LINE
  5
2D
100
AcDbEntity
  8
0
 62
     0
100
AcDbLine
 10
-0.965926
 20
0.25882
 11
0.0
 21
0.0
  0
LINE
  5
2E
100
AcDbEntity
  8
0
 62
     0
100
AcDbLine
 10
0.0
 20
0.0
 11
-0.965926
 21
-0.25882
  0
LINE
  5
2F
100
AcDbEntity
  8
0
 62
     0
100
AcDbLine
 10
0.0
 20
0.0
 11
-1.0
 21
0.0
  0
ENDBLK
  5
30
100
AcDbEntity
  8
0
100
AcDbBlockEnd
  0
BLOCK
  5
32
100
AcDbEntity
  8
0
100
AcDbBlockBegin
  2
_CLOSED
 70
     0
 10
0.0
 20
0.0
  0
LINE
  5
33
100
AcDbEntity
  8
0
 62
     0
100
AcDbLine
 10
-0.965926
 20
0.25882
 11
0.0
 21
0.0
  0
LINE
  5
34
100
AcDbEntity
  8
0
 62
     0
100
AcDbLine
 10
0.0
 20
0.0
 11
-0.965926
 21
-0.25882
  0
LINE
  5
35
100
AcDbEntity
  8
0
 62
     0
100
AcDbLine
 10
-0.965926
 20
0.25882
 11
-0.965926
 21
-0.25882
  0
LINE
  5
36
100
AcDbEntity
  8
0
 62
     0
100
AcDbLine
 10
0.0
 20
0.0
 11
-1.0
 21
0.0
  0
ENDBLK
  5
37
100
AcDbEntity
  8
0
100
AcDbBlockEnd
  0
BLOCK
  5
39
100
AcDbEntity
  8
0
100
AcDbBlockBegin
  2
_ORIGIN
 70
     0
 10
0.0
 20
0.0
  0
CIRCLE
  5
3A
100
AcDbEntity
  8
0
 62
     0
100
AcDbCircle
 10
0.0
 20
0.0
 40
0.5
  0
LINE
  5
3B
100
AcDbEntity
  8
0
 62
     0
100
AcDbLine
 10
0.0
 20
0.0
 11
-1.0
 21
0.0
  0
ENDBLK
  5
3C
100
AcDbEntity
  8
0
100
AcDbBlockEnd
  0
BLOCK
  5
3E
100
AcDbEntity
  8
0
100
AcDbBlockBegin
  2
_DOT
 70
     0
 10
0.0
 20
0.0
  0
POLYLINE
  5
3F
100
AcDbEntity
  8
0
 62
     0
100
AcDb2dPolyline
 66
     1
 70
     1
 40
0.5
 41
0.5
  0
VERTEX
  5
40
100
AcDbEntity
  8
0
 62
     0
100
AcDbVertex
100
AcDb2dVertex
 10
-0.25
 20
0.0
 42
1.0
  0
VERTEX
  5
41
100
AcDbEntity
  8
0
 62
     0
100
AcDbVertex
100
AcDb2dVertex
 10
0.25
 20
0.0
 42
1.0
  0
SEQEND
  5
42
100
AcDbEntity
  8
0
 62
     0
  0
LINE
  5
43
100
AcDbEntity
  8
0
 62
     0
100
AcDbLine
 10
-0.5
 20
0.0
 11
-1.0
 21
0.0
  0
ENDBLK
  5
44
100
AcDbEntity
  8
0
100
AcDbBlockEnd
  0
BLOCK
  5
46
100
AcDbEntity
  8
0
100
AcDbBlockBegin
  2
_OBLIQUE
 70
     0
 10
0.0
 20
0.0
  0
LINE
  5
47
100
AcDbEntity
  8
0
 62
     0
100
AcDbLine
 10
-0.353553
 20
-0.353553
 11
0.353553
 21
0.353553
  0
ENDBLK
  5
48
100
AcDbEntity
  8
0
100
AcDbBlockEnd
  0
BLOCK
  5
4A
100
AcDbEntity
  8
DD0
100
AcDbBlockBegin
  2
DIMS0
 70
     0
 10
0.0
 20
0.0
  0
LINE
  5
4B
100
AcDbEntity
  8
DD0
100
AcDbLine
 10
74.201401
 20
69.851265
 11
54.901402
 21
69.851265
  0
LINE
  5
4C
100
AcDbEntity
  8
DD0
100
AcDbLine
 10
90.091255
 20
96.251266
 11
54.901402
 21
96.251266
  0
INSERT
  5
4D
100
AcDbEntity
  8
DD0
100
AcDbBlockReference
  2
_OPEN
 10
56.401402
 20
96.251266
 41
3.0
 42
3.0
 50
90.0
  0
INSERT
  5
4E
100
AcDbEntity
  8
DD0
100
AcDbBlockReference
  2
_OPEN
 10
56.401402
 20
69.851265
 41
3.0
 42
3.0
 50
270.0
  0
LINE
  5
4F
100
AcDbEntity
  8
DD0
100
AcDbLine
 10
56.401402
 20
72.851265
 11
56.401402
 21
93.251266
  0
TEXT
  5
50
100
AcDbEntity
  8
DD0
100
AcDbText
 10
55.401402
 20
78.092936
 40
3.5
  1
１３２
 50
90.000003
 41
0.833333
  7
STANDARD
100
AcDbText
  0
ENDBLK
  5
51
100
AcDbEntity
  8
DD0
100
AcDbBlockEnd
  0
BLOCK
  5
54
100
AcDbEntity
  8
DD0
100
AcDbBlockBegin
  2
DIMS1
 70
     0
 10
0.0
 20
0.0
  0
LINE
  5
55
100
AcDbEntity
  8
DD0
100
AcDbLine
 10
71.401398
 20
85.851265
 11
62.901398
 21
85.851265
  0
LINE
  5
56
100
AcDbEntity
  8
DD0
100
AcDbLine
 10
74.201401
 20
69.851265
 11
62.901398
 21
69.851265
  0
INSERT
  5
57
100
AcDbEntity
  8
DD0
100
AcDbBlockReference
  2
_OPEN
 10
64.401398
 20
69.851265
 41
3.0
 42
3.0
 50
270.0
  0
INSERT
  5
58
100
AcDbEntity
  8
DD0
100
AcDbBlockReference
  2
_OPEN
 10
64.401398
 20
85.851265
 41
3.0
 42
3.0
 50
90.0
  0
LINE
  5
59
100
AcDbEntity
  8
DD0
100
AcDbLine
 10
64.401398
 20
82.851265
 11
64.401398
 21
72.851265
  0
TEXT
  5
5A
100
AcDbEntity
  8
DD0
100
AcDbText
 10
63.401398
 20
74.642932
 40
3.5
  1
８０
 50
90.000003
 41
0.833333
  7
STANDARD
100
AcDbText
  0
ENDBLK
  5
5B
100
AcDbEntity
  8
DD0
100
AcDbBlockEnd
  0
BLOCK
  5
5E
100
AcDbEntity
  8
DD0
100
AcDbBlockBegin
  2
DIMS2
 70
     0
 10
0.0
 20
0.0
  0
LINE
  5
5F
100
AcDbEntity
  8
DD0
100
AcDbLine
 10
143.401398
 20
85.851265
 11
151.901398
 21
85.851265
  0
LINE
  5
60
100
AcDbEntity
  8
DD0
100
AcDbLine
 10
139.401398
 20
69.851265
 11
151.901398
 21
69.851265
  0
INSERT
  5
61
100
AcDbEntity
  8
DD0
100
AcDbBlockReference
  2
_OPEN
 10
150.401398
 20
69.851265
 41
3.0
 42
3.0
 50
270.0
  0
INSERT
  5
62
100
AcDbEntity
  8
DD0
100
AcDbBlockReference
  2
_OPEN
 10
150.401398
 20
85.851265
 41
3.0
 42
3.0
 50
90.0
  0
LINE
  5
63
100
AcDbEntity
  8
DD0
100
AcDbLine
 10
150.401398
 20
82.851265
 11
150.401398
 21
72.851265
  0
TEXT
  5
64
100
AcDbEntity
  8
DD0
100
AcDbText
 10
149.401398
 20
74.642932
 40
3.5
  1
８０
 50
90.000003
 41
0.833333
  7
STANDARD
100
AcDbText
  0
ENDBLK
  5
65
100
AcDbEntity
  8
DD0
100
AcDbBlockEnd
  0
BLOCK
  5
68
100
AcDbEntity
  8
DD0
100
AcDbBlockBegin
  2
DIMS3
 70
     0
 10
0.0
 20
0.0
  0
LINE
  5
69
100
AcDbEntity
  8
DD0
100
AcDbLine
 10
137.601395
 20
132.851273
 11
159.901398
 21
132.851273
  0
LINE
  5
6A
100
AcDbEntity
  8
DD0
100
AcDbLine
 10
139.401398
 20
69.851265
 11
159.901398
 21
69.851265
  0
INSERT
  5
6B
100
AcDbEntity
  8
DD0
100
AcDbBlockReference
  2
_OPEN
 10
158.401398
 20
69.851265
 41
3.0
 42
3.0
 50
270.0
  0
INSERT
  5
6C
100
AcDbEntity
  8
DD0
100
AcDbBlockReference
  2
_OPEN
 10
158.401398
 20
132.851273
 41
3.0
 42
3.0
 50
90.0
  0
LINE
  5
6D
100
AcDbEntity
  8
DD0
100
AcDbLine
 10
158.401398
 20
129.851273
 11
158.401398
 21
72.851265
  0
TEXT
  5
6E
100
AcDbEntity
  8
DD0
100
AcDbText
 10
157.401398
 20
96.392939
 40
3.5
  1
３１７
 50
90.000003
 41
0.833333
  7
STANDARD
100
AcDbText
  0
ENDBLK
  5
6F
100
AcDbEntity
  8
DD0
100
AcDbBlockEnd
  0
BLOCK
  5
72
100
AcDbEntity
  8
DD0
100
AcDbBlockBegin
  2
DIMS4
 70
     0
 10
0.0
 20
0.0
  0
LINE
  5
73
100
AcDbEntity
  8
DD0
100
AcDbLine
 10
72.113739
 20
193.506561
 11
62.901398
 21
193.506561
  0
LINE
  5
74
100
AcDbEntity
  8
DD0
100
AcDbLine
 10
79.268066
 20
218.106567
 11
62.901398
 21
218.106567
  0
INSERT
  5
75
100
AcDbEntity
  8
DD0
100
AcDbBlockReference
  2
_OPEN
 10
64.401398
 20
218.106567
 41
3.0
 42
3.0
 50
90.0
  0
INSERT
  5
76
100
AcDbEntity
  8
DD0
100
AcDbBlockReference
  2
_OPEN
 10
64.401398
 20
193.506561
 41
3.0
 42
3.0
 50
270.0
  0
LINE
  5
77
100
AcDbEntity
  8
DD0
100
AcDbLine
 10
64.401398
 20
196.506561
 11
64.401398
 21
215.106567
  0
TEXT
  5
78
100
AcDbEntity
  8
DD0
100
AcDbText
 10
63.401398
 20
200.848231
 40
3.5
  1
１２３
 50
90.000003
 41
0.833333
  7
STANDARD
100
AcDbText
  0
ENDBLK
  5
79
100
AcDbEntity
  8
DD0
100
AcDbBlockEnd
  0
BLOCK
  5
7C
100
AcDbEntity
  8
DD0
100
AcDbBlockBegin
  2
DIMS5
 70
     0
 10
0.0
 20
0.0
  0
LINE
  5
7D
100
AcDbEntity
  8
DD0
100
AcDbLine
 10
139.001404
 20
193.506561
 11
139.001404
 21
239.606567
  0
LINE
  5
7E
100
AcDbEntity
  8
DD0
100
AcDbLine
 10
74.601402
 20
193.506561
 11
74.601402
 21
239.606567
  0
INSERT
  5
7F
100
AcDbEntity
  8
DD0
100
AcDbBlockReference
  2
_OPEN
 10
74.601402
 20
238.106567
 41
3.0
 42
3.0
 50
180.0
  0
INSERT
  5
80
100
AcDbEntity
  8
DD0
100
AcDbBlockReference
  2
_OPEN
 10
139.001404
 20
238.106567
 41
3.0
 42
3.0
  0
LINE
  5
81
100
AcDbEntity
  8
DD0
100
AcDbLine
 10
136.001404
 20
238.106567
 11
77.601402
 21
238.106567
  0
TEXT
  5
82
100
AcDbEntity
  8
DD0
100
AcDbText
 10
101.843074
 20
239.106567
 40
3.5
  1
３２０
 41
0.833333
  7
STANDARD
100
AcDbText
  0
ENDBLK
  5
83
100
AcDbEntity
  8
DD0
100
AcDbBlockEnd
  0
BLOCK
  5
86
100
AcDbEntity
  8
DD0
100
AcDbBlockBegin
  2
DIMS6
 70
     0
 10
0.0
 20
0.0
  0
LINE
  5
87
100
AcDbEntity
  8
DD0
100
AcDbLine
 10
106.801399
 20
224.723969
 11
106.801399
 21
231.606567
  0
LINE
  5
88
100
AcDbEntity
  8
DD0
100
AcDbLine
 10
81.801399
 20
220.639893
 11
81.801399
 21
231.606567
  0
INSERT
  5
89
100
AcDbEntity
  8
DD0
100
AcDbBlockReference
  2
_OPEN
 10
81.801399
 20
230.106567
 41
3.0
 42
3.0
 50
180.0
  0
INSERT
  5
8A
100
AcDbEntity
  8
DD0
100
AcDbBlockReference
  2
_OPEN
 10
106.801399
 20
230.106567
 41
3.0
 42
3.0
  0
LINE
  5
8B
100
AcDbEntity
  8
DD0
100
AcDbLine
 10
103.801399
 20
230.106567
 11
84.801399
 21
230.106567
  0
TEXT
  5
8C
100
AcDbEntity
  8
DD0
100
AcDbText
 10
89.343066
 20
231.106567
 40
3.5
  1
１２５
 41
0.833333
  7
STANDARD
100
AcDbText
  0
ENDBLK
  5
8D
100
AcDbEntity
  8
DD0
100
AcDbBlockEnd
  0
BLOCK
  5
90
100
AcDbEntity
  8
DD0
100
AcDbBlockBegin
  2
DIMS7
 70
     0
 10
0.0
 20
0.0
  0
LINE
  5
91
100
AcDbEntity
  8
DD0
100
AcDbLine
 10
106.801399
 20
224.723969
 11
106.801399
 21
231.606567
  0
LINE
  5
92
100
AcDbEntity
  8
DD0
100
AcDbLine
 10
126.801399
 20
220.906555
 11
126.801399
 21
231.606567
  0
INSERT
  5
93
100
AcDbEntity
  8
DD0
100
AcDbBlockReference
  2
_OPEN
 10
126.801399
 20
230.106567
 41
3.0
 42
3.0
  0
INSERT
  5
94
100
AcDbEntity
  8
DD0
100
AcDbBlockReference
  2
_OPEN
 10
106.801399
 20
230.106567
 41
3.0
 42
3.0
 50
180.0
  0
LINE
  5
95
100
AcDbEntity
  8
DD0
100
AcDbLine
 10
109.801399
 20
230.106567
 11
123.801399
 21
230.106567
  0
TEXT
  5
96
100
AcDbEntity
  8
DD0
100
AcDbText
 10
111.843066
 20
231.106567
 40
3.5
  1
１００
 41
0.833333
  7
STANDARD
100
AcDbText
  0
ENDBLK
  5
97
100
AcDbEntity
  8
DD0
100
AcDbBlockEnd
  0
BLOCK
  5
9A
100
AcDbEntity
  8
DD0
100
AcDbBlockBegin
  2
DIMS8
 70
     0
 10
0.0
 20
0.0
  0
LINE
  5
9B
100
AcDbEntity
  8
DD0
100
AcDbLine
 10
130.501404
 20
219.906555
 11
159.901398
 21
219.906555
  0
LINE
  5
9C
100
AcDbEntity
  8
DD0
100
AcDbLine
 10
143.522308
 20
193.506561
 11
159.901398
 21
193.506561
  0
INSERT
  5
9D
100
AcDbEntity
  8
DD0
100
AcDbBlockReference
  2
_OPEN
 10
158.401398
 20
193.506561
 41
3.0
 42
3.0
 50
270.0
  0
INSERT
  5
9E
100
AcDbEntity
  8
DD0
100
AcDbBlockReference
  2
_OPEN
 10
158.401398
 20
219.906555
 41
3.0
 42
3.0
 50
90.0
  0
LINE
  5
9F
100
AcDbEntity
  8
DD0
100
AcDbLine
 10
158.401398
 20
216.906555
 11
158.401398
 21
196.506561
  0
TEXT
  5
A0
100
AcDbEntity
  8
DD0
100
AcDbText
 10
157.401398
 20
201.748225
 40
3.5
  1
１３２
 50
90.000003
 41
0.833333
  7
STANDARD
100
AcDbText
  0
ENDBLK
  5
A1
100
AcDbEntity
  8
DD0
100
AcDbBlockEnd
  0
BLOCK
  5
A4
100
AcDbEntity
  8
DD0
100
AcDbBlockBegin
  2
DIMS9
 70
     0
 10
0.0
 20
0.0
  0
LINE
  5
A5
100
AcDbEntity
  8
DD0
100
AcDbLine
 10
143.522308
 20
193.506561
 11
151.901398
 21
193.506561
  0
LINE
  5
A6
100
AcDbEntity
  8
DD0
100
AcDbLine
 10
146.063873
 20
179.906555
 11
151.901398
 21
179.906555
  0
INSERT
  5
A7
100
AcDbEntity
  8
DD0
100
AcDbBlockReference
  2
_OPEN
 10
150.401398
 20
179.906555
 41
3.0
 42
3.0
 50
270.0
  0
INSERT
  5
A8
100
AcDbEntity
  8
DD0
100
AcDbBlockReference
  2
_OPEN
 10
150.401398
 20
193.506561
 41
3.0
 42
3.0
 50
90.0
  0
LINE
  5
A9
100
AcDbEntity
  8
DD0
100
AcDbLine
 10
150.401398
 20
190.506561
 11
150.401398
 21
182.906555
  0
TEXT
  5
AA
100
AcDbEntity
  8
DD0
100
AcDbText
 10
149.401398
 20
183.498225
 40
3.5
  1
６８
 50
90.000003
 41
0.833333
  7
STANDARD
100
AcDbText
  0
ENDBLK
  5
AB
100
AcDbEntity
  8
DD0
100
AcDbBlockEnd
  0
BLOCK
  5
AE
100
AcDbEntity
  8
DD0
100
AcDbBlockBegin
  2
DIMS10
 70
     0
 10
0.0
 20
0.0
  0
LINE
  5
AF
100
AcDbEntity
  8
DD0
100
AcDbLine
 10
134.334732
 20
168.906555
 11
159.901398
 21
168.906555
  0
INSERT
  5
B0
100
AcDbEntity
  8
DD0
100
AcDbBlockReference
  2
_OPEN
 10
158.401398
 20
193.506561
 41
3.0
 42
3.0
 50
90.0
  0
INSERT
  5
B1
100
AcDbEntity
  8
DD0
100
AcDbBlockReference
  2
_OPEN
 10
158.401398
 20
168.906555
 41
3.0
 42
3.0
 50
270.0
  0
LINE
  5
B2
100
AcDbEntity
  8
DD0
100
AcDbLine
 10
158.401398
 20
171.906555
 11
158.401398
 21
190.506561
  0
TEXT
  5
B3
100
AcDbEntity
  8
DD0
100
AcDbText
 10
157.401398
 20
176.248225
 40
3.5
  1
１２３
 50
90.000003
 41
0.833333
  7
STANDARD
100
AcDbText
  0
ENDBLK
  5
B4
100
AcDbEntity
  8
DD0
100
AcDbBlockEnd
  0
BLOCK
  5
B7
100
AcDbEntity
  8
DD0
100
AcDbBlockBegin
  2
DIMS11
 70
     0
 10
0.0
 20
0.0
  0
LINE
  5
B8
100
AcDbEntity
  8
DD0
100
AcDbLine
 10
106.801399
 20
164.906555
 11
167.901398
 21
164.906555
  0
LINE
  5
B9
100
AcDbEntity
  8
DD0
100
AcDbLine
 10
106.801399
 20
222.106567
 11
167.901398
 21
222.106567
  0
INSERT
  5
BA
100
AcDbEntity
  8
DD0
100
AcDbBlockReference
  2
_OPEN
 10
166.401398
 20
222.106567
 41
3.0
 42
3.0
 50
90.0
  0
INSERT
  5
BB
100
AcDbEntity
  8
DD0
100
AcDbBlockReference
  2
_OPEN
 10
166.401398
 20
164.906555
 41
3.0
 42
3.0
 50
270.0
  0
LINE
  5
BC
100
AcDbEntity
  8
DD0
100
AcDbLine
 10
166.401398
 20
167.906555
 11
166.401398
 21
219.106567
  0
TEXT
  5
BD
100
AcDbEntity
  8
DD0
100
AcDbText
 10
165.401398
 20
188.548228
 40
3.5
  1
２８２
 50
90.000003
 41
0.833333
  7
STANDARD
100
AcDbText
  0
ENDBLK
  5
BE
100
AcDbEntity
  8
DD0
100
AcDbBlockEnd
  0
BLOCK
  5
C1
100
AcDbEntity
  8
DD0
100
AcDbBlockBegin
  2
DIMS12
 70
     0
 10
0.0
 20
0.0
  0
LINE
  5
C2
100
AcDbEntity
  8
DD0
100
AcDbLine
 10
98.201401
 20
160.664474
 11
98.201401
 21
155.406555
  0
LINE
  5
C3
100
AcDbEntity
  8
DD0
100
AcDbLine
 10
106.801399
 20
160.664474
 11
106.801399
 21
155.406555
  0
INSERT
  5
C4
100
AcDbEntity
  8
DD0
100
AcDbBlockReference
  2
_OPEN
 10
106.801399
 20
156.906555
 41
3.0
 42
3.0
  0
INSERT
  5
C5
100
AcDbEntity
  8
DD0
100
AcDbBlockReference
  2
_OPEN
 10
98.201401
 20
156.906555
 41
3.0
 42
3.0
 50
180.0
  0
LINE
  5
C6
100
AcDbEntity
  8
DD0
100
AcDbLine
 10
101.201401
 20
156.906555
 11
103.801399
 21
156.906555
  0
TEXT
  5
C7
100
AcDbEntity
  8
DD0
100
AcDbText
 10
99.29307
 20
157.906555
 40
3.5
  1
４３
 41
0.833333
  7
STANDARD
100
AcDbText
  0
ENDBLK
  5
C8
100
AcDbEntity
  8
DD0
100
AcDbBlockEnd
  0
BLOCK
  5
CB
100
AcDbEntity
  8
DD0
100
AcDbBlockBegin
  2
DIMS13
 70
     0
 10
0.0
 20
0.0
  0
LINE
  5
CC
100
AcDbEntity
  8
DD0
100
AcDbLine
 10
106.801399
 20
160.664474
 11
106.801399
 21
155.406555
  0
LINE
  5
CD
100
AcDbEntity
  8
DD0
100
AcDbLine
 10
131.801407
 20
166.37323
 11
131.801407
 21
155.406555
  0
INSERT
  5
CE
100
AcDbEntity
  8
DD0
100
AcDbBlockReference
  2
_OPEN
 10
131.801407
 20
156.906555
 41
3.0
 42
3.0
  0
INSERT
  5
CF
100
AcDbEntity
  8
DD0
100
AcDbBlockReference
  2
_OPEN
 10
106.801399
 20
156.906555
 41
3.0
 42
3.0
 50
180.0
  0
LINE
  5
D0
100
AcDbEntity
  8
DD0
100
AcDbLine
 10
109.801399
 20
156.906555
 11
128.801407
 21
156.906555
  0
TEXT
  5
D1
100
AcDbEntity
  8
DD0
100
AcDbText
 10
114.343074
 20
157.906555
 40
3.5
  1
１２５
 41
0.833333
  7
STANDARD
100
AcDbText
  0
ENDBLK
  5
D2
100
AcDbEntity
  8
DD0
100
AcDbBlockEnd
  0
BLOCK
  5
D5
100
AcDbEntity
  8
DD0
100
AcDbBlockBegin
  2
DIMS14
 70
     0
 10
0.0
 20
0.0
  0
LINE
  5
D6
100
AcDbEntity
  8
DD0
100
AcDbLine
 10
188.857986
 20
78.851265
 11
179.257996
 21
78.851265
  0
LINE
  5
D7
100
AcDbEntity
  8
DD0
100
AcDbLine
 10
188.357986
 20
69.851265
 11
179.257996
 21
69.851265
  0
INSERT
  5
D8
100
AcDbEntity
  8
DD0
100
AcDbBlockReference
  2
_OPEN
 10
180.757996
 20
69.851265
 41
3.0
 42
3.0
 50
270.0
  0
INSERT
  5
D9
100
AcDbEntity
  8
DD0
100
AcDbBlockReference
  2
_OPEN
 10
180.757996
 20
78.851265
 41
3.0
 42
3.0
 50
90.0
  0
LINE
  5
DA
100
AcDbEntity
  8
DD0
100
AcDbLine
 10
180.757996
 20
75.851265
 11
180.757996
 21
72.851265
  0
TEXT
  5
DB
100
AcDbEntity
  8
DD0
100
AcDbText
 10
179.757996
 20
71.142932
 40
3.5
  1
４５
 50
90.000003
 41
0.833333
  7
STANDARD
100
AcDbText
  0
ENDBLK
  5
DC
100
AcDbEntity
  8
DD0
100
AcDbBlockEnd
  0
BLOCK
  5
DF
100
AcDbEntity
  8
DD0
100
AcDbBlockBegin
  2
DIMS15
 70
     0
 10
0.0
 20
0.0
  0
LINE
  5
E0
100
AcDbEntity
  8
DD0
100
AcDbLine
 10
73.001396
 20
176.206558
 11
73.001396
 21
147.406555
  0
LINE
  5
E1
100
AcDbEntity
  8
DD0
100
AcDbLine
 10
106.801399
 20
160.664474
 11
106.801399
 21
147.406555
  0
INSERT
  5
E2
100
AcDbEntity
  8
DD0
100
AcDbBlockReference
  2
_OPEN
 10
106.801399
 20
148.906555
 41
3.0
 42
3.0
  0
INSERT
  5
E3
100
AcDbEntity
  8
DD0
100
AcDbBlockReference
  2
_OPEN
 10
73.001396
 20
148.906555
 41
3.0
 42
3.0
 50
180.0
  0
LINE
  5
E4
100
AcDbEntity
  8
DD0
100
AcDbLine
 10
76.001396
 20
148.906555
 11
103.801399
 21
148.906555
  0
TEXT
  5
E5
100
AcDbEntity
  8
DD0
100
AcDbText
 10
84.943064
 20
149.906555
 40
3.5
  1
１６９
 41
0.833333
  7
STANDARD
100
AcDbText
  0
ENDBLK
  5
E6
100
AcDbEntity
  8
DD0
100
AcDbBlockEnd
  0
BLOCK
  5
E9
100
AcDbEntity
  8
DD0
100
AcDbBlockBegin
  2
DIMS16
 70
     0
 10
0.0
 20
0.0
  0
LINE
  5
EA
100
AcDbEntity
  8
DD0
100
AcDbLine
 10
106.801399
 20
160.664474
 11
106.801399
 21
147.406555
  0
LINE
  5
EB
100
AcDbEntity
  8
DD0
100
AcDbLine
 10
141.801407
 20
176.206558
 11
141.801407
 21
147.406555
  0
INSERT
  5
EC
100
AcDbEntity
  8
DD0
100
AcDbBlockReference
  2
_OPEN
 10
141.801407
 20
148.906555
 41
3.0
 42
3.0
  0
INSERT
  5
ED
100
AcDbEntity
  8
DD0
100
AcDbBlockReference
  2
_OPEN
 10
106.801399
 20
148.906555
 41
3.0
 42
3.0
 50
180.0
  0
LINE
  5
EE
100
AcDbEntity
  8
DD0
100
AcDbLine
 10
109.801399
 20
148.906555
 11
138.801407
 21
148.906555
  0
TEXT
  5
EF
100
AcDbEntity
  8
DD0
100
AcDbText
 10
119.343074
 20
149.906555
 40
3.5
  1
１７５
 41
0.833333
  7
STANDARD
100
AcDbText
  0
ENDBLK
  5
F0
100
AcDbEntity
  8
DD0
100
AcDbBlockEnd
  0
ENDSEC
  0
SECTION
  2
ENTITIES
  0
INSERT
  5
52
100
AcDbEntity
  8
DD0
100
AcDbBlockReference
  2
DIMS0
 10
0.0
 20
0.0
  0
INSERT
  5
5C
100
AcDbEntity
  8
DD0
100
AcDbBlockReference
  2
DIMS1
 10
0.0
 20
0.0
  0
INSERT
  5
66
100
AcDbEntity
  8
DD0
100
AcDbBlockReference
  2
DIMS2
 10
0.0
 20
0.0
  0
INSERT
  5
70
100
AcDbEntity
  8
DD0
100
AcDbBlockReference
  2
DIMS3
 10
0.0
 20
0.0
  0
INSERT
  5
7A
100
AcDbEntity
  8
DD0
100
AcDbBlockReference
  2
DIMS4
 10
0.0
 20
0.0
  0
INSERT
  5
84
100
AcDbEntity
  8
DD0
100
AcDbBlockReference
  2
DIMS5
 10
0.0
 20
0.0
  0
INSERT
  5
8E
100
AcDbEntity
  8
DD0
100
AcDbBlockReference
  2
DIMS6
 10
0.0
 20
0.0
  0
INSERT
  5
98
100
AcDbEntity
  8
DD0
100
AcDbBlockReference
  2
DIMS7
 10
0.0
 20
0.0
  0
INSERT
  5
A2
100
AcDbEntity
  8
DD0
100
AcDbBlockReference
  2
DIMS8
 10
0.0
 20
0.0
  0
INSERT
  5
AC
100
AcDbEntity
  8
DD0
100
AcDbBlockReference
  2
DIMS9
 10
0.0
 20
0.0
  0
INSERT
  5
B5
100
AcDbEntity
  8
DD0
100
AcDbBlockReference
  2
DIMS10
 10
0.0
 20
0.0
  0
INSERT
  5
BF
100
AcDbEntity
  8
DD0
100
AcDbBlockReference
  2
DIMS11
 10
0.0
 20
0.0
  0
INSERT
  5
C9
100
AcDbEntity
  8
DD0
100
AcDbBlockReference
  2
DIMS12
 10
0.0
 20
0.0
  0
INSERT
  5
D3
100
AcDbEntity
  8
DD0
100
AcDbBlockReference
  2
DIMS13
 10
0.0
 20
0.0
  0
INSERT
  5
DD
100
AcDbEntity
  8
DD0
100
AcDbBlockReference
  2
DIMS14
 10
0.0
 20
0.0
  0
INSERT
  5
E7
100
AcDbEntity
  8
DD0
100
AcDbBlockReference
  2
DIMS15
 10
0.0
 20
0.0
  0
INSERT
  5
F1
100
AcDbEntity
  8
DD0
100
AcDbBlockReference
  2
DIMS16
 10
0.0
 20
0.0
  0
LEADER
  5
F2
100
AcDbEntity
  8
DD0
100
AcDbLeader
  3
LEADSTYL
 76
     3
 10
132.787735
 20
168.223083
 10
150.161209
 20
149.886871
 10
201.161209
 20
149.886871
340
F3
 77
     4
  0
TEXT
  5
F3
100
AcDbEntity
  8
DD0
100
AcDbText
 10
151.452876
 20
150.886871
 40
3.5
  1
ベース固定用穴（２－φ１２）
 41
0.833333
  7
STANDARD
100
AcDbText
  0
LEADER
  5
F4
100
AcDbEntity
  8
DD0
100
AcDbLeader
  3
LEADSTYL
 76
     3
 10
127.226715
 20
219.906555
 10
155.363678
 20
239.25209
 10
192.363678
 20
239.25209
340
F5
 77
     4
  0
TEXT
  5
F5
100
AcDbEntity
  8
DD0
100
AcDbText
 10
156.655345
 20
240.25209
 40
3.5
  1
　　　吐出口
 41
0.833333
  7
STANDARD
100
AcDbText
  0
TEXT
  5
F6
100
AcDbEntity
  8
DD0
100
AcDbText
 10
156.655345
 20
234.75209
 40
3.5
  1
ヨビフランジ（Ｐ）付
 41
0.833333
  7
STANDARD
100
AcDbText
  0
LEADER
  5
F7
100
AcDbEntity
  8
DD0
100
AcDbLeader
  3
LEADSTYL
 76
     3
 10
141.801407
 20
85.992668
 10
160.612595
 20
94.77887
 10
184.712601
 20
94.77887
340
F8
 77
     4
  0
TEXT
  5
F8
100
AcDbEntity
  8
DD0
100
AcDbText
 10
161.904261
 20
95.77887
 40
3.5
  1
吐出口Ｇ
 41
0.833333
  7
STANDARD
100
AcDbText
  0
TEXT
  5
F9
100
AcDbEntity
  8
DD0
100
AcDbText
 10
175.687598
 20
97.878868
 40
2.1
  1
３
 41
0.833333
  7
STANDARD
100
AcDbText
  0
TEXT
  5
FA
100
AcDbEntity
  8
DD0
100
AcDbText
 10
178.004267
 20
95.77887
 40
3.5
  1
／
 41
0.833333
  7
STANDARD
100
AcDbText
  0
TEXT
  5
FB
100
AcDbEntity
  8
DD0
100
AcDbText
 10
181.287604
 20
95.078873
 40
2.1
  1
４
 41
0.833333
  7
STANDARD
100
AcDbText
  0
LEADER
  5
FC
100
AcDbEntity
  8
DD0
100
AcDbLeader
  3
LEADSTYL
 76
     3
 10
73.001396
 20
86.006096
 10
58.496601
 20
99.669106
 10
34.396603
 20
99.669106
340
FD
 77
     4
  0
TEXT
  5
FD
100
AcDbEntity
  8
DD0
100
AcDbText
 10
35.688269
 20
100.669106
 40
3.5
  1
吸込口Ｇ
 41
0.833333
  7
STANDARD
100
AcDbText
  0
TEXT
  5
FE
100
AcDbEntity
  8
DD0
100
AcDbText
 10
49.471602
 20
102.769104
 40
2.1
  1
３
 41
0.833333
  7
STANDARD
100
AcDbText
  0
TEXT
  5
FF
100
AcDbEntity
  8
DD0
100
AcDbText
 10
51.788268
 20
100.669106
 40
3.5
  1
／
 41
0.833333
  7
STANDARD
100
AcDbText
  0
TEXT
  5
100
100
AcDbEntity
  8
DD0
100
AcDbText
 10
55.0716
 20
99.969109
 40
2.1
  1
４
 41
0.833333
  7
STANDARD
100
AcDbText
  0
LEADER
  5
101
100
AcDbEntity
  8
DD0
100
AcDbLeader
  3
LEADSTYL
 76
     3
 10
334.15863
 20
116.16996
 10
358.334045
 20
132.926086
 10
391.834045
 20
132.926086
340
102
 77
     4
  0
TEXT
  5
102
100
AcDbEntity
  8
DD0
100
AcDbText
 10
359.625712
 20
133.926086
 40
3.5
  1
基準吸込揚程３ｍ時
 41
0.833333
  7
STANDARD
100
AcDbText
  0
LEADER
  5
103
100
AcDbEntity
  8
DD0
100
AcDbLeader
  3
LEADSTYL
 76
     3
 10
326.276764
 20
120.658295
 10
358.74353
 20
145.873337
 10
392.24353
 20
145.873337
340
104
 77
     4
  0
TEXT
  5
104
100
AcDbEntity
  8
DD0
100
AcDbText
 10
360.035197
 20
146.873337
 40
3.5
  1
基準吸込揚程８ｍ時
 41
0.833333
  7
STANDARD
100
AcDbText
  0
LINE
  5
105
100
AcDbEntity
  8
M0
 62
   114
100
AcDbLine
 10
188.857989
 20
78.851269
 11
245.857989
 21
78.851269
  0
LINE
  5
106
100
AcDbEntity
  8
M0
 62
   114
100
AcDbLine
 10
195.357989
 20
132.851269
 11
239.357989
 21
132.851269
  0
LINE
  5
107
100
AcDbEntity
  8
M0
  6
DASHDOT
 62
   114
100
AcDbLine
 10
217.357989
 20
136.135619
 11
217.357989
 21
65.999896
  0
LINE
  5
108
100
AcDbEntity
  8
M0
 62
   114
100
AcDbLine
 10
190.057989
 20
78.851269
 11
190.057989
 21
130.196706
  0
LINE
  5
109
100
AcDbEntity
  8
M0
 62
   114
100
AcDbLine
 10
188.857989
 20
129.790552
 11
188.857989
 21
78.851269
  0
LINE
  5
10A
100
AcDbEntity
  8
M0
 62
   114
100
AcDbLine
 10
195.357989
 20
132.851269
 11
189.673274
 21
130.927211
  0
ARC
  5
10B
100
AcDbEntity
  8
M0
 62
   114
100
AcDbCircle
 10
190.057989
 20
129.790552
 40
1.2
100
AcDbArc
 50
108.698983
 51
180.0
  0
ARC
  5
10C
100
AcDbEntity
  8
M0
 62
   114
100
AcDbCircle
 10
191.257989
 20
130.196706
 40
1.2
100
AcDbArc
 50
108.698983
 51
180.0
  0
LINE
  5
10D
100
AcDbEntity
  8
M0
 62
   114
100
AcDbLine
 10
244.657989
 20
78.851269
 11
244.657989
 21
130.196706
  0
LINE
  5
10E
100
AcDbEntity
  8
M0
 62
   114
100
AcDbLine
 10
245.857989
 20
129.790552
 11
245.857989
 21
78.851269
  0
LINE
  5
10F
100
AcDbEntity
  8
M0
 62
   114
100
AcDbLine
 10
239.357989
 20
132.851269
 11
245.042704
 21
130.927211
  0
ARC
  5
110
100
AcDbEntity
  8
M0
 62
   114
100
AcDbCircle
 10
243.457989
 20
130.196706
 40
1.2
100
AcDbArc
 50
0.0
 51
71.301017
  0
ARC
  5
111
100
AcDbEntity
  8
M0
 62
   114
100
AcDbCircle
 10
244.657989
 20
129.790552
 40
1.2
100
AcDbArc
 50
0.0
 51
71.301017
  0
LINE
  5
112
100
AcDbEntity
  8
M0
  6
DASHDOT
 62
   114
100
AcDbLine
 10
203.657989
 20
79.87501
 11
203.657989
 21
90.922305
  0
LINE
  5
113
100
AcDbEntity
  8
M0
 62
   114
100
AcDbLine
 10
197.457989
 20
91.851269
 11
209.857989
 21
91.851269
  0
LINE
  5
114
100
AcDbEntity
  8
M0
 62
   114
100
AcDbLine
 10
194.457989
 20
88.851269
 11
194.457989
 21
79.451269
  0
ARC
  5
115
100
AcDbEntity
  8
M0
 62
   114
100
AcDbCircle
 10
197.457989
 20
88.851269
 40
3.0
100
AcDbArc
 50
90.0
 51
180.0
  0
ARC
  5
116
100
AcDbEntity
  8
M0
 62
   114
100
AcDbCircle
 10
193.857989
 20
79.451269
 40
0.6
100
AcDbArc
 50
270.0
 51
360.0
  0
ARC
  5
117
100
AcDbEntity
  8
M0
 62
   114
100
AcDbCircle
 10
213.457989
 20
79.451269
 40
0.6
100
AcDbArc
 50
180.0
 51
270.0
  0
LINE
  5
118
100
AcDbEntity
  8
M0
 62
   114
100
AcDbLine
 10
212.857989
 20
88.851269
 11
212.857989
 21
79.451269
  0
ARC
  5
119
100
AcDbEntity
  8
M0
 62
   114
100
AcDbCircle
 10
209.857989
 20
88.851269
 40
3.0
100
AcDbArc
 50
0.0
 51
90.0
  0
LINE
  5
11A
100
AcDbEntity
  8
M0
  6
DASHDOT
 62
   114
100
AcDbLine
 10
228.257989
 20
76.93375
 11
228.257989
 21
91.819412
  0
LINE
  5
11B
100
AcDbEntity
  8
M0
 62
   114
100
AcDbLine
 10
230.557989
 20
90.451269
 11
225.957989
 21
90.451269
  0
LINE
  5
11C
100
AcDbEntity
  8
M0
 62
   114
100
AcDbLine
 10
232.557989
 20
79.851269
 11
232.557989
 21
88.451269
  0
ARC
  5
11D
100
AcDbEntity
  8
M0
 62
   114
100
AcDbCircle
 10
230.557989
 20
88.451269
 40
2.0
100
AcDbArc
 50
0.0
 51
90.0
  0
ARC
  5
11E
100
AcDbEntity
  8
M0
 62
   114
100
AcDbCircle
 10
233.557989
 20
79.851269
 40
1.0
100
AcDbArc
 50
180.0
 51
270.0
  0
ARC
  5
11F
100
AcDbEntity
  8
M0
 62
   114
100
AcDbCircle
 10
225.957989
 20
88.451269
 40
2.0
100
AcDbArc
 50
90.0
 51
180.0
  0
LINE
  5
120
100
AcDbEntity
  8
M0
 62
   114
100
AcDbLine
 10
223.957989
 20
79.851269
 11
223.957989
 21
88.451269
  0
ARC
  5
121
100
AcDbEntity
  8
M0
 62
   114
100
AcDbCircle
 10
222.957989
 20
79.851269
 40
1.0
100
AcDbArc
 50
-90.0
 51
0.0
  0
LINE
  5
122
100
AcDbEntity
  8
M0
 62
     1
100
AcDbLine
 10
139.0014
 20
70.651269
 11
139.0014
 21
78.451269
  0
LINE
  5
123
100
AcDbEntity
  8
M0
 62
     1
100
AcDbLine
 10
138.6014
 20
78.851269
 11
75.0014
 21
78.851269
  0
LINE
  5
124
100
AcDbEntity
  8
M0
 62
     1
100
AcDbLine
 10
74.2014
 20
69.851269
 11
139.4014
 21
69.851269
  0
ARC
  5
125
100
AcDbEntity
  8
M0
 62
     1
100
AcDbCircle
 10
138.6014
 20
78.451269
 40
0.4
100
AcDbArc
 50
0.0
 51
90.0
  0
LINE
  5
126
100
AcDbEntity
  8
M0
 62
     1
100
AcDbLine
 10
139.4014
 20
70.251269
 11
74.2014
 21
70.251269
  0
LINE
  5
127
100
AcDbEntity
  8
M0
 62
     1
100
AcDbLine
 10
139.4014
 20
69.851269
 11
139.4014
 21
70.251269
  0
ARC
  5
128
100
AcDbEntity
  8
M0
 62
     1
100
AcDbCircle
 10
139.4014
 20
70.651269
 40
0.4
100
AcDbArc
 50
180.0
 51
270.0
  0
LINE
  5
129
100
AcDbEntity
  8
M0
 62
     1
100
AcDbLine
 10
74.2014
 20
69.851269
 11
74.2014
 21
70.251269
  0
ARC
  5
12A
100
AcDbEntity
  8
M0
 62
     1
100
AcDbCircle
 10
75.0014
 20
78.451269
 40
0.4
100
AcDbArc
 50
90.0
 51
180.0
  0
LINE
  5
12B
100
AcDbEntity
  8
M0
 62
     1
100
AcDbLine
 10
74.6014
 20
70.651269
 11
74.6014
 21
78.451269
  0
ARC
  5
12C
100
AcDbEntity
  8
M0
 62
     1
100
AcDbCircle
 10
74.2014
 20
70.651269
 40
0.4
100
AcDbArc
 50
-90.0
 51
0.0
  0
LINE
  5
12D
100
AcDbEntity
  8
M0
 62
     1
100
AcDbLine
 10
188.357989
 20
69.851269
 11
246.357989
 21
69.851269
  0
LINE
  5
12E
100
AcDbEntity
  8
M0
 62
     1
100
AcDbLine
 10
188.357989
 20
70.251269
 11
246.357989
 21
70.251269
  0
LINE
  5
12F
100
AcDbEntity
  8
M0
 62
     1
100
AcDbLine
 10
189.157989
 20
78.851269
 11
245.557989
 21
78.851269
  0
LINE
  5
130
100
AcDbEntity
  8
M0
 62
     1
100
AcDbLine
 10
188.757989
 20
70.651269
 11
188.757989
 21
78.451269
  0
ARC
  5
131
100
AcDbEntity
  8
M0
 62
     1
100
AcDbCircle
 10
189.157989
 20
78.451269
 40
0.4
100
AcDbArc
 50
90.0
 51
180.0
  0
LINE
  5
132
100
AcDbEntity
  8
M0
 62
     1
100
AcDbLine
 10
188.357989
 20
70.251269
 11
188.357989
 21
69.851269
  0
ARC
  5
133
100
AcDbEntity
  8
M0
 62
     1
100
AcDbCircle
 10
188.357989
 20
70.651269
 40
0.4
100
AcDbArc
 50
270.0
 51
360.0
  0
LINE
  5
134
100
AcDbEntity
  8
M0
 62
     1
100
AcDbLine
 10
245.957989
 20
70.651269
 11
245.957989
 21
78.451269
  0
ARC
  5
135
100
AcDbEntity
  8
M0
 62
     1
100
AcDbCircle
 10
245.557989
 20
78.451269
 40
0.4
100
AcDbArc
 50
0.0
 51
90.0
  0
ARC
  5
136
100
AcDbEntity
  8
M0
 62
     1
100
AcDbCircle
 10
246.357989
 20
70.651269
 40
0.4
100
AcDbArc
 50
180.0
 51
270.0
  0
LINE
  5
137
100
AcDbEntity
  8
M0
 62
     1
100
AcDbLine
 10
246.357989
 20
70.251269
 11
246.357989
 21
69.851269
  0
LINE
  5
138
100
AcDbEntity
  8
M0
 62
   114
100
AcDbLine
 10
138.8014
 20
78.851269
 11
138.8014
 21
131.651269
  0
LINE
  5
139
100
AcDbEntity
  8
M0
 62
   114
100
AcDbLine
 10
137.6014
 20
132.851269
 11
76.0014
 21
132.851269
  0
LINE
  5
13A
100
AcDbEntity
  8
M0
 62
   114
100
AcDbLine
 10
74.8014
 20
131.651269
 11
74.8014
 21
78.851269
  0
LINE
  5
13B
100
AcDbEntity
  8
M0
  6
DASHDOT
 62
   114
100
AcDbLine
 10
106.8014
 20
67.406269
 11
106.8014
 21
135.545196
  0
LINE
  5
13C
100
AcDbEntity
  8
M0
 62
   114
100
AcDbLine
 10
133.908163
 20
130.651269
 11
79.694637
 21
130.651269
  0
ARC
  5
13D
100
AcDbEntity
  8
M0
 62
   114
100
AcDbCircle
 10
76.0014
 20
131.651269
 40
1.2
100
AcDbArc
 50
90.0
 51
180.0
  0
ARC
  5
13E
100
AcDbEntity
  8
M0
 62
   114
100
AcDbCircle
 10
137.6014
 20
131.651269
 40
1.2
100
AcDbArc
 50
0.0
 51
90.0
  0
ARC
  5
13F
100
AcDbEntity
  8
M0
 62
   114
100
AcDbCircle
 10
79.694637
 20
134.851269
 40
4.2
100
AcDbArc
 50
221.976981
 51
270.0
  0
ARC
  5
140
100
AcDbEntity
  8
M0
 62
   114
100
AcDbCircle
 10
133.908163
 20
134.851269
 40
4.2
100
AcDbArc
 50
270.0
 51
318.023019
  0
LINE
  5
141
100
AcDbEntity
  8
M0
 62
   114
100
AcDbLine
 10
74.8014
 20
78.851269
 11
138.8014
 21
78.851269
  0
LINE
  5
142
100
AcDbEntity
  8
M0
  6
DASHDOT
100
AcDbLine
 10
-346.072091
 20
-228.158005
 11
458.194576
 21
-228.158005
  0
ARC
  5
143
100
AcDbEntity
  8
M0
 62
     1
100
AcDbCircle
 10
-261.7986
 20
193.506562
 40
400.8
100
AcDbArc
 50
356.634403
 51
363.365597
  0
ARC
  5
144
100
AcDbEntity
  8
M0
 62
     1
100
AcDbCircle
 10
-261.7986
 20
193.506562
 40
400.4
100
AcDbArc
 50
356.634403
 51
363.365597
  0
ARC
  5
145
100
AcDbEntity
  8
M0
 62
     1
100
AcDbCircle
 10
133.917712
 20
216.778009
 40
4.4
100
AcDbArc
 50
3.365597
 51
86.077537
  0
ARC
  5
146
100
AcDbEntity
  8
M0
 62
     1
100
AcDbCircle
 10
133.917712
 20
216.778009
 40
4.0
100
AcDbArc
 50
3.365597
 51
86.077537
  0
ARC
  5
147
100
AcDbEntity
  8
M0
 62
     1
100
AcDbCircle
 10
133.917712
 20
170.235114
 40
4.0
100
AcDbArc
 50
273.922463
 51
356.634403
  0
ARC
  5
148
100
AcDbEntity
  8
M0
 62
     1
100
AcDbCircle
 10
133.917712
 20
170.235114
 40
4.4
100
AcDbArc
 50
273.922463
 51
356.634403
  0
ARC
  5
149
100
AcDbEntity
  8
M0
 62
     1
100
AcDbCircle
 10
475.4014
 20
193.506562
 40
400.4
100
AcDbArc
 50
176.634403
 51
183.365597
  0
ARC
  5
14A
100
AcDbEntity
  8
M0
 62
     1
100
AcDbCircle
 10
475.4014
 20
193.506562
 40
400.8
100
AcDbArc
 50
176.634403
 51
183.365597
  0
ARC
  5
14B
100
AcDbEntity
  8
M0
 62
     1
100
AcDbCircle
 10
79.685087
 20
170.235114
 40
4.4
100
AcDbArc
 50
183.365597
 51
266.077537
  0
ARC
  5
14C
100
AcDbEntity
  8
M0
 62
     1
100
AcDbCircle
 10
79.685087
 20
170.235114
 40
4.0
100
AcDbArc
 50
183.365597
 51
266.077537
  0
ARC
  5
14D
100
AcDbEntity
  8
M0
 62
     1
100
AcDbCircle
 10
79.685087
 20
216.778009
 40
4.0
100
AcDbArc
 50
93.922463
 51
176.634403
  0
ARC
  5
14E
100
AcDbEntity
  8
M0
 62
     1
100
AcDbCircle
 10
79.685087
 20
216.778009
 40
4.4
100
AcDbArc
 50
93.922463
 51
176.634403
  0
LINE
  5
14F
100
AcDbEntity
  8
M0
  6
DASHDOT
 62
     1
100
AcDbLine
 10
72.113736
 20
193.506562
 11
143.52231
 21
193.506562
  0
LINE
  5
150
100
AcDbEntity
  8
M0
  6
DASHDOT
 62
     1
100
AcDbLine
 10
106.8014
 20
224.723972
 11
106.8014
 21
160.664479
  0
ARC
  5
151
100
AcDbEntity
  8
M0
 62
     1
100
AcDbCircle
 10
106.8014
 20
-178.693438
 40
400.8
100
AcDbArc
 50
86.077537
 51
93.922463
  0
ARC
  5
152
100
AcDbEntity
  8
M0
 62
     1
100
AcDbCircle
 10
106.8014
 20
-178.693438
 40
400.4
100
AcDbArc
 50
86.077537
 51
93.922463
  0
ARC
  5
153
100
AcDbEntity
  8
M0
 62
     1
100
AcDbCircle
 10
106.8014
 20
565.706562
 40
400.4
100
AcDbArc
 50
266.077537
 51
273.922463
  0
ARC
  5
154
100
AcDbEntity
  8
M0
 62
     1
100
AcDbCircle
 10
106.8014
 20
565.706562
 40
400.8
100
AcDbArc
 50
266.077537
 51
273.922463
  0
CIRCLE
  5
155
100
AcDbEntity
  8
M0
 62
     1
100
AcDbCircle
 10
131.8014
 20
168.906562
 40
1.2
  0
CIRCLE
  5
156
100
AcDbEntity
  8
M0
 62
     1
100
AcDbCircle
 10
81.8014
 20
218.106562
 40
1.2
  0
LINE
  5
157
100
AcDbEntity
  8
M0
  6
DASHDOT
 62
     1
100
AcDbLine
 10
129.268066
 20
168.906562
 11
134.334733
 21
168.906562
  0
LINE
  5
158
100
AcDbEntity
  8
M0
  6
DASHDOT
 62
     1
100
AcDbLine
 10
131.8014
 20
166.373228
 11
131.8014
 21
171.439895
  0
LINE
  5
159
100
AcDbEntity
  8
M0
  6
DASHDOT
 62
     1
100
AcDbLine
 10
79.268066
 20
218.106562
 11
84.334733
 21
218.106562
  0
LINE
  5
15A
100
AcDbEntity
  8
M0
  6
DASHDOT
 62
     1
100
AcDbLine
 10
81.8014
 20
215.573228
 11
81.8014
 21
220.639895
  0
LINE
  5
15B
100
AcDbEntity
  8
M0
  6
DASHDOT
 62
     1
100
AcDbLine
 10
98.2014
 20
160.664479
 11
98.2014
 21
211.708005
  0
LINE
  5
15C
100
AcDbEntity
  8
M0
  6
DASHDOT
 62
     7
100
AcDbLine
 10
194.256474
 20
85.851269
 11
213.015593
 21
85.851269
  0
CIRCLE
  5
15D
100
AcDbEntity
  8
M0
 62
     7
100
AcDbCircle
 10
203.657989
 20
85.851269
 40
3.325
  0
ARC
  5
15E
100
AcDbEntity
  8
M0
 62
     7
100
AcDbCircle
 10
203.657989
 20
85.851269
 40
4.2
100
AcDbArc
 50
67.917587
 51
112.082413
  0
ARC
  5
15F
100
AcDbEntity
  8
M0
 62
     7
100
AcDbCircle
 10
203.657989
 20
85.851269
 40
4.2
100
AcDbArc
 50
247.917587
 51
292.082413
  0
LINE
  5
160
100
AcDbEntity
  8
M0
 62
     7
100
AcDbLine
 10
210.744688
 20
87.729684
 11
205.236936
 21
89.743174
  0
LINE
  5
161
100
AcDbEntity
  8
M0
 62
     7
100
AcDbLine
 10
210.744688
 20
83.972853
 11
205.236936
 21
81.959364
  0
ARC
  5
162
100
AcDbEntity
  8
M0
 62
     7
100
AcDbCircle
 10
210.057989
 20
85.851269
 40
2.0
100
AcDbArc
 50
290.081088
 51
429.918912
  0
ARC
  5
163
100
AcDbEntity
  8
M0
 62
     7
100
AcDbCircle
 10
197.257989
 20
85.851269
 40
2.0
100
AcDbArc
 50
110.081088
 51
249.918912
  0
LINE
  5
164
100
AcDbEntity
  8
M0
 62
     7
100
AcDbLine
 10
196.57129
 20
83.972853
 11
202.079042
 21
81.959364
  0
LINE
  5
165
100
AcDbEntity
  8
M0
 62
     7
100
AcDbLine
 10
196.57129
 20
87.729684
 11
202.079042
 21
89.743174
  0
CIRCLE
  5
166
100
AcDbEntity
  8
M0
 62
     7
100
AcDbCircle
 10
203.657989
 20
85.851269
 40
3.4
  0
CIRCLE
  5
167
100
AcDbEntity
  8
M0
 62
     7
100
AcDbCircle
 10
203.657989
 20
85.851269
 40
3.9
  0
LINE
  5
168
100
AcDbEntity
  8
M0
  6
DASHDOT
 62
     7
100
AcDbLine
 10
126.8014
 20
214.506562
 11
126.8014
 21
220.906562
  0
LINE
  5
169
100
AcDbEntity
  8
M0
  6
DASHED
 62
     7
100
AcDbLine
 10
130.7014
 20
219.706562
 11
130.7014
 21
217.106562
  0
LINE
  5
16A
100
AcDbEntity
  8
M0
  6
DASHED
 62
     7
100
AcDbLine
 10
122.9014
 20
219.706562
 11
122.9014
 21
217.106562
  0
LINE
  5
16B
100
AcDbEntity
  8
M0
  6
DASHED
 62
     7
100
AcDbLine
 10
130.5014
 20
219.906562
 11
123.1014
 21
219.906562
  0
LINE
  5
16C
100
AcDbEntity
  8
M0
  6
DASHDOT
 62
     7
100
AcDbLine
 10
133.2514
 20
217.46642
 11
133.2514
 21
214.635312
  0
LINE
  5
16D
100
AcDbEntity
  8
M0
  6
DASHDOT
 62
     7
100
AcDbLine
 10
120.3514
 20
217.46642
 11
120.3514
 21
214.635312
  0
LINE
  5
16E
100
AcDbEntity
  8
M0
  6
DASHED
 62
     7
100
AcDbLine
 10
122.5014
 20
216.706562
 11
118.6014
 21
216.706562
  0
LINE
  5
16F
100
AcDbEntity
  8
M0
  6
DASHED
 62
     7
100
AcDbLine
 10
118.2014
 20
216.306562
 11
118.2014
 21
216.206562
  0
ARC
  5
170
100
AcDbEntity
  8
M0
  6
DASHED
 62
     7
100
AcDbCircle
 10
118.6014
 20
216.306562
 40
0.4
100
AcDbArc
 50
90.0
 51
180.0
  0
LINE
  5
171
100
AcDbEntity
  8
M0
  6
DASHED
 62
     7
100
AcDbLine
 10
119.0014
 20
215.506562
 11
134.6014
 21
215.506562
  0
LINE
  5
172
100
AcDbEntity
  8
M0
  6
DASHED
 62
     7
100
AcDbLine
 10
135.4014
 20
216.206562
 11
135.4014
 21
216.306562
  0
LINE
  5
173
100
AcDbEntity
  8
M0
  6
DASHED
 62
     7
100
AcDbLine
 10
135.0014
 20
216.706562
 11
122.5014
 21
216.706562
  0
ARC
  5
174
100
AcDbEntity
  8
M0
  6
DASHED
 62
     7
100
AcDbCircle
 10
135.0014
 20
216.306562
 40
0.4
100
AcDbArc
 50
0.0
 51
90.0
  0
LINE
  5
175
100
AcDbEntity
  8
M0
  6
DASHED
 62
     7
100
AcDbLine
 10
118.2014
 20
216.206562
 11
119.0014
 21
216.206562
  0
LINE
  5
176
100
AcDbEntity
  8
M0
  6
DASHED
 62
     7
100
AcDbLine
 10
119.0014
 20
216.206562
 11
119.0014
 21
215.506562
  0
LINE
  5
177
100
AcDbEntity
  8
M0
  6
DASHED
 62
     7
100
AcDbLine
 10
134.6014
 20
216.206562
 11
135.4014
 21
216.206562
  0
LINE
  5
178
100
AcDbEntity
  8
M0
  6
DASHED
 62
     7
100
AcDbLine
 10
134.6014
 20
215.506562
 11
134.6014
 21
216.206562
  0
LINE
  5
179
100
AcDbEntity
  8
M0
  6
DASHED
 62
     7
100
AcDbLine
 10
122.9014
 20
217.106562
 11
122.5014
 21
216.706562
  0
LINE
  5
17A
100
AcDbEntity
  8
M0
  6
DASHED
 62
     7
100
AcDbLine
 10
130.7014
 20
217.106562
 11
131.1014
 21
216.706562
  0
ARC
  5
17B
100
AcDbEntity
  8
M0
  6
DASHED
 62
     7
100
AcDbCircle
 10
130.5014
 20
219.706562
 40
0.2
100
AcDbArc
 50
0.0
 51
90.0
  0
ARC
  5
17C
100
AcDbEntity
  8
M0
  6
DASHED
 62
     7
100
AcDbCircle
 10
123.1014
 20
219.706562
 40
0.2
100
AcDbArc
 50
90.0
 51
180.0
  0
LINE
  5
17D
100
AcDbEntity
  8
M0
  6
DASHED
 62
     7
100
AcDbLine
 10
130.7014
 20
217.106562
 11
122.9014
 21
217.106562
  0
LINE
  5
17E
100
AcDbEntity
  8
M0
  6
DASHDOT
 62
     7
100
AcDbLine
 10
77.8014
 20
179.906562
 11
71.4014
 21
179.906562
  0
LINE
  5
17F
100
AcDbEntity
  8
M0
 62
     7
100
AcDbLine
 10
73.2014
 20
183.806562
 11
74.718795
 21
183.806562
  0
LINE
  5
180
100
AcDbEntity
  8
M0
 62
     7
100
AcDbLine
 10
73.2014
 20
176.006562
 11
74.98363
 21
176.006562
  0
LINE
  5
181
100
AcDbEntity
  8
M0
 62
     7
100
AcDbLine
 10
73.0014
 20
183.606562
 11
73.0014
 21
176.206562
  0
LINE
  5
182
100
AcDbEntity
  8
M0
  6
DASHDOT
 62
     7
100
AcDbLine
 10
72.969592
 20
186.356562
 11
76.024646
 21
186.356562
  0
LINE
  5
183
100
AcDbEntity
  8
M0
  6
DASHDOT
 62
     7
100
AcDbLine
 10
73.369659
 20
173.456562
 11
76.315604
 21
173.456562
  0
ARC
  5
184
100
AcDbEntity
  8
M0
 62
     7
100
AcDbCircle
 10
73.2014
 20
183.606562
 40
0.2
100
AcDbArc
 50
90.0
 51
180.0
  0
ARC
  5
185
100
AcDbEntity
  8
M0
 62
     7
100
AcDbCircle
 10
73.2014
 20
176.206562
 40
0.2
100
AcDbArc
 50
180.0
 51
270.0
  0
LINE
  5
186
100
AcDbEntity
  8
M0
 62
     7
100
AcDbLine
 10
141.6014
 20
176.006562
 11
139.6014
 21
176.006562
  0
LINE
  5
187
100
AcDbEntity
  8
M0
 62
     7
100
AcDbLine
 10
141.6014
 20
183.806562
 11
139.6014
 21
183.806562
  0
LINE
  5
188
100
AcDbEntity
  8
M0
 62
     7
100
AcDbLine
 10
141.8014
 20
176.206562
 11
141.8014
 21
183.606562
  0
LINE
  5
189
100
AcDbEntity
  8
M0
  6
DASHDOT
 62
     7
100
AcDbLine
 10
141.43041
 20
173.456562
 11
137.413832
 21
173.456562
  0
LINE
  5
18A
100
AcDbEntity
  8
M0
  6
DASHDOT
 62
     7
100
AcDbLine
 10
141.768648
 20
186.356562
 11
137.13015
 21
186.356562
  0
LINE
  5
18B
100
AcDbEntity
  8
M0
 62
     7
100
AcDbLine
 10
139.2014
 20
184.206562
 11
139.2014
 21
188.106562
  0
ARC
  5
18C
100
AcDbEntity
  8
M0
 62
     7
100
AcDbCircle
 10
138.8014
 20
188.106562
 40
0.4
100
AcDbArc
 50
0.0
 51
65.110798
  0
LINE
  5
18D
100
AcDbEntity
  8
M0
 62
     7
100
AcDbLine
 10
138.7014
 20
171.306562
 11
138.8014
 21
171.306562
  0
LINE
  5
18E
100
AcDbEntity
  8
M0
 62
     7
100
AcDbLine
 10
139.2014
 20
171.706562
 11
139.2014
 21
184.206562
  0
ARC
  5
18F
100
AcDbEntity
  8
M0
 62
     7
100
AcDbCircle
 10
138.8014
 20
171.706562
 40
0.4
100
AcDbArc
 50
270.0
 51
360.0
  0
LINE
  5
190
100
AcDbEntity
  8
M0
 62
     7
100
AcDbLine
 10
138.7014
 20
172.106562
 11
138.7014
 21
171.306562
  0
LINE
  5
191
100
AcDbEntity
  8
M0
 62
     7
100
AcDbLine
 10
138.429685
 20
172.106562
 11
138.7014
 21
172.106562
  0
LINE
  5
192
100
AcDbEntity
  8
M0
 62
     7
100
AcDbLine
 10
139.6014
 20
183.806562
 11
139.2014
 21
184.206562
  0
LINE
  5
193
100
AcDbEntity
  8
M0
 62
     7
100
AcDbLine
 10
139.6014
 20
176.006562
 11
139.2014
 21
175.606562
  0
ARC
  5
194
100
AcDbEntity
  8
M0
 62
     7
100
AcDbCircle
 10
141.6014
 20
176.206562
 40
0.2
100
AcDbArc
 50
270.0
 51
360.0
  0
ARC
  5
195
100
AcDbEntity
  8
M0
 62
     7
100
AcDbCircle
 10
141.6014
 20
183.606562
 40
0.2
100
AcDbArc
 50
0.0
 51
90.0
  0
LINE
  5
196
100
AcDbEntity
  8
M0
  6
DASHDOT
 62
     7
100
AcDbLine
 10
136.464086
 20
179.906562
 11
146.063867
 21
179.906562
  0
LINE
  5
197
100
AcDbEntity
  8
M0
  6
DASHDOT
 62
     7
100
AcDbLine
 10
137.0014
 20
85.851269
 11
143.4014
 21
85.851269
  0
LINE
  5
198
100
AcDbEntity
  8
M0
 62
     7
100
AcDbLine
 10
141.6014
 20
81.951269
 11
139.6014
 21
81.951269
  0
LINE
  5
199
100
AcDbEntity
  8
M0
 62
     7
100
AcDbLine
 10
141.6014
 20
89.751269
 11
139.6014
 21
89.751269
  0
LINE
  5
19A
100
AcDbEntity
  8
M0
 62
     7
100
AcDbLine
 10
141.8014
 20
82.151269
 11
141.8014
 21
89.551269
  0
LINE
  5
19B
100
AcDbEntity
  8
M0
 62
     7
100
AcDbLine
 10
139.6014
 20
89.751269
 11
139.3014
 21
90.051269
  0
ARC
  5
19C
100
AcDbEntity
  8
M0
 62
     7
100
AcDbCircle
 10
141.6014
 20
82.151269
 40
0.2
100
AcDbArc
 50
270.0
 51
360.0
  0
ARC
  5
19D
100
AcDbEntity
  8
M0
 62
     7
100
AcDbCircle
 10
141.6014
 20
89.551269
 40
0.2
100
AcDbArc
 50
0.0
 51
90.0
  0
LINE
  5
19E
100
AcDbEntity
  8
M0
 62
     7
100
AcDbLine
 10
139.6014
 20
81.951269
 11
139.3014
 21
81.651269
  0
LINE
  5
19F
100
AcDbEntity
  8
M0
 62
     7
100
AcDbLine
 10
139.2014
 20
90.051269
 11
139.2014
 21
81.651269
  0
LINE
  5
1A0
100
AcDbEntity
  8
M0
 62
     7
100
AcDbLine
 10
138.8014
 20
81.651269
 11
139.3014
 21
81.651269
  0
LINE
  5
1A1
100
AcDbEntity
  8
M0
 62
     7
100
AcDbLine
 10
138.8014
 20
90.051269
 11
139.3014
 21
90.051269
  0
LINE
  5
1A2
100
AcDbEntity
  8
M0
  6
DASHDOT
 62
     7
100
AcDbLine
 10
77.8014
 20
85.851269
 11
71.4014
 21
85.851269
  0
LINE
  5
1A3
100
AcDbEntity
  8
M0
 62
     7
100
AcDbLine
 10
73.2014
 20
89.751269
 11
74.8014
 21
89.751269
  0
LINE
  5
1A4
100
AcDbEntity
  8
M0
 62
     7
100
AcDbLine
 10
73.2014
 20
81.951269
 11
74.8014
 21
81.951269
  0
LINE
  5
1A5
100
AcDbEntity
  8
M0
 62
     7
100
AcDbLine
 10
73.0014
 20
89.551269
 11
73.0014
 21
82.151269
  0
ARC
  5
1A6
100
AcDbEntity
  8
M0
 62
     7
100
AcDbCircle
 10
73.2014
 20
89.551269
 40
0.2
100
AcDbArc
 50
90.0
 51
180.0
  0
ARC
  5
1A7
100
AcDbEntity
  8
M0
 62
     7
100
AcDbCircle
 10
73.2014
 20
82.151269
 40
0.2
100
AcDbArc
 50
180.0
 51
270.0
  0
LINE
  5
1A8
100
AcDbEntity
  8
M0
 62
     2
100
AcDbLine
 10
74.1814
 20
86.601824
 11
74.8014
 21
86.601824
  0
LINE
  5
1A9
100
AcDbEntity
  8
M0
 62
     2
100
AcDbLine
 10
74.1814
 20
87.352379
 11
74.8014
 21
87.352379
  0
LINE
  5
1AA
100
AcDbEntity
  8
M0
 62
     2
100
AcDbLine
 10
74.1814
 20
85.100713
 11
74.8014
 21
85.100713
  0
LINE
  5
1AB
100
AcDbEntity
  8
M0
 62
     2
100
AcDbLine
 10
74.1814
 20
84.350158
 11
74.8014
 21
84.350158
  0
LINE
  5
1AC
100
AcDbEntity
  8
M0
 62
     2
100
AcDbLine
 10
74.1814
 20
84.350158
 11
74.1814
 21
87.352379
  0
CIRCLE
  5
1AD
100
AcDbEntity
  8
M0
 62
     2
100
AcDbCircle
 10
197.207989
 20
85.851269
 40
1.8
  0
LINE
  5
1AE
100
AcDbEntity
  8
M0
  6
DASHDOT
 62
     2
100
AcDbLine
 10
197.207989
 20
83.651269
 11
197.207989
 21
88.051269
  0
LINE
  5
1AF
100
AcDbEntity
  8
M0
 62
     2
100
AcDbLine
 10
198.507989
 20
85.100713
 11
198.507989
 21
86.601824
  0
LINE
  5
1B0
100
AcDbEntity
  8
M0
 62
     2
100
AcDbLine
 10
195.907989
 20
85.100713
 11
195.907989
 21
86.601824
  0
LINE
  5
1B1
100
AcDbEntity
  8
M0
 62
     2
100
AcDbLine
 10
198.507989
 20
85.100713
 11
197.207989
 21
84.350158
  0
LINE
  5
1B2
100
AcDbEntity
  8
M0
 62
     2
100
AcDbLine
 10
195.907989
 20
85.100713
 11
197.207989
 21
84.350158
  0
LINE
  5
1B3
100
AcDbEntity
  8
M0
 62
     2
100
AcDbLine
 10
195.907989
 20
86.601824
 11
197.207989
 21
87.352379
  0
LINE
  5
1B4
100
AcDbEntity
  8
M0
 62
     2
100
AcDbLine
 10
198.507989
 20
86.601824
 11
197.207989
 21
87.352379
  0
CIRCLE
  5
1B5
100
AcDbEntity
  8
M0
 62
     2
100
AcDbCircle
 10
197.207989
 20
85.851269
 40
1.3
  0
CIRCLE
  5
1B6
100
AcDbEntity
  8
M0
 62
     2
100
AcDbCircle
 10
197.207989
 20
85.851269
 40
1.1
  0
CIRCLE
  5
1B7
100
AcDbEntity
  8
M0
 62
     2
100
AcDbCircle
 10
210.107989
 20
85.851269
 40
1.8
  0
LINE
  5
1B8
100
AcDbEntity
  8
M0
  6
DASHDOT
 62
     2
100
AcDbLine
 10
210.107989
 20
83.651269
 11
210.107989
 21
88.051269
  0
LINE
  5
1B9
100
AcDbEntity
  8
M0
 62
     2
100
AcDbLine
 10
211.407989
 20
85.100713
 11
211.407989
 21
86.601824
  0
LINE
  5
1BA
100
AcDbEntity
  8
M0
 62
     2
100
AcDbLine
 10
208.807989
 20
85.100713
 11
208.807989
 21
86.601824
  0
LINE
  5
1BB
100
AcDbEntity
  8
M0
 62
     2
100
AcDbLine
 10
211.407989
 20
85.100713
 11
210.107989
 21
84.350158
  0
LINE
  5
1BC
100
AcDbEntity
  8
M0
 62
     2
100
AcDbLine
 10
208.807989
 20
85.100713
 11
210.107989
 21
84.350158
  0
LINE
  5
1BD
100
AcDbEntity
  8
M0
 62
     2
100
AcDbLine
 10
208.807989
 20
86.601824
 11
210.107989
 21
87.352379
  0
LINE
  5
1BE
100
AcDbEntity
  8
M0
 62
     2
100
AcDbLine
 10
211.407989
 20
86.601824
 11
210.107989
 21
87.352379
  0
CIRCLE
  5
1BF
100
AcDbEntity
  8
M0
 62
     2
100
AcDbCircle
 10
210.107989
 20
85.851269
 40
1.3
  0
CIRCLE
  5
1C0
100
AcDbEntity
  8
M0
 62
     2
100
AcDbCircle
 10
210.107989
 20
85.851269
 40
1.1
  0
LINE
  5
1C1
100
AcDbEntity
  8
M0
 62
     2
100
AcDbLine
 10
140.6214
 20
185.606006
 11
139.5214
 21
185.606006
  0
LINE
  5
1C2
100
AcDbEntity
  8
M0
 62
     2
100
AcDbLine
 10
140.6214
 20
184.855451
 11
139.5214
 21
184.855451
  0
LINE
  5
1C3
100
AcDbEntity
  8
M0
 62
     2
100
AcDbLine
 10
140.6214
 20
187.107117
 11
139.5214
 21
187.107117
  0
LINE
  5
1C4
100
AcDbEntity
  8
M0
 62
     2
100
AcDbLine
 10
140.6214
 20
187.857672
 11
139.5214
 21
187.857672
  0
LINE
  5
1C5
100
AcDbEntity
  8
M0
 62
     2
100
AcDbLine
 10
140.6214
 20
187.857672
 11
140.6214
 21
184.855451
  0
LINE
  5
1C6
100
AcDbEntity
  8
M0
 62
     2
100
AcDbLine
 10
139.5214
 20
188.156562
 11
139.5214
 21
184.556562
  0
LINE
  5
1C7
100
AcDbEntity
  8
M0
 62
     2
100
AcDbLine
 10
139.2014
 20
188.139654
 11
139.2014
 21
184.556562
  0
LINE
  5
1C8
100
AcDbEntity
  8
M0
 62
     2
100
AcDbLine
 10
139.5214
 20
184.556562
 11
139.2014
 21
184.556562
  0
LINE
  5
1C9
100
AcDbEntity
  8
M0
 62
     2
100
AcDbLine
 10
139.5214
 20
188.156562
 11
139.2014
 21
188.156562
  0
LINE
  5
1CA
100
AcDbEntity
  8
M0
 62
     2
100
AcDbLine
 10
74.1814
 20
174.207117
 11
75.066326
 21
174.207117
  0
LINE
  5
1CB
100
AcDbEntity
  8
M0
 62
     2
100
AcDbLine
 10
74.1814
 20
174.957672
 11
75.030848
 21
174.957672
  0
LINE
  5
1CC
100
AcDbEntity
  8
M0
 62
     2
100
AcDbLine
 10
74.1814
 20
172.706006
 11
75.141513
 21
172.706006
  0
LINE
  5
1CD
100
AcDbEntity
  8
M0
 62
     2
100
AcDbLine
 10
74.1814
 20
171.955451
 11
75.181223
 21
171.955451
  0
LINE
  5
1CE
100
AcDbEntity
  8
M0
 62
     2
100
AcDbLine
 10
74.1814
 20
171.955451
 11
74.1814
 21
174.957672
  0
LINE
  5
1CF
100
AcDbEntity
  8
M0
 62
     2
100
AcDbLine
 10
74.1814
 20
187.107117
 11
74.652492
 21
187.107117
  0
LINE
  5
1D0
100
AcDbEntity
  8
M0
 62
     2
100
AcDbLine
 10
74.1814
 20
187.857672
 11
74.641209
 21
187.857672
  0
LINE
  5
1D1
100
AcDbEntity
  8
M0
 62
     2
100
AcDbLine
 10
74.1814
 20
185.606006
 11
74.679275
 21
185.606006
  0
LINE
  5
1D2
100
AcDbEntity
  8
M0
 62
     2
100
AcDbLine
 10
74.1814
 20
184.855451
 11
74.694776
 21
184.855451
  0
LINE
  5
1D3
100
AcDbEntity
  8
M0
 62
     2
100
AcDbLine
 10
74.1814
 20
184.855451
 11
74.1814
 21
187.857672
  0
LINE
  5
1D4
100
AcDbEntity
  8
M0
 62
     2
100
AcDbLine
 10
140.6214
 20
172.706006
 11
139.5214
 21
172.706006
  0
LINE
  5
1D5
100
AcDbEntity
  8
M0
 62
     2
100
AcDbLine
 10
140.6214
 20
171.955451
 11
139.5214
 21
171.955451
  0
LINE
  5
1D6
100
AcDbEntity
  8
M0
 62
     2
100
AcDbLine
 10
140.6214
 20
174.207117
 11
139.5214
 21
174.207117
  0
LINE
  5
1D7
100
AcDbEntity
  8
M0
 62
     2
100
AcDbLine
 10
140.6214
 20
174.957672
 11
139.5214
 21
174.957672
  0
LINE
  5
1D8
100
AcDbEntity
  8
M0
 62
     2
100
AcDbLine
 10
140.6214
 20
174.957672
 11
140.6214
 21
171.955451
  0
LINE
  5
1D9
100
AcDbEntity
  8
M0
 62
     2
100
AcDbLine
 10
139.5214
 20
175.256562
 11
139.5214
 21
171.656562
  0
LINE
  5
1DA
100
AcDbEntity
  8
M0
 62
     2
100
AcDbLine
 10
139.2014
 20
175.239654
 11
139.2014
 21
171.656562
  0
LINE
  5
1DB
100
AcDbEntity
  8
M0
 62
     2
100
AcDbLine
 10
139.5214
 20
171.656562
 11
139.2014
 21
171.656562
  0
LINE
  5
1DC
100
AcDbEntity
  8
M0
 62
     2
100
AcDbLine
 10
139.5214
 20
175.256562
 11
139.2014
 21
175.256562
  0
LINE
  5
1DD
100
AcDbEntity
  8
M0
 62
     2
100
AcDbLine
 10
140.6214
 20
85.100713
 11
139.5214
 21
85.100713
  0
LINE
  5
1DE
100
AcDbEntity
  8
M0
 62
     2
100
AcDbLine
 10
140.6214
 20
84.350158
 11
139.5214
 21
84.350158
  0
LINE
  5
1DF
100
AcDbEntity
  8
M0
 62
     2
100
AcDbLine
 10
140.6214
 20
86.601824
 11
139.5214
 21
86.601824
  0
LINE
  5
1E0
100
AcDbEntity
  8
M0
 62
     2
100
AcDbLine
 10
140.6214
 20
87.352379
 11
139.5214
 21
87.352379
  0
LINE
  5
1E1
100
AcDbEntity
  8
M0
 62
     2
100
AcDbLine
 10
140.6214
 20
87.352379
 11
140.6214
 21
84.350158
  0
LINE
  5
1E2
100
AcDbEntity
  8
M0
 62
     2
100
AcDbLine
 10
139.5214
 20
87.651269
 11
139.5214
 21
84.051269
  0
LINE
  5
1E3
100
AcDbEntity
  8
M0
 62
     2
100
AcDbLine
 10
139.5214
 20
84.051269
 11
139.2014
 21
84.051269
  0
LINE
  5
1E4
100
AcDbEntity
  8
M0
 62
     2
100
AcDbLine
 10
139.5214
 20
87.651269
 11
139.2014
 21
87.651269
  0
LINE
  5
1E5
100
AcDbEntity
  8
M0
 62
   253
100
AcDbLine
 10
99.71545
 20
120.451772
 11
100.59045
 21
120.451772
  0
LINE
  5
1E6
100
AcDbEntity
  8
M0
 62
   253
100
AcDbLine
 10
99.71545
 20
123.451772
 11
100.59045
 21
123.451772
  0
LINE
  5
1E7
100
AcDbEntity
  8
M0
 62
   253
100
AcDbLine
 10
99.71545
 20
123.451772
 11
99.71545
 21
120.451772
  0
LINE
  5
1E8
100
AcDbEntity
  8
M0
 62
   253
100
AcDbLine
 10
100.59045
 20
123.451772
 11
100.59045
 21
122.376772
  0
LINE
  5
1E9
100
AcDbEntity
  8
M0
 62
   253
100
AcDbLine
 10
102.26545
 20
123.451772
 11
102.26545
 21
122.376772
  0
LINE
  5
1EA
100
AcDbEntity
  8
M0
 62
   253
100
AcDbLine
 10
103.14045
 20
123.451772
 11
103.14045
 21
120.451772
  0
LINE
  5
1EB
100
AcDbEntity
  8
M0
 62
   253
100
AcDbLine
 10
103.86545
 20
123.451772
 11
103.86545
 21
120.451772
  0
LINE
  5
1EC
100
AcDbEntity
  8
M0
 62
   253
100
AcDbLine
 10
104.74045
 20
123.451772
 11
104.74045
 21
120.451772
  0
LINE
  5
1ED
100
AcDbEntity
  8
M0
 62
   253
100
AcDbLine
 10
106.29045
 20
122.726772
 11
106.29045
 21
120.451772
  0
LINE
  5
1EE
100
AcDbEntity
  8
M0
 62
   253
100
AcDbLine
 10
107.16545
 20
120.451772
 11
107.16545
 21
122.726772
  0
LINE
  5
1EF
100
AcDbEntity
  8
M0
 62
   253
100
AcDbLine
 10
115.69045
 20
120.451772
 11
115.69045
 21
123.451772
  0
LINE
  5
1F0
100
AcDbEntity
  8
M0
 62
   253
100
AcDbLine
 10
116.56545
 20
123.451772
 11
116.56545
 21
122.376772
  0
LINE
  5
1F1
100
AcDbEntity
  8
M0
 62
   253
100
AcDbLine
 10
118.24045
 20
123.451772
 11
118.24045
 21
122.376772
  0
LINE
  5
1F2
100
AcDbEntity
  8
M0
 62
   253
100
AcDbLine
 10
119.11545
 20
123.451772
 11
119.11545
 21
120.451772
  0
LINE
  5
1F3
100
AcDbEntity
  8
M0
 62
   253
100
AcDbLine
 10
119.84045
 20
120.451772
 11
119.84045
 21
123.451772
  0
LINE
  5
1F4
100
AcDbEntity
  8
M0
 62
   253
100
AcDbLine
 10
120.71545
 20
123.451772
 11
120.71545
 21
120.451772
  0
LINE
  5
1F5
100
AcDbEntity
  8
M0
 62
   253
100
AcDbLine
 10
100.59045
 20
122.376772
 11
102.26545
 21
122.376772
  0
LINE
  5
1F6
100
AcDbEntity
  8
M0
 62
   253
100
AcDbLine
 10
102.26545
 20
121.776772
 11
100.59045
 21
121.776772
  0
LINE
  5
1F7
100
AcDbEntity
  8
M0
 62
   253
100
AcDbLine
 10
102.26545
 20
120.451772
 11
103.14045
 21
120.451772
  0
LINE
  5
1F8
100
AcDbEntity
  8
M0
 62
   253
100
AcDbLine
 10
102.26545
 20
123.451772
 11
103.14045
 21
123.451772
  0
LINE
  5
1F9
100
AcDbEntity
  8
M0
 62
   253
100
AcDbLine
 10
102.26545
 20
121.776772
 11
102.26545
 21
120.451772
  0
LINE
  5
1FA
100
AcDbEntity
  8
M0
 62
   253
100
AcDbLine
 10
100.59045
 20
121.776772
 11
100.59045
 21
120.451772
  0
LINE
  5
1FB
100
AcDbEntity
  8
M0
 62
   253
100
AcDbLine
 10
103.86545
 20
123.451772
 11
104.74045
 21
123.451772
  0
LINE
  5
1FC
100
AcDbEntity
  8
M0
 62
   253
100
AcDbLine
 10
103.86545
 20
120.451772
 11
104.74045
 21
120.451772
  0
LINE
  5
1FD
100
AcDbEntity
  8
M0
 62
   253
100
AcDbLine
 10
106.29045
 20
120.451772
 11
107.16545
 21
120.451772
  0
LINE
  5
1FE
100
AcDbEntity
  8
M0
 62
   253
100
AcDbLine
 10
107.91545
 20
120.451772
 11
108.79045
 21
120.451772
  0
LINE
  5
1FF
100
AcDbEntity
  8
M0
 62
   253
100
AcDbLine
 10
108.34045
 20
123.451772
 11
108.34045
 21
122.726772
  0
LINE
  5
200
100
AcDbEntity
  8
M0
 62
   253
100
AcDbLine
 10
105.11545
 20
123.451772
 11
105.11545
 21
122.726772
  0
LINE
  5
201
100
AcDbEntity
  8
M0
 62
   253
100
AcDbLine
 10
105.11545
 20
122.726772
 11
106.29045
 21
122.726772
  0
LINE
  5
202
100
AcDbEntity
  8
M0
 62
   253
100
AcDbLine
 10
107.16545
 20
122.726772
 11
108.34045
 21
122.726772
  0
LINE
  5
203
100
AcDbEntity
  8
M0
 62
   253
100
AcDbLine
 10
105.11545
 20
123.451772
 11
108.34045
 21
123.451772
  0
LINE
  5
204
100
AcDbEntity
  8
M0
 62
   253
100
AcDbLine
 10
110.09045
 20
123.451772
 11
111.39045
 21
120.451772
  0
LINE
  5
205
100
AcDbEntity
  8
M0
 62
   253
100
AcDbLine
 10
110.51545
 20
120.451772
 11
110.269022
 21
121.051772
  0
LINE
  5
206
100
AcDbEntity
  8
M0
 62
   253
100
AcDbLine
 10
108.79045
 20
120.451772
 11
109.036879
 21
121.051772
  0
LINE
  5
207
100
AcDbEntity
  8
M0
 62
   253
100
AcDbLine
 10
109.21545
 20
123.451772
 11
107.91545
 21
120.451772
  0
LINE
  5
208
100
AcDbEntity
  8
M0
 62
   253
100
AcDbLine
 10
109.036879
 20
121.051772
 11
110.269022
 21
121.051772
  0
LINE
  5
209
100
AcDbEntity
  8
M0
 62
   253
100
AcDbLine
 10
109.231968
 20
121.526772
 11
110.073933
 21
121.526772
  0
LINE
  5
20A
100
AcDbEntity
  8
M0
 62
   253
100
AcDbLine
 10
109.231968
 20
121.526772
 11
109.65295
 21
122.551772
  0
LINE
  5
20B
100
AcDbEntity
  8
M0
 62
   253
100
AcDbLine
 10
110.073933
 20
121.526772
 11
109.65295
 21
122.551772
  0
LINE
  5
20C
100
AcDbEntity
  8
M0
 62
   253
100
AcDbLine
 10
110.51545
 20
120.451772
 11
111.39045
 21
120.451772
  0
LINE
  5
20D
100
AcDbEntity
  8
M0
 62
   253
100
AcDbLine
 10
109.21545
 20
123.451772
 11
110.09045
 21
123.451772
  0
LINE
  5
20E
100
AcDbEntity
  8
M0
 62
   253
100
AcDbLine
 10
116.56545
 20
122.376772
 11
118.24045
 21
122.376772
  0
LINE
  5
20F
100
AcDbEntity
  8
M0
 62
   253
100
AcDbLine
 10
116.56545
 20
121.776772
 11
118.24045
 21
121.776772
  0
LINE
  5
210
100
AcDbEntity
  8
M0
 62
   253
100
AcDbLine
 10
119.84045
 20
123.451772
 11
120.71545
 21
123.451772
  0
LINE
  5
211
100
AcDbEntity
  8
M0
 62
   253
100
AcDbLine
 10
119.84045
 20
120.451772
 11
120.71545
 21
120.451772
  0
LINE
  5
212
100
AcDbEntity
  8
M0
 62
   253
100
AcDbLine
 10
118.24045
 20
121.776772
 11
118.24045
 21
120.451772
  0
LINE
  5
213
100
AcDbEntity
  8
M0
 62
   253
100
AcDbLine
 10
116.56545
 20
121.776772
 11
116.56545
 21
120.451772
  0
LINE
  5
214
100
AcDbEntity
  8
M0
 62
   253
100
AcDbLine
 10
118.24045
 20
123.451772
 11
119.11545
 21
123.451772
  0
LINE
  5
215
100
AcDbEntity
  8
M0
 62
   253
100
AcDbLine
 10
118.24045
 20
120.451772
 11
119.11545
 21
120.451772
  0
LINE
  5
216
100
AcDbEntity
  8
M0
 62
   253
100
AcDbLine
 10
116.56545
 20
123.451772
 11
115.69045
 21
123.451772
  0
LINE
  5
217
100
AcDbEntity
  8
M0
 62
   253
100
AcDbLine
 10
116.56545
 20
120.451772
 11
115.69045
 21
120.451772
  0
LINE
  5
218
100
AcDbEntity
  8
M0
 62
   253
100
AcDbLine
 10
94.492575
 20
120.451772
 11
97.138326
 21
120.451772
  0
LINE
  5
219
100
AcDbEntity
  8
M0
 62
   253
100
AcDbLine
 10
97.138326
 20
123.451772
 11
96.06545
 21
123.451772
  0
CIRCLE
  5
21A
100
AcDbEntity
  8
M0
 62
   253
100
AcDbCircle
 10
95.81545
 20
121.951772
 40
0.5
  0
CIRCLE
  5
21B
100
AcDbEntity
  8
M0
 62
   253
100
AcDbCircle
 10
95.81545
 20
121.951772
 40
1.0
  0
LINE
  5
21C
100
AcDbEntity
  8
M0
 62
   253
100
AcDbLine
 10
94.0834
 20
120.951772
 11
94.697416
 21
120.951772
  0
ARC
  5
21D
100
AcDbEntity
  8
M0
 62
   253
100
AcDbCircle
 10
95.81545
 20
121.951772
 40
1.5
100
AcDbArc
 50
318.189685
 51
401.810315
  0
LINE
  5
21E
100
AcDbEntity
  8
M0
 62
   253
100
AcDbLine
 10
96.933484
 20
120.951772
 11
97.547501
 21
120.951772
  0
LINE
  5
21F
100
AcDbEntity
  8
M0
 62
   253
100
AcDbLine
 10
94.0834
 20
122.951772
 11
94.697416
 21
122.951772
  0
ARC
  5
220
100
AcDbEntity
  8
M0
 62
   253
100
AcDbCircle
 10
95.81545
 20
121.951772
 40
1.5
100
AcDbArc
 50
138.189685
 51
221.810315
  0
LINE
  5
221
100
AcDbEntity
  8
M0
 62
   253
100
AcDbLine
 10
96.933484
 20
122.951772
 11
97.547501
 21
122.951772
  0
ARC
  5
222
100
AcDbEntity
  8
M0
 62
   253
100
AcDbCircle
 10
95.81545
 20
121.951772
 40
2.0
100
AcDbArc
 50
48.590378
 51
82.819244
  0
ARC
  5
223
100
AcDbEntity
  8
M0
 62
   253
100
AcDbCircle
 10
95.81545
 20
121.951772
 40
2.0
100
AcDbArc
 50
150.0
 51
210.0
  0
ARC
  5
224
100
AcDbEntity
  8
M0
 62
   253
100
AcDbCircle
 10
95.81545
 20
121.951772
 40
2.0
100
AcDbArc
 50
228.590378
 51
311.409622
  0
ARC
  5
225
100
AcDbEntity
  8
M0
 62
   253
100
AcDbCircle
 10
95.81545
 20
121.951772
 40
2.0
100
AcDbArc
 50
330.0
 51
390.0
  0
LINE
  5
226
100
AcDbEntity
  8
M0
 62
   253
100
AcDbLine
 10
96.06545
 20
123.451772
 11
96.06545
 21
123.936086
  0
LINE
  5
227
100
AcDbEntity
  8
M0
 62
   253
100
AcDbLine
 10
95.56545
 20
123.451772
 11
95.56545
 21
123.936086
  0
ARC
  5
228
100
AcDbEntity
  8
M0
 62
   253
100
AcDbCircle
 10
95.81545
 20
121.951772
 40
2.0
100
AcDbArc
 50
97.180756
 51
131.409622
  0
LINE
  5
229
100
AcDbEntity
  8
M0
 62
   253
100
AcDbLine
 10
95.56545
 20
123.451772
 11
94.492575
 21
123.451772
  0
ARC
  5
22A
100
AcDbEntity
  8
M0
 62
   253
100
AcDbCircle
 10
96.562808
 20
125.114675
 40
0.75
100
AcDbArc
 50
184.811104
 51
256.70551
  0
ARC
  5
22B
100
AcDbEntity
  8
M0
 62
   253
100
AcDbCircle
 10
95.068093
 20
125.114675
 40
0.75
100
AcDbArc
 50
283.29449
 51
355.188896
  0
ARC
  5
22C
100
AcDbEntity
  8
M0
 62
   253
100
AcDbCircle
 10
96.562808
 20
118.788869
 40
0.75
100
AcDbArc
 50
103.29449
 51
175.188896
  0
ARC
  5
22D
100
AcDbEntity
  8
M0
 62
   253
100
AcDbCircle
 10
95.068093
 20
118.788869
 40
0.75
100
AcDbArc
 50
4.811104
 51
76.70551
  0
ARC
  5
22E
100
AcDbEntity
  8
M0
 62
   253
100
AcDbCircle
 10
95.81545
 20
121.951772
 40
2.5
100
AcDbArc
 50
103.29449
 51
166.70551
  0
ARC
  5
22F
100
AcDbEntity
  8
M0
 62
   253
100
AcDbCircle
 10
95.81545
 20
121.951772
 40
2.5
100
AcDbArc
 50
193.29449
 51
256.70551
  0
ARC
  5
230
100
AcDbEntity
  8
M0
 62
   253
100
AcDbCircle
 10
95.81545
 20
121.951772
 40
2.5
100
AcDbArc
 50
283.29449
 51
346.70551
  0
ARC
  5
231
100
AcDbEntity
  8
M0
 62
   253
100
AcDbCircle
 10
95.81545
 20
121.951772
 40
2.5
100
AcDbArc
 50
13.29449
 51
76.70551
  0
ARC
  5
232
100
AcDbEntity
  8
M0
 62
   253
100
AcDbCircle
 10
98.978354
 20
121.204415
 40
0.75
100
AcDbArc
 50
94.811104
 51
166.70551
  0
ARC
  5
233
100
AcDbEntity
  8
M0
 62
   253
100
AcDbCircle
 10
98.978354
 20
122.69913
 40
0.75
100
AcDbArc
 50
193.29449
 51
265.188896
  0
ARC
  5
234
100
AcDbEntity
  8
M0
 62
   253
100
AcDbCircle
 10
92.652547
 20
122.69913
 40
0.75
100
AcDbArc
 50
274.811104
 51
346.70551
  0
ARC
  5
235
100
AcDbEntity
  8
M0
 62
   253
100
AcDbCircle
 10
92.652547
 20
121.204415
 40
0.75
100
AcDbArc
 50
13.29449
 51
85.188896
  0
ARC
  5
236
100
AcDbEntity
  8
M0
 62
   253
100
AcDbCircle
 10
114.14045
 20
121.939272
 40
1.7
100
AcDbArc
 50
153.234499
 51
206.765501
  0
ARC
  5
237
100
AcDbEntity
  8
M0
 62
   253
100
AcDbCircle
 10
113.36545
 20
121.939272
 40
1.15
100
AcDbArc
 50
251.034425
 51
288.965575
  0
ARC
  5
238
100
AcDbEntity
  8
M0
 62
   253
100
AcDbCircle
 10
113.36545
 20
121.939272
 40
1.15
100
AcDbArc
 50
71.034425
 51
108.965575
  0
ARC
  5
239
100
AcDbEntity
  8
M0
 62
   253
100
AcDbCircle
 10
113.20295
 20
122.412129
 40
0.65
100
AcDbArc
 50
108.965575
 51
153.234499
  0
ARC
  5
23A
100
AcDbEntity
  8
M0
 62
   253
100
AcDbCircle
 10
113.20295
 20
121.466415
 40
0.65
100
AcDbArc
 50
206.765501
 51
251.034425
  0
ARC
  5
23B
100
AcDbEntity
  8
M0
 62
   253
100
AcDbCircle
 10
113.52795
 20
122.412129
 40
0.65
100
AcDbArc
 50
26.765501
 51
71.034425
  0
ARC
  5
23C
100
AcDbEntity
  8
M0
 62
   253
100
AcDbCircle
 10
113.52795
 20
121.466415
 40
0.65
100
AcDbArc
 50
288.965575
 51
333.234499
  0
ARC
  5
23D
100
AcDbEntity
  8
M0
 62
   253
100
AcDbCircle
 10
112.59045
 20
121.939272
 40
1.7
100
AcDbArc
 50
14.909679
 51
26.765501
  0
ARC
  5
23E
100
AcDbEntity
  8
M0
 62
   253
100
AcDbCircle
 10
112.59045
 20
121.939272
 40
1.7
100
AcDbArc
 50
333.234499
 51
350.263479
  0
LINE
  5
23F
100
AcDbEntity
  8
M0
 62
   253
100
AcDbLine
 10
114.233216
 20
122.376675
 11
115.204013
 21
122.376675
  0
LINE
  5
240
100
AcDbEntity
  8
M0
 62
   253
100
AcDbLine
 10
114.265963
 20
121.651772
 11
115.217543
 21
121.651772
  0
ARC
  5
241
100
AcDbEntity
  8
M0
 62
   253
100
AcDbCircle
 10
112.59045
 20
121.939272
 40
2.65
100
AcDbArc
 50
350.986415
 51
353.771689
  0
ARC
  5
242
100
AcDbEntity
  8
M0
 62
   253
100
AcDbCircle
 10
113.36545
 20
123.576772
 40
3.275
100
AcDbArc
 50
253.460049
 51
284.765954
  0
ARC
  5
243
100
AcDbEntity
  8
M0
 62
   253
100
AcDbCircle
 10
113.849706
 20
121.73952
 40
1.375
100
AcDbArc
 50
284.765954
 51
350.986415
  0
ARC
  5
244
100
AcDbEntity
  8
M0
 62
   253
100
AcDbCircle
 10
113.36545
 20
121.939272
 40
1.875
100
AcDbArc
 50
146.555301
 51
213.444699
  0
ARC
  5
245
100
AcDbEntity
  8
M0
 62
   253
100
AcDbCircle
 10
112.760497
 20
121.539702
 40
1.15
100
AcDbArc
 50
213.444699
 51
253.460049
  0
ARC
  5
246
100
AcDbEntity
  8
M0
 62
   253
100
AcDbCircle
 10
112.760497
 20
122.338843
 40
1.15
100
AcDbArc
 50
106.539951
 51
146.555301
  0
ARC
  5
247
100
AcDbEntity
  8
M0
 62
   253
100
AcDbCircle
 10
113.36545
 20
120.301772
 40
3.275
100
AcDbArc
 50
75.234046
 51
106.539951
  0
ARC
  5
248
100
AcDbEntity
  8
M0
 62
   253
100
AcDbCircle
 10
113.849706
 20
122.139025
 40
1.375
100
AcDbArc
 50
9.952805
 51
75.234046
  0
LINE
  5
249
100
AcDbEntity
  8
M0
  6
DASHDOT
100
AcDbLine
 10
90.091258
 20
96.251269
 11
109.012289
 21
96.251269
  0
LINE
  5
24A
100
AcDbEntity
  8
M0
  6
DASHDOT
100
AcDbLine
 10
98.2014
 20
108.614649
 11
98.2014
 21
84.121781
  0
TEXT
  5
24B
100
AcDbEntity
  8
M0
 62
     4
100
AcDbText
 10
76.682677
 20
96.651269
 40
3.6
  1
ポンプノ中心
 41
0.787037
  7
STANDARD
100
AcDbText
  0
TEXT
  5
24C
100
AcDbEntity
  8
M0
 62
     4
100
AcDbText
 10
97.8014
 20
169.957962
 40
3.6
  1
ポンプノ中心
 50
90.000003
 41
0.787037
  7
STANDARD
100
AcDbText
  0
LINE
  5
24D
100
AcDbEntity
  8
M0
 62
     7
100
AcDbLine
 10
355.435647
 20
103.62977
 11
290.288714
 21
103.62977
  0
LINE
  5
24E
100
AcDbEntity
  8
M0
 62
     7
100
AcDbLine
 10
290.288714
 20
159.698547
 11
290.288714
 21
93.62977
  0
LINE
  5
24F
100
AcDbEntity
  8
M0
 62
     7
100
AcDbLine
 10
290.288714
 20
93.62977
 11
355.435647
 21
93.62977
  0
LINE
  5
250
100
AcDbEntity
  8
M0
 62
     7
100
AcDbLine
 10
355.435647
 20
113.62977
 11
290.288714
 21
113.62977
  0
LINE
  5
251
100
AcDbEntity
  8
M0
 62
     7
100
AcDbLine
 10
355.435647
 20
123.62977
 11
290.288714
 21
123.62977
  0
LINE
  5
252
100
AcDbEntity
  8
M0
 62
     7
100
AcDbLine
 10
355.435647
 20
133.62977
 11
290.288714
 21
133.62977
  0
LINE
  5
253
100
AcDbEntity
  8
M0
 62
     7
100
AcDbLine
 10
355.435647
 20
143.62977
 11
290.288714
 21
143.62977
  0
LINE
  5
254
100
AcDbEntity
  8
M0
 62
     7
100
AcDbLine
 10
355.435647
 20
153.62977
 11
290.288714
 21
153.62977
  0
LINE
  5
255
100
AcDbEntity
  8
M0
 62
     7
100
AcDbLine
 10
300.288714
 20
93.62977
 11
300.288714
 21
159.698547
  0
LINE
  5
256
100
AcDbEntity
  8
M0
 62
     7
100
AcDbLine
 10
310.288714
 20
93.62977
 11
310.288714
 21
159.698547
  0
LINE
  5
257
100
AcDbEntity
  8
M0
 62
     7
100
AcDbLine
 10
320.288714
 20
93.62977
 11
320.288714
 21
159.698547
  0
LINE
  5
258
100
AcDbEntity
  8
M0
 62
     7
100
AcDbLine
 10
330.288714
 20
93.62977
 11
330.288714
 21
159.698547
  0
LINE
  5
259
100
AcDbEntity
  8
M0
 62
     7
100
AcDbLine
 10
340.288714
 20
93.62977
 11
340.288714
 21
159.698547
  0
LINE
  5
25A
100
AcDbEntity
  8
M0
 62
     7
100
AcDbLine
 10
350.288714
 20
93.62977
 11
350.288714
 21
159.698547
  0
TEXT
  5
25B
100
AcDbEntity
  8
M0
 62
     7
100
AcDbText
 10
290.522047
 20
88.62977
 40
3.0
  1
０
 41
0.844444
  7
STANDARD
100
AcDbText
  0
TEXT
  5
25C
100
AcDbEntity
  8
M0
 62
     7
100
AcDbText
 10
299.086671
 20
88.62977
 40
3.0
  1
５
 41
0.844444
  7
STANDARD
100
AcDbText
  0
TEXT
  5
25D
100
AcDbEntity
  8
M0
 62
     7
100
AcDbText
 10
307.701759
 20
88.62977
 40
3.0
  1
１０
 41
0.833333
  7
STANDARD
100
AcDbText
  0
TEXT
  5
25E
100
AcDbEntity
  8
M0
 62
     7
100
AcDbText
 10
327.70176
 20
88.62977
 40
3.0
  1
２０
 41
0.833333
  7
STANDARD
100
AcDbText
  0
TEXT
  5
25F
100
AcDbEntity
  8
M0
 62
     7
100
AcDbText
 10
317.70176
 20
88.62977
 40
3.0
  1
１５
 41
0.833333
  7
STANDARD
100
AcDbText
  0
TEXT
  5
260
100
AcDbEntity
  8
M0
 62
     7
100
AcDbText
 10
337.70176
 20
88.62977
 40
3.0
  1
２５
 41
0.833333
  7
STANDARD
100
AcDbText
  0
TEXT
  5
261
100
AcDbEntity
  8
M0
 62
     7
100
AcDbText
 10
347.701757
 20
88.62977
 40
3.0
  1
３０
 41
0.833333
  7
STANDARD
100
AcDbText
  0
TEXT
  5
262
100
AcDbEntity
  8
M0
 62
     7
100
AcDbText
 10
286.168037
 20
102.252621
 40
3.0
  1
５
 41
0.844444
  7
STANDARD
100
AcDbText
  0
TEXT
  5
263
100
AcDbEntity
  8
M0
 62
     7
100
AcDbText
 10
286.168037
 20
93.629771
 40
3.0
  1
０
 41
0.844444
  7
STANDARD
100
AcDbText
  0
TEXT
  5
264
100
AcDbEntity
  8
M0
 62
     7
100
AcDbText
 10
283.036859
 20
152.307291
 40
3.0
  1
３０
 41
0.833333
  7
STANDARD
100
AcDbText
  0
TEXT
  5
265
100
AcDbEntity
  8
M0
 62
     7
100
AcDbText
 10
283.036859
 20
142.307294
 40
3.0
  1
２５
 41
0.833333
  7
STANDARD
100
AcDbText
  0
TEXT
  5
266
100
AcDbEntity
  8
M0
 62
     7
100
AcDbText
 10
283.036859
 20
132.307294
 40
3.0
  1
２０
 41
0.833333
  7
STANDARD
100
AcDbText
  0
TEXT
  5
267
100
AcDbEntity
  8
M0
 62
     7
100
AcDbText
 10
283.036859
 20
122.307293
 40
3.0
  1
１５
 41
0.833333
  7
STANDARD
100
AcDbText
  0
TEXT
  5
268
100
AcDbEntity
  8
M0
 62
     7
100
AcDbText
 10
283.036859
 20
112.307293
 40
3.0
  1
１０
 41
0.833333
  7
STANDARD
100
AcDbText
  0
TEXT
  5
269
100
AcDbEntity
  8
M0
 62
     7
100
AcDbText
 10
307.510429
 20
78.926092
 40
4.0
  1
揚水量（Ｌ／分）
 41
1.25
  7
STANDARD
100
AcDbText
  0
TEXT
  5
26A
100
AcDbEntity
  8
M0
 62
     7
100
AcDbText
 10
272.660938
 20
127.991974
 40
4.0
  1
全
 41
0.972222
  7
STANDARD
100
AcDbText
  0
TEXT
  5
26B
100
AcDbEntity
  8
M0
 62
     7
100
AcDbText
 10
272.660938
 20
121.991974
 40
4.0
  1
揚
 41
0.972222
  7
STANDARD
100
AcDbText
  0
TEXT
  5
26C
100
AcDbEntity
  8
M0
 62
     7
100
AcDbText
 10
272.660938
 20
115.991975
 40
4.0
  1
程
 41
0.972222
  7
STANDARD
100
AcDbText
  0
TEXT
  5
26D
100
AcDbEntity
  8
M0
 62
     7
100
AcDbText
 10
272.660938
 20
109.991975
 40
4.0
  1
ｍ
 41
0.972222
  7
STANDARD
100
AcDbText
  0
TEXT
  5
26E
100
AcDbEntity
  8
M0
 62
     7
100
AcDbText
 10
359.832844
 20
138.422465
 40
3.0
  1
※３
 41
0.844444
  7
STANDARD
100
AcDbText
  0
TEXT
  5
26F
100
AcDbEntity
  8
M0
 62
     7
100
AcDbText
 10
360.100697
 20
151.908048
 40
3.0
  1
※３
 41
0.844444
  7
STANDARD
100
AcDbText
  0
TEXT
  5
270
100
AcDbEntity
  8
M0
 62
     7
100
AcDbText
 10
267.909127
 20
109.204035
 40
4.0
  1
（　）
 41
1.0
  7
STANDARD
100
AcDbText
  0
SPLINE
  5
271
100
AcDbEntity
  8
M0
 62
     6
100
AcDbSpline
210
0.0
220
0.0
230
-1.0
 70
     8
 71
     3
 72
    11
 73
     7
 43
0.0000001
 40
0.0
 40
0.0
 40
0.0
 40
0.0
 40
1.0
 40
1.0
 40
1.0
 40
2.0
 40
2.0
 40
2.0
 40
2.0
 10
290.288714
 20
148.62977
 10
301.274829
 20
141.228659
 10
312.260943
 20
133.827548
 10
320.288714
 20
127.62977
 10
328.207997
 20
121.515751
 10
333.248354
 20
116.572761
 10
338.288714
 20
111.62977
  0
LINE
  5
272
100
AcDbEntity
  8
M0
 62
     6
100
AcDbLine
 10
323.811251
 20
117.62977
 11
326.204291
 21
117.62977
  0
LINE
  5
273
100
AcDbEntity
  8
M0
 62
     6
100
AcDbLine
 10
332.063038
 20
117.62977
 11
332.063038
 21
114.951882
  0
LINE
  5
274
100
AcDbEntity
  8
M0
  6
DASHDOT
 62
     6
100
AcDbLine
 10
327.288714
 20
110.62977
 11
325.274786
 21
123.62977
  0
LINE
  5
275
100
AcDbEntity
  8
M0
 62
     6
100
AcDbLine
 10
330.288714
 20
117.62977
 11
332.063038
 21
117.62977
  0
LINE
  5
276
100
AcDbEntity
  8
M0
 62
     6
100
AcDbLine
 10
326.204291
 20
117.62977
 11
326.204291
 21
114.670668
  0
LINE
  5
277
100
AcDbEntity
  8
M0
 62
     6
100
AcDbLine
 10
326.204291
 20
117.62977
 11
324.436214
 21
115.861693
  0
LINE
  5
278
100
AcDbEntity
  8
M0
 62
     6
100
AcDbLine
 10
324.153371
 20
116.144536
 11
325.638606
 21
117.62977
  0
LINE
  5
279
100
AcDbEntity
  8
M0
 62
     6
100
AcDbLine
 10
323.88932
 20
116.44617
 11
325.07292
 21
117.62977
  0
LINE
  5
27A
100
AcDbEntity
  8
M0
 62
     6
100
AcDbLine
 10
323.551811
 20
116.674347
 11
324.507235
 21
117.62977
  0
LINE
  5
27B
100
AcDbEntity
  8
M0
 62
     6
100
AcDbLine
 10
323.240669
 20
116.92889
 11
323.94155
 21
117.62977
  0
LINE
  5
27C
100
AcDbEntity
  8
M0
 62
     6
100
AcDbLine
 10
324.751514
 20
115.611308
 11
326.204291
 21
117.064085
  0
LINE
  5
27D
100
AcDbEntity
  8
M0
 62
     6
100
AcDbLine
 10
325.058273
 20
115.352381
 11
326.204291
 21
116.4984
  0
LINE
  5
27E
100
AcDbEntity
  8
M0
 62
     6
100
AcDbLine
 10
325.157248
 20
114.885671
 11
326.204291
 21
115.932714
  0
LINE
  5
27F
100
AcDbEntity
  8
M0
 62
     6
100
AcDbLine
 10
325.34101
 20
114.503748
 11
326.204291
 21
115.367029
  0
LINE
  5
280
100
AcDbEntity
  8
M0
 62
     6
100
AcDbLine
 10
325.552105
 20
114.149157
 11
326.204291
 21
114.801343
  0
LINE
  5
281
100
AcDbEntity
  8
M0
 62
     6
100
AcDbLine
 10
330.739361
 20
116.306093
 11
332.063038
 21
117.62977
  0
LINE
  5
282
100
AcDbEntity
  8
M0
 62
     6
100
AcDbLine
 10
330.559683
 20
116.692101
 11
331.497353
 21
117.62977
  0
LINE
  5
283
100
AcDbEntity
  8
M0
 62
     6
100
AcDbLine
 10
330.288714
 20
116.986817
 11
330.931667
 21
117.62977
  0
LINE
  5
284
100
AcDbEntity
  8
M0
 62
     6
100
AcDbLine
 10
330.288714
 20
117.552503
 11
330.365982
 21
117.62977
  0
LINE
  5
285
100
AcDbEntity
  8
M0
 62
     6
100
AcDbLine
 10
332.063038
 20
117.064085
 11
331.010741
 21
116.011788
  0
LINE
  5
286
100
AcDbEntity
  8
M0
 62
     6
100
AcDbLine
 10
332.063038
 20
116.4984
 11
331.250598
 21
115.68596
  0
LINE
  5
287
100
AcDbEntity
  8
M0
 62
     6
100
AcDbLine
 10
332.063038
 20
115.932714
 11
331.266932
 21
115.136608
  0
LINE
  5
288
100
AcDbEntity
  8
M0
 62
     6
100
AcDbLine
 10
332.063038
 20
115.367029
 11
331.564103
 21
114.868094
  0
TEXT
  5
289
100
AcDbEntity
  8
M0
100
AcDbText
 10
279.809022
 20
68.713911
 40
4.0
  1
※３　基準吸込揚程トハポンプ運転時吸込フランジ入口ノゲージ圧ヲ吸込揚程トシタモノ
 41
0.625
  7
STANDARD
100
AcDbText
  0
LINE
  5
28A
100
AcDbEntity
  8
M0
100
AcDbLine
 10
280.367454
 20
156.902887
 11
280.367454
 21
162.902887
  0
LINE
  5
28B
100
AcDbEntity
  8
M0
100
AcDbLine
 10
256.067454
 20
162.902887
 11
256.067454
 21
156.902887
  0
TEXT
  5
28C
100
AcDbEntity
  8
M0
100
AcDbText
 10
256.509527
 20
157.602147
 40
4.5
  1
揚水性能
 41
1.111111
  7
STANDARD
100
AcDbText
  0
LINE
  5
28D
100
AcDbEntity
  8
M0
100
AcDbLine
 10
256.067454
 20
162.902887
 11
280.367454
 21
162.902887
  0
LINE
  5
28E
100
AcDbEntity
  8
M0
100
AcDbLine
 10
256.067454
 20
156.902887
 11
280.367454
 21
156.902887
  0
LINE
  5
28F
100
AcDbEntity
  8
M0
100
AcDbLine
 10
205.808212
 20
270.76682
 11
205.808212
 21
264.76682
  0
LINE
  5
290
100
AcDbEntity
  8
M0
100
AcDbLine
 10
205.808212
 20
270.76682
 11
220.808212
 21
270.76682
  0
LINE
  5
291
100
AcDbEntity
  8
M0
100
AcDbLine
 10
205.808212
 20
264.76682
 11
220.808212
 21
264.76682
  0
LINE
  5
292
100
AcDbEntity
  8
M0
100
AcDbLine
 10
220.808212
 20
264.76682
 11
220.808212
 21
270.76682
  0
TEXT
  5
293
100
AcDbEntity
  8
M0
100
AcDbText
 10
205.000286
 20
265.466079
 40
4.5
  1
仕様
 41
1.666667
  7
STANDARD
100
AcDbText
  0
LINE
  5
294
100
AcDbEntity
  8
M0
100
AcDbLine
 10
50.965319
 20
261.850394
 11
50.965319
 21
255.850394
  0
LINE
  5
295
100
AcDbEntity
  8
M0
100
AcDbLine
 10
50.965319
 20
261.850394
 11
65.965319
 21
261.850394
  0
LINE
  5
296
100
AcDbEntity
  8
M0
100
AcDbLine
 10
50.965319
 20
255.850394
 11
65.965319
 21
255.850394
  0
LINE
  5
297
100
AcDbEntity
  8
M0
100
AcDbLine
 10
65.965319
 20
255.850394
 11
65.965319
 21
261.850394
  0
TEXT
  5
298
100
AcDbEntity
  8
M0
100
AcDbText
 10
50.157392
 20
256.549654
 40
4.5
  1
寸法
 41
1.666667
  7
STANDARD
100
AcDbText
  0
LINE
  5
299
100
AcDbEntity
  8
M0
 62
     7
100
AcDbLine
 10
340.300262
 20
232.092388
 11
217.900262
 21
232.092388
  0
LINE
  5
29A
100
AcDbEntity
  8
M0
 62
     7
100
AcDbLine
 10
294.700262
 20
241.692388
 11
294.700262
 21
232.092388
  0
LINE
  5
29B
100
AcDbEntity
  8
M0
 62
     7
100
AcDbLine
 10
217.900262
 20
241.692388
 11
340.300262
 21
241.692388
  0
LINE
  5
29C
100
AcDbEntity
  8
M0
 62
     7
100
AcDbLine
 10
340.300262
 20
256.092388
 11
217.900262
 21
256.092388
  0
LINE
  5
29D
100
AcDbEntity
  8
M0
 62
     7
100
AcDbLine
 10
217.900262
 20
251.292388
 11
340.300262
 21
251.292388
  0
LINE
  5
29E
100
AcDbEntity
  8
M0
 62
     7
100
AcDbLine
 10
217.900262
 20
246.492388
 11
340.300262
 21
246.492388
  0
TEXT
  5
29F
100
AcDbEntity
  8
M0
 62
     7
100
AcDbText
 10
218.600263
 20
251.292388
 40
3.6
  1
電　　　　源
 41
1.944445
  7
STANDARD
100
AcDbText
  0
TEXT
  5
2A0
100
AcDbEntity
  8
M0
 62
     7
100
AcDbText
 10
216.100263
 20
246.492388
 40
3.6
  1
モ－タ－　
 41
3.333333
  7
STANDARD
100
AcDbText
  0
TEXT
  5
2A1
100
AcDbEntity
  8
M0
 62
     7
100
AcDbText
 10
218.600263
 20
256.092388
 40
3.6
  1
形　　　　式
 41
1.944445
  7
STANDARD
100
AcDbText
  0
TEXT
  5
2A2
100
AcDbEntity
  8
M0
 62
     7
100
AcDbText
 10
218.516929
 20
241.692388
 40
3.6
  1
出　　　　力
 41
1.990741
  7
STANDARD
100
AcDbText
  0
TEXT
  5
2A3
100
AcDbEntity
  8
M0
 62
     7
100
AcDbText
 10
288.917706
 20
256.092388
 40
3.6
  1
ＷＭ－Ｐ１２５Ｈ，Ｊ
 41
0.833333
  7
STANDARD
100
AcDbText
  0
TEXT
  5
2A4
100
AcDbEntity
  8
M0
 62
     7
100
AcDbText
 10
280.390729
 20
251.292388
 40
3.6
  1
単相１００Ｖ　５０／６０Ｈｚ
 41
0.833333
  7
STANDARD
100
AcDbText
  0
TEXT
  5
2A5
100
AcDbEntity
  8
M0
 62
     7
100
AcDbText
 10
279.978131
 20
246.492388
 40
3.6
  1
１２５Ｗコンデンサーラン（２極）
 41
0.833333
  7
STANDARD
100
AcDbText
  0
TEXT
  5
2A6
100
AcDbEntity
  8
M0
 62
     7
100
AcDbText
 10
297.357269
 20
241.692388
 40
3.6
  1
１２５Ｗ　　
 41
1.111111
  7
STANDARD
100
AcDbText
  0
LINE
  5
2A7
100
AcDbEntity
  8
M0
 62
     7
100
AcDbLine
 10
270.700262
 20
236.892388
 11
340.300262
 21
236.892388
  0
LINE
  5
2A8
100
AcDbEntity
  8
M0
 62
     7
100
AcDbLine
 10
340.300262
 20
260.892388
 11
217.900262
 21
260.892388
  0
LINE
  5
2A9
100
AcDbEntity
  8
M0
 62
     7
100
AcDbLine
 10
217.900262
 20
227.292388
 11
340.300262
 21
227.292388
  0
LINE
  5
2AA
100
AcDbEntity
  8
M0
 62
     7
100
AcDbLine
 10
217.900262
 20
222.492388
 11
340.300262
 21
222.492388
  0
LINE
  5
2AB
100
AcDbEntity
  8
M0
 62
     7
100
AcDbLine
 10
217.900262
 20
212.892388
 11
340.300262
 21
212.892388
  0
LINE
  5
2AC
100
AcDbEntity
  8
M0
 62
     7
100
AcDbLine
 10
217.900262
 20
203.292388
 11
340.300262
 21
203.292388
  0
LINE
  5
2AD
100
AcDbEntity
  8
M0
 62
     7
100
AcDbLine
 10
217.900262
 20
198.492388
 11
340.300262
 21
198.492388
  0
LINE
  5
2AE
100
AcDbEntity
  8
M0
 62
     7
100
AcDbLine
 10
217.900262
 20
217.692388
 11
340.300262
 21
217.692388
  0
LINE
  5
2AF
100
AcDbEntity
  8
M0
 62
     7
100
AcDbLine
 10
217.900262
 20
208.092388
 11
340.300262
 21
208.092388
  0
LINE
  5
2B0
100
AcDbEntity
  8
M0
 62
     7
100
AcDbLine
 10
270.700262
 20
184.092388
 11
270.700262
 21
260.892388
  0
TEXT
  5
2B1
100
AcDbEntity
  8
M0
 62
     7
100
AcDbText
 10
216.100262
 20
188.892388
 40
3.6
  1
製品質量
 41
3.333333
  7
STANDARD
100
AcDbText
  0
TEXT
  5
2B2
100
AcDbEntity
  8
M0
 62
     7
100
AcDbText
 10
213.100262
 20
184.092389
 40
3.6
  1
付属品
 41
5.0
  7
STANDARD
100
AcDbText
  0
TEXT
  5
2B3
100
AcDbEntity
  8
M0
 62
     7
100
AcDbText
 10
219.100262
 20
212.892388
 40
3.6
  1
ポンプ始動圧力
 41
1.666667
  7
STANDARD
100
AcDbText
  0
TEXT
  5
2B4
100
AcDbEntity
  8
M0
 62
     7
100
AcDbText
 10
219.100262
 20
208.092388
 40
3.6
  1
ポンプ停止水量
 41
1.666667
  7
STANDARD
100
AcDbText
  0
TEXT
  5
2B5
100
AcDbEntity
  8
M0
 62
     7
100
AcDbText
 10
219.100262
 20
203.292388
 40
3.6
  1
コンデンサ容量
 41
1.666667
  7
STANDARD
100
AcDbText
  0
TEXT
  5
2B6
100
AcDbEntity
  8
M0
 62
     7
100
AcDbText
 10
219.100262
 20
198.492388
 40
3.6
  1
吸込管接続口径
 41
1.666667
  7
STANDARD
100
AcDbText
  0
TEXT
  5
2B7
100
AcDbEntity
  8
M0
 62
     7
100
AcDbText
 10
219.100262
 20
193.692388
 40
3.6
  1
吐出管接続口径
 41
1.666667
  7
STANDARD
100
AcDbText
  0
TEXT
  5
2B8
100
AcDbEntity
  8
M0
 62
     7
100
AcDbText
 10
220.350262
 20
217.692388
 40
3.6
  1
揚水量（全揚程１２ｍ時）
 41
0.972222
  7
STANDARD
100
AcDbText
  0
LINE
  5
2B9
100
AcDbEntity
  8
M0
 62
     7
100
AcDbLine
 10
340.300262
 20
193.692388
 11
217.900262
 21
193.692388
  0
LINE
  5
2BA
100
AcDbEntity
  8
M0
 62
     7
100
AcDbLine
 10
340.300262
 20
188.892388
 11
217.900262
 21
188.892388
  0
LINE
  5
2BB
100
AcDbEntity
  8
M0
 62
     7
100
AcDbLine
 10
340.300262
 20
184.092388
 11
217.900262
 21
184.092388
  0
LINE
  5
2BC
100
AcDbEntity
  8
M0
 62
     7
100
AcDbLine
 10
305.500262
 20
232.092388
 11
305.500262
 21
217.692388
  0
TEXT
  5
2BD
100
AcDbEntity
  8
M0
 62
     7
100
AcDbText
 10
297.582208
 20
203.292386
 40
3.6
  1
１６Ｆ
 41
0.833333
  7
STANDARD
100
AcDbText
  0
TEXT
  5
2BE
100
AcDbEntity
  8
M0
 62
     7
100
AcDbText
 10
290.155487
 20
198.492388
 40
3.6
  1
２０ｍｍ（３／４Ｂ）
 41
0.833333
  7
STANDARD
100
AcDbText
  0
TEXT
  5
2BF
100
AcDbEntity
  8
M0
 62
     7
100
AcDbText
 10
290.155487
 20
193.692388
 40
3.6
  1
２０ｍｍ（３／４Ｂ）
 41
0.833333
  7
STANDARD
100
AcDbText
  0
TEXT
  5
2C0
100
AcDbEntity
  8
M0
 62
     7
100
AcDbText
 10
298.407403
 20
188.892388
 40
3.6
  1
１６ｋ
 41
0.833333
  7
STANDARD
100
AcDbText
  0
TEXT
  5
2C1
100
AcDbEntity
  8
M0
 62
     7
100
AcDbText
 10
291.53081
 20
184.092386
 40
3.6
  1
ストレーナ（１コ）
 41
0.833333
  7
STANDARD
100
AcDbText
  0
TEXT
  5
2C2
100
AcDbEntity
  8
M0
 62
     7
100
AcDbText
 10
272.868977
 20
219.124346
 40
2.4
  1
※１
 41
0.85
  7
STANDARD
100
AcDbText
  0
TEXT
  5
2C3
100
AcDbEntity
  8
M0
 62
     7
100
AcDbText
 10
307.668977
 20
219.124346
 40
2.4
  1
※２
 41
0.85
  7
STANDARD
100
AcDbText
  0
TEXT
  5
2C4
100
AcDbEntity
  8
M0
 62
     7
100
AcDbText
 10
282.986651
 20
227.292388
 40
3.6
  1
３ｍ
 41
1.111111
  7
STANDARD
100
AcDbText
  0
TEXT
  5
2C5
100
AcDbEntity
  8
M0
 62
     7
100
AcDbText
 10
282.986651
 20
222.492388
 40
3.6
  1
９ｍ
 41
1.111111
  7
STANDARD
100
AcDbText
  0
TEXT
  5
2C6
100
AcDbEntity
  8
M0
 62
     7
100
AcDbText
 10
317.786651
 20
222.492388
 40
3.6
  1
９ｍ
 41
1.111111
  7
STANDARD
100
AcDbText
  0
TEXT
  5
2C7
100
AcDbEntity
  8
M0
 62
     7
100
AcDbText
 10
317.786651
 20
227.292388
 40
3.6
  1
８ｍ
 41
1.111111
  7
STANDARD
100
AcDbText
  0
TEXT
  5
2C8
100
AcDbEntity
  8
M0
 62
     7
100
AcDbText
 10
216.100262
 20
227.292388
 40
3.6
  1
吸上高サ
 41
3.333333
  7
STANDARD
100
AcDbText
  0
TEXT
  5
2C9
100
AcDbEntity
  8
M0
 62
     7
100
AcDbText
 10
216.100262
 20
222.492388
 40
3.6
  1
押上高サ
 41
3.333333
  7
STANDARD
100
AcDbText
  0
LINE
  5
2CA
100
AcDbEntity
  8
M0
 62
     7
100
AcDbLine
 10
217.900262
 20
184.092388
 11
217.900262
 21
260.892388
  0
LINE
  5
2CB
100
AcDbEntity
  8
M0
 62
     7
100
AcDbLine
 10
340.300262
 20
184.092388
 11
340.300262
 21
260.892388
  0
TEXT
  5
2CC
100
AcDbEntity
  8
M0
 62
     7
100
AcDbText
 10
275.679261
 20
236.892388
 40
3.6
  1
５０Ｈｚ
 41
0.844444
  7
STANDARD
100
AcDbText
  0
TEXT
  5
2CD
100
AcDbEntity
  8
M0
 62
     7
100
AcDbText
 10
275.679261
 20
232.092388
 40
3.6
  1
６０Ｈｚ
 41
0.844444
  7
STANDARD
100
AcDbText
  0
TEXT
  5
2CE
100
AcDbEntity
  8
M0
 62
     7
100
AcDbText
 10
308.880061
 20
236.892388
 40
3.6
  1
３５０Ｗ
 41
0.844444
  7
STANDARD
100
AcDbText
  0
TEXT
  5
2CF
100
AcDbEntity
  8
M0
 62
     7
100
AcDbText
 10
308.880061
 20
232.092388
 40
3.6
  1
３７５Ｗ
 41
0.844444
  7
STANDARD
100
AcDbText
  0
TEXT
  5
2D0
100
AcDbEntity
  8
M0
 62
     7
100
AcDbText
 10
216.100263
 20
235.400237
 40
3.6
  1
消費電力
 41
3.333333
  7
STANDARD
100
AcDbText
  0
TEXT
  5
2D1
100
AcDbEntity
  8
M0
 62
     7
100
AcDbText
 10
218.160262
 20
176.906774
 40
3.6
  1
※１　基準吸込揚程３ｍ時　　　※２　基準吸込揚程８ｍ時
 41
0.722222
  7
STANDARD
100
AcDbText
  0
TEXT
  5
2D2
100
AcDbEntity
  8
M0
 62
     7
100
AcDbText
 10
279.979531
 20
217.692388
 40
3.6
  1
２１Ｌ／分
 41
0.722222
  7
STANDARD
100
AcDbText
  0
TEXT
  5
2D3
100
AcDbEntity
  8
M0
 62
     7
100
AcDbText
 10
314.779525
 20
217.692388
 40
3.6
  1
１８Ｌ／分
 41
0.722222
  7
STANDARD
100
AcDbText
  0
TEXT
  5
2D4
100
AcDbEntity
  8
M0
 62
     7
100
AcDbText
 10
295.656763
 20
208.092388
 40
3.6
  1
４Ｌ／分
 41
0.833333
  7
STANDARD
100
AcDbText
  0
TEXT
  5
2D5
100
AcDbEntity
  8
M0
 62
     7
100
AcDbText
 10
281.871659
 20
212.892388
 40
3.6
  1
１００ｋＰａ｛１．０ｋｇｆ／ｃｍ
 41
0.601852
  7
STANDARD
100
AcDbText
  0
TEXT
  5
2D6
100
AcDbEntity
  8
M0
 62
     7
100
AcDbText
 10
323.384999
 20
215.052388
 40
2.16
  1
２
 41
0.601852
  7
STANDARD
100
AcDbText
  0
TEXT
  5
2D7
100
AcDbEntity
  8
M0
 62
     7
100
AcDbText
 10
325.031663
 20
212.892388
 40
3.6
  1
｝
 41
0.601852
  7
STANDARD
100
AcDbText
  0
TEXT
  5
2D8
100
AcDbEntity
  8
M0
100
AcDbText
 10
216.521404
 20
53.906887
 40
3.0
  1
（単位：ｍｍ）
 41
1.388889
  7
STANDARD
100
AcDbText
  0
ENDSEC
  0
SECTION
  2
OBJECTS
  0
DICTIONARY
  5
C
100
AcDbDictionary
  3
ACAD_GROUP
350
D
  3
ACAD_MLINESTYLE
350
E
  0
DICTIONARY
  5
D
102
{ACAD_REACTORS
330
C
102
}
100
AcDbDictionary
  0
DICTIONARY
  5
E
102
{ACAD_REACTORS
330
C
102
}
100
AcDbDictionary
  3
STANDARD
350
13
  0
MLINESTYLE
  5
13
102
{ACAD_REACTORS
330
E
102
}
100
AcDbMlineStyle
  2
STANDARD
 70
     0
  3

 62
     0
 51
90.0
 52
90.0
 71
     2
 49
0.5
 62
   256
  6
BYLAYER
 49
-0.5
 62
   256
  6
BYLAYER
  0
ENDSEC
  0
EOF
