  0
SECTION
  2
HEADER
  9
$ACADVER
  1
AC1012
  9
$INSBASE
 10
0.0
 20
0.0
  9
$VIEWCTR
 10
7.531722
 20
4.5
  9
$VIEWSIZE
 40
9.0
  9
$SNAPMODE
 70
     0
  9
$SNAPUNIT
 10
1.0
 20
1.0
  9
$SNAPBASE
 10
0.0
 20
0.0
  9
$SNAPANG
 50
0.0
  9
$SNAPSTYLE
 70
     0
  9
$SNAPISOPAIR
 70
     0
  9
$GRIDMODE
 70
     0
  9
$GRIDUNIT
 10
0.0
 20
0.0
  9
$ORTHOMODE
 70
     0
  9
$REGENMODE
 70
     1
  9
$FILLMODE
 70
     1
  9
$QTEXTMODE
 70
     0
  9
$DRAGMODE
 70
     2
  9
$LTSCALE
 40
1.0
  9
$OSMODE
 70
     0
  9
$ATTMODE
 70
     1
  9
$TEXTSIZE
 40
0.2
  9
$TRACEWID
 40
0.05
  9
$TEXTSTYLE
  7
STANDARD
  9
$CELTYPE
  6
BYLAYER
  9
$CECOLOR
 62
   256
  9
$DIMSCALE
 40
1.0
  9
$DIMASZ
 40
0.18
  9
$DIMEXO
 40
0.0625
  9
$DIMDLI
 40
0.38
  9
$DIMRND
 40
0.0
  9
$DIMDLE
 40
0.0
  9
$DIMEXE
 40
0.18
  9
$DIMTP
 40
0.0
  9
$DIMTM
 40
0.0
  9
$DIMTXT
 40
0.18
  9
$DIMCEN
 40
0.09
  9
$DIMTSZ
 40
0.0
  9
$DIMTOL
 70
     0
  9
$DIMLIM
 70
     0
  9
$DIMTIH
 70
     1
  9
$DIMTOH
 70
     1
  9
$DIMSE1
 70
     0
  9
$DIMSE2
 70
     0
  9
$DIMTAD
 70
     0
  9
$DIMZIN
 70
     0
  9
$DIMBLK
  1

  9
$LUNITS
 70
     2
  9
$LUPREC
 70
     4
  9
$AXISMODE
 70
     0
  9
$AXISUNIT
 10
0.0
 20
0.0
  9
$SKETCHINC
 40
0.1
  9
$FILLETRAD
 40
0.0
  9
$AUNITS
 70
     0
  9
$AUPREC
 70
     0
  9
$MENU
  1
ACAD
  9
$ELEVATION
 40
0.0
  9
$THICKNESS
 40
0.0
  9
$VIEWDIR
 10
0.0
 20
0.0
 30
1.0
  9
$LIMCHECK
 70
     0
  9
$BLIPMODE
 70
     1
  9
$CHAMFERA
 40
0.0
  9
$CHAMFERB
 40
0.0
  9
$FASTZOOM
 70
     1
  9
$SKPOLY
 70
     0
  9
$TDCREATE
 40
0000000.0000000000
  9
$TDUPDATE
 40
0000000.0000000000
  9
$TDINDWG
 40
0.0000000000
  9
$TDUSRTIMER
 40
0.0000000000
  9
$USRTIMER
 70
     1
  9
$ANGBASE
 50
0.0
  9
$ANGDIR
 70
     0
  9
$PDMODE
 70
     0
  9
$PDSIZE
 40
0.0
  9
$PLINEWID
 40
0.0
  9
$COORDS
 70
     0
  9
$USERI1
 70
     0
  9
$USERI2
 70
     0
  9
$USERI3
 70
     0
  9
$USERI4
 70
     0
  9
$USERI5
 70
     0
  9
$USERR1
 40
0.0
  9
$USERR2
 40
0.0
  9
$USERR3
 40
0.0
  9
$USERR4
 40
0.0
  9
$USERR5
 40
0.0
  9
$CLAYER
  8
M0
  9
$EXTMIN
 10
0.0
 20
0.0
  9
$EXTMAX
 10
420.0
 20
297.0
  9
$LIMMIN
 10
0.0
 20
0.0
  9
$LIMMAX
 10
420.0
 20
297.0
  9
$HANDSEED
  5
BA
  0
ENDSEC
  0
SECTION
  2
CLASSES
  0
ENDSEC
  0
SECTION
  2
TABLES
  0
TABLE
  2
VPORT
  5
8
100
AcDbSymbolTable
 70
     2
  0
VPORT
  5
14
100
AcDbSymbolTableRecord
100
AcDbViewportTableRecord
  2
*ACTIVE
 70
     0
 10
0.0
 20
0.0
 11
1.0
 21
1.0
 12
484.0
 22
297.0
 13
0.0
 23
0.0
 14
1.0
 24
1.0
 15
0.0
 25
0.0
 16
0.0
 26
0.0
 36
1.0
 17
0.0
 27
0.0
 37
0.0
 40
594.0
 41
2.0
 42
50.0
 43
0.0
 44
0.0
 50
0.0
 51
0.0
 71
     0
 72
   100
 73
     1
 74
     1
 75
     0
 76
     0
 77
     0
 78
     0
  0
ENDTAB
  0
TABLE
  2
LTYPE
  5
5
100
AcDbSymbolTable
 70
     5
  0
LTYPE
  5
15
100
AcDbSymbolTableRecord
100
AcDbLinetypeTableRecord
  2
BYBLOCK
 70
     0
  3

 72
    65
 73
     0
 40
0.0
  0
LTYPE
  5
16
100
AcDbSymbolTableRecord
100
AcDbLinetypeTableRecord
  2
BYLAYER
 70
     0
  3

 72
    65
 73
     0
 40
0.0
  0
LTYPE
  5
17
100
AcDbSymbolTableRecord
100
AcDbLinetypeTableRecord
  2
CONTINUOUS
 70
    64
  3
Solid line
 72
    65
 73
     0
 40
0.0
  0
LTYPE
  5
18
100
AcDbSymbolTableRecord
100
AcDbLinetypeTableRecord
  2
DASHED
 70
    64
  3
__ __ __ __ __ __ __ __ __ __ __ __ __ __ __ __
 72
    65
 73
     2
 40
0.75
 49
0.5
 74
     0
 49
-0.25
 74
     0
  0
LTYPE
  5
19
100
AcDbSymbolTableRecord
100
AcDbLinetypeTableRecord
  2
DASHDOT
 70
    64
  3
__ . __ . __ . __ . __ . __ . __ . __ . __ . __
 72
    65
 73
     4
 40
1.0
 49
0.5
 74
     0
 49
-0.25
 74
     0
 49
0.0
 74
     0
 49
-0.25
 74
     0
  0
LTYPE
  5
1A
100
AcDbSymbolTableRecord
100
AcDbLinetypeTableRecord
  2
DIVIDE
 70
    64
  3
____ . . ____ . . ____ . . ____ . . ____ . . __
 72
    65
 73
     6
 40
1.25
 49
0.5
 74
     0
 49
-0.25
 74
     0
 49
0.0
 74
     0
 49
-0.25
 74
     0
 49
0.0
 74
     0
 49
-0.25
 74
     0
  0
LTYPE
  5
1B
100
AcDbSymbolTableRecord
100
AcDbLinetypeTableRecord
  2
DOT
 70
    64
  3
. . . . . . . . . . . . . . . . . . . . . . . .
 72
    65
 73
     2
 40
0.25
 49
0.0
 74
     0
 49
-0.25
 74
     0
  0
ENDTAB
  0
TABLE
  2
LAYER
  5
2
100
AcDbSymbolTable
 70
   102
  0
LAYER
  5
F
100
AcDbSymbolTableRecord
100
AcDbLayerTableRecord
  2
0
 70
     0
 62
     7
  6
CONTINUOUS
  0
LAYER
  5
1C
100
AcDbSymbolTableRecord
100
AcDbLayerTableRecord
  2
DEFPOINTS
 70
     0
 62
     7
  6
CONTINUOUS
  0
LAYER
  5
1D
100
AcDbSymbolTableRecord
100
AcDbLayerTableRecord
  2
M0
 70
     0
 62
     3
  6
CONTINUOUS
  0
LAYER
  5
1E
100
AcDbSymbolTableRecord
100
AcDbLayerTableRecord
  2
M46
 70
     0
 62
     3
  6
CONTINUOUS
  0
LAYER
  5
1F
100
AcDbSymbolTableRecord
100
AcDbLayerTableRecord
  2
DD0
 70
     0
 62
     4
  6
CONTINUOUS
  0
ENDTAB
  0
TABLE
  2
STYLE
  5
3
100
AcDbSymbolTable
 70
     2
  0
STYLE
  5
10
100
AcDbSymbolTableRecord
100
AcDbTextStyleTableRecord
  2
STANDARD
 70
     0
 40
0.0
 41
1.0
 50
0.0
 71
     0
 42
0.2
  3
txt
  4
BIGFONT
  0
ENDTAB
  0
TABLE
  2
VIEW
  5
6
100
AcDbSymbolTable
 70
     0
  0
ENDTAB
  0
TABLE
  2
UCS
  5
7
100
AcDbSymbolTable
 70
     0
  0
ENDTAB
  0
TABLE
  2
APPID
  5
9
100
AcDbSymbolTable
 70
     1
  0
APPID
  5
11
100
AcDbSymbolTableRecord
100
AcDbRegAppTableRecord
  2
ACAD
 70
     0
  0
ENDTAB
  0
TABLE
  2
DIMSTYLE
  5
A
100
AcDbSymbolTable
 70
     2
  0
DIMSTYLE
105
26
100
AcDbSymbolTableRecord
100
AcDbDimStyleTableRecord
  2
STANDARD
 70
     0
  3

  4

  5

  6
_OPEN
  7
_OPEN
 40
1.0
 41
3.0
 42
0.0
 43
8.0
 44
1.5
 45
0.0
 46
0.0
 47
0.0
 48
0.0
140
3.5
141
0.09
142
0.0
143
0.03937
144
1.0
145
0.0
146
1.0
147
1.0
 71
     0
 72
     0
 73
     0
 74
     0
 75
     0
 76
     0
 77
     3
 78
     8
170
     0
171
     2
172
     0
173
     1
174
     0
175
     0
176
     0
177
     0
178
     0
270
     2
271
     2
272
     4
273
     2
274
     2
340
10
275
     0
280
     0
281
     0
282
     0
283
     1
284
     0
285
     0
286
     0
287
     3
288
     0
  0
DIMSTYLE
105
27
100
AcDbSymbolTableRecord
100
AcDbDimStyleTableRecord
  2
LEADSTYL
 70
     0
  3

  4

  5

  6
_OPEN
  7
_OPEN
 40
1.0
 41
3.0
 42
0.0625
 43
0.38
 44
0.18
 45
0.0
 46
0.0
 47
0.0
 48
0.0
140
3.2
141
0.09
142
0.0
143
25.4
144
1.0
145
0.0
146
1.0
147
1.0
 71
     0
 72
     0
 73
     1
 74
     1
 75
     0
 76
     0
 77
     0
 78
     0
170
     0
171
     2
172
     0
173
     1
174
     0
175
     0
176
     0
177
     0
178
     0
270
     2
271
     4
272
     4
273
     2
274
     2
340
10
275
     0
280
     0
281
     0
282
     0
283
     1
284
     0
285
     0
286
     0
287
     3
288
     0
  0
ENDTAB
  0
TABLE
  2
BLOCK_RECORD
  5
1
100
AcDbSymbolTable
 70
     6
  0
BLOCK_RECORD
  5
20
100
AcDbSymbolTableRecord
100
AcDbBlockTableRecord
  2
*MODEL_SPACE
  0
BLOCK_RECORD
  5
23
100
AcDbSymbolTableRecord
100
AcDbBlockTableRecord
  2
*PAPER_SPACE
  0
BLOCK_RECORD
  5
28
100
AcDbSymbolTableRecord
100
AcDbBlockTableRecord
  2
_NONE
  0
BLOCK_RECORD
  5
2C
100
AcDbSymbolTableRecord
100
AcDbBlockTableRecord
  2
_OPEN
  0
BLOCK_RECORD
  5
32
100
AcDbSymbolTableRecord
100
AcDbBlockTableRecord
  2
_CLOSED
  0
BLOCK_RECORD
  5
39
100
AcDbSymbolTableRecord
100
AcDbBlockTableRecord
  2
_ORIGIN
  0
BLOCK_RECORD
  5
3E
100
AcDbSymbolTableRecord
100
AcDbBlockTableRecord
  2
_DOT
  0
BLOCK_RECORD
  5
46
100
AcDbSymbolTableRecord
100
AcDbBlockTableRecord
  2
_OBLIQUE
  0
ENDTAB
  0
ENDSEC
  0
SECTION
  2
BLOCKS
  0
BLOCK
  5
21
100
AcDbEntity
  8
0
100
AcDbBlockBegin
  2
*MODEL_SPACE
 70
     0
 10
0.0
 20
0.0
 30
0.0
  3
*MODEL_SPACE
  1

  0
ENDBLK
  5
22
100
AcDbEntity
  8
0
100
AcDbBlockEnd
  0
BLOCK
  5
24
100
AcDbEntity
 67
     1
  8
0
100
AcDbBlockBegin
  2
*PAPER_SPACE
 70
     0
 10
0.0
 20
0.0
 30
0.0
  3
*PAPER_SPACE
  1

  0
ENDBLK
  5
25
100
AcDbEntity
 67
     1
  8
0
100
AcDbBlockEnd
  0
BLOCK
  5
29
100
AcDbEntity
  8
0
100
AcDbBlockBegin
  2
_NONE
 70
     0
 10
0.0
 20
0.0
  0
CIRCLE
  5
2A
100
AcDbEntity
  8
0
 62
     0
100
AcDbCircle
 10
0.0
 20
0.0
 40
0.25
  0
ENDBLK
  5
2B
100
AcDbEntity
  8
0
100
AcDbBlockEnd
  0
BLOCK
  5
2D
100
AcDbEntity
  8
0
100
AcDbBlockBegin
  2
_OPEN
 70
     0
 10
0.0
 20
0.0
  0
LINE
  5
2E
100
AcDbEntity
  8
0
 62
     0
100
AcDbLine
 10
-0.965926
 20
0.258819
 11
0.0
 21
0.0
  0
LINE
  5
2F
100
AcDbEntity
  8
0
 62
     0
100
AcDbLine
 10
0.0
 20
0.0
 11
-0.965926
 21
-0.258819
  0
LINE
  5
30
100
AcDbEntity
  8
0
 62
     0
100
AcDbLine
 10
0.0
 20
0.0
 11
-1.0
 21
0.0
  0
ENDBLK
  5
31
100
AcDbEntity
  8
0
100
AcDbBlockEnd
  0
BLOCK
  5
33
100
AcDbEntity
  8
0
100
AcDbBlockBegin
  2
_CLOSED
 70
     0
 10
0.0
 20
0.0
  0
LINE
  5
34
100
AcDbEntity
  8
0
 62
     0
100
AcDbLine
 10
-0.965926
 20
0.258819
 11
0.0
 21
0.0
  0
LINE
  5
35
100
AcDbEntity
  8
0
 62
     0
100
AcDbLine
 10
0.0
 20
0.0
 11
-0.965926
 21
-0.258819
  0
LINE
  5
36
100
AcDbEntity
  8
0
 62
     0
100
AcDbLine
 10
-0.965926
 20
0.258819
 11
-0.965926
 21
-0.258819
  0
LINE
  5
37
100
AcDbEntity
  8
0
 62
     0
100
AcDbLine
 10
0.0
 20
0.0
 11
-1.0
 21
0.0
  0
ENDBLK
  5
38
100
AcDbEntity
  8
0
100
AcDbBlockEnd
  0
BLOCK
  5
3A
100
AcDbEntity
  8
0
100
AcDbBlockBegin
  2
_ORIGIN
 70
     0
 10
0.0
 20
0.0
  0
CIRCLE
  5
3B
100
AcDbEntity
  8
0
 62
     0
100
AcDbCircle
 10
0.0
 20
0.0
 40
0.5
  0
LINE
  5
3C
100
AcDbEntity
  8
0
 62
     0
100
AcDbLine
 10
0.0
 20
0.0
 11
-1.0
 21
0.0
  0
ENDBLK
  5
3D
100
AcDbEntity
  8
0
100
AcDbBlockEnd
  0
BLOCK
  5
3F
100
AcDbEntity
  8
0
100
AcDbBlockBegin
  2
_DOT
 70
     0
 10
0.0
 20
0.0
  0
POLYLINE
  5
40
100
AcDbEntity
  8
0
 62
     0
100
AcDb2dPolyline
 66
     1
 70
     1
 40
0.5
 41
0.5
  0
VERTEX
  5
41
100
AcDbEntity
  8
0
 62
     0
100
AcDbVertex
100
AcDb2dVertex
 10
-0.25
 20
0.0
 42
1.0
  0
VERTEX
  5
42
100
AcDbEntity
  8
0
 62
     0
100
AcDbVertex
100
AcDb2dVertex
 10
0.25
 20
0.0
 42
1.0
  0
SEQEND
  5
43
100
AcDbEntity
  8
0
 62
     0
  0
LINE
  5
44
100
AcDbEntity
  8
0
 62
     0
100
AcDbLine
 10
-0.5
 20
0.0
 11
-1.0
 21
0.0
  0
ENDBLK
  5
45
100
AcDbEntity
  8
0
100
AcDbBlockEnd
  0
BLOCK
  5
47
100
AcDbEntity
  8
0
100
AcDbBlockBegin
  2
_OBLIQUE
 70
     0
 10
0.0
 20
0.0
  0
LINE
  5
48
100
AcDbEntity
  8
0
 62
     0
100
AcDbLine
 10
-0.353553
 20
-0.353553
 11
0.353553
 21
0.353553
  0
ENDBLK
  5
49
100
AcDbEntity
  8
0
100
AcDbBlockEnd
  0
ENDSEC
  0
SECTION
  2
ENTITIES
  0
LEADER
  5
4A
100
AcDbEntity
  8
DD0
100
AcDbLeader
  3
LEADSTYL
 76
     3
 10
147.685379
 20
229.663315
 10
177.109467
 20
252.726852
 10
263.109467
 20
252.726852
340
4B
 77
     4
  0
TEXT
  5
4B
100
AcDbEntity
  8
DD0
100
AcDbText
 10
178.401133
 20
253.726852
 40
3.5
  1
「標準」ＯＦＦ圧　２００ｋＰａ（吸上高さ８ｍ時）
 41
0.833333
  7
STANDARD
100
AcDbText
  0
LEADER
  5
4C
100
AcDbEntity
  8
DD0
100
AcDbLeader
  3
LEADSTYL
 76
     3
 10
154.512787
 20
227.863312
 10
177.109482
 20
245.399094
 10
259.609467
 20
245.399094
340
4D
 77
     4
  0
TEXT
  5
4D
100
AcDbEntity
  8
DD0
100
AcDbText
 10
178.401148
 20
246.399094
 40
3.5
  1
「高」ＯＦＦ圧　２４０ｋＰａ（吸上高さ３ｍ時）
 41
0.833333
  7
STANDARD
100
AcDbText
  0
LEADER
  5
4E
100
AcDbEntity
  8
DD0
100
AcDbLeader
  3
LEADSTYL
 76
     3
 10
156.934998
 20
220.663315
 10
177.109482
 20
237.335373
 10
263.109467
 20
237.335373
340
4F
 77
     4
  0
TEXT
  5
4F
100
AcDbEntity
  8
DD0
100
AcDbText
 10
178.401148
 20
238.335373
 40
3.5
  1
「標準」ＯＦＦ圧　２００ｋＰａ（吸上高さ３ｍ時）
 41
0.833333
  7
STANDARD
100
AcDbText
  0
LEADER
  5
50
100
AcDbEntity
  8
DD0
100
AcDbLeader
  3
LEADSTYL
 76
     3
 10
148.065659
 20
106.783195
 10
180.234711
 20
125.141823
 10
262.734711
 20
125.141823
340
51
 77
     4
  0
TEXT
  5
51
100
AcDbEntity
  8
DD0
100
AcDbText
 10
181.526377
 20
126.141823
 40
3.5
  1
「高」ＯＦＦ圧　３２０ｋＰａ（吸上高さ３ｍ時）
 41
0.833333
  7
STANDARD
100
AcDbText
  0
LEADER
  5
52
100
AcDbEntity
  8
DD0
100
AcDbLeader
  3
LEADSTYL
 76
     3
 10
156.767319
 20
101.383202
 10
180.234711
 20
117.600876
 10
266.234711
 20
117.600876
340
53
 77
     4
  0
TEXT
  5
53
100
AcDbEntity
  8
DD0
100
AcDbText
 10
181.526377
 20
118.600876
 40
3.5
  1
「標準」ＯＦＦ圧　２４０ｋＰａ（吸上高さ８ｍ時）
 41
0.833333
  7
STANDARD
100
AcDbText
  0
LEADER
  5
54
100
AcDbEntity
  8
DD0
100
AcDbLeader
  3
LEADSTYL
 76
     3
 10
166.14035
 20
92.383202
 10
180.234711
 20
109.248787
 10
266.234711
 20
109.248787
340
55
 77
     4
  0
TEXT
  5
55
100
AcDbEntity
  8
DD0
100
AcDbText
 10
181.526377
 20
110.248787
 40
3.5
  1
「標準」ＯＦＦ圧　２４０ｋＰａ（吸上高さ３ｍ時）
 41
0.833333
  7
STANDARD
100
AcDbText
  0
LINE
  5
56
100
AcDbEntity
  8
M0
100
AcDbLine
 10
163.148693
 20
264.817254
 11
163.148695
 21
270.217254
  0
LINE
  5
57
100
AcDbEntity
  8
M0
100
AcDbLine
 10
163.148695
 20
270.217254
 11
197.848694
 21
270.217254
  0
LINE
  5
58
100
AcDbEntity
  8
M0
100
AcDbLine
 10
197.848694
 20
270.217254
 11
197.848692
 21
264.817254
  0
LINE
  5
59
100
AcDbEntity
  8
M0
100
AcDbLine
 10
197.848692
 20
264.817254
 11
163.148693
 21
264.817254
  0
TEXT
  5
5A
100
AcDbEntity
  8
M0
100
AcDbText
 10
163.782027
 20
265.267254
 40
4.5
  1
　ＷＭ－Ｐ１２５Ｗ　
 41
0.62963
  7
STANDARD
100
AcDbText
  0
LINE
  5
5B
100
AcDbEntity
  8
M0
100
AcDbLine
 10
163.148694
 20
135.745477
 11
163.148696
 21
141.145477
  0
LINE
  5
5C
100
AcDbEntity
  8
M0
100
AcDbLine
 10
163.148696
 20
141.145477
 11
197.848695
 21
141.145477
  0
LINE
  5
5D
100
AcDbEntity
  8
M0
100
AcDbLine
 10
197.848695
 20
141.145477
 11
197.848693
 21
135.745477
  0
LINE
  5
5E
100
AcDbEntity
  8
M0
100
AcDbLine
 10
197.848693
 20
135.745477
 11
163.148694
 21
135.745477
  0
TEXT
  5
5F
100
AcDbEntity
  8
M0
100
AcDbText
 10
163.782027
 20
136.195477
 40
4.5
  1
　ＷＭ－Ｐ２００Ｗ　
 41
0.62963
  7
STANDARD
100
AcDbText
  0
LINE
  5
60
100
AcDbEntity
  8
M0
100
AcDbLine
 10
93.251256
 20
267.19799
 11
63.251256
 21
267.19799
  0
LINE
  5
61
100
AcDbEntity
  8
M0
100
AcDbLine
 10
93.251256
 20
257.19799
 11
93.251256
 21
267.19799
  0
LINE
  5
62
100
AcDbEntity
  8
M0
100
AcDbLine
 10
63.251256
 20
257.19799
 11
93.251256
 21
257.19799
  0
LINE
  5
63
100
AcDbEntity
  8
M0
100
AcDbLine
 10
63.251256
 20
267.19799
 11
63.251256
 21
257.19799
  0
TEXT
  5
64
100
AcDbEntity
  8
M0
100
AcDbText
 10
65.677922
 20
258.69799
 40
7.0
  1
揚水性能
 41
0.780952
  7
STANDARD
100
AcDbText
  0
LINE
  5
65
100
AcDbEntity
  8
M46
  6
DASHED
 62
     1
100
AcDbLine
 10
128.662312
 20
229.663317
 11
158.222111
 21
229.663317
  0
LINE
  5
66
100
AcDbEntity
  8
M46
 62
     1
100
AcDbLine
 10
170.197312
 20
193.663317
 11
161.119307
 21
227.441939
  0
ARC
  5
67
100
AcDbEntity
  8
M46
 62
     1
100
AcDbCircle
 10
158.222111
 20
226.663317
 40
3.0
100
AcDbArc
 50
15.042801
 51
90.0
  0
LINE
  5
68
100
AcDbEntity
  8
M46
 62
   234
100
AcDbLine
 10
128.662312
 20
238.663317
 11
128.662312
 21
179.263317
  0
LINE
  5
69
100
AcDbEntity
  8
M46
 62
   234
100
AcDbLine
 10
191.662312
 20
179.263317
 11
128.662312
 21
179.263317
  0
LINE
  5
6A
100
AcDbEntity
  8
M46
 62
   234
100
AcDbLine
 10
146.662312
 20
238.663317
 11
146.662312
 21
179.263317
  0
LINE
  5
6B
100
AcDbEntity
  8
M46
 62
   234
100
AcDbLine
 10
164.662312
 20
238.663317
 11
164.662312
 21
179.263317
  0
LINE
  5
6C
100
AcDbEntity
  8
M46
 62
   234
100
AcDbLine
 10
182.662312
 20
228.010913
 11
182.662312
 21
179.263317
  0
LINE
  5
6D
100
AcDbEntity
  8
M46
 62
   234
100
AcDbLine
 10
128.662312
 20
197.263317
 11
191.662312
 21
197.263317
  0
LINE
  5
6E
100
AcDbEntity
  8
M46
 62
   234
100
AcDbLine
 10
128.662312
 20
215.263317
 11
196.259803
 21
215.263317
  0
LINE
  5
6F
100
AcDbEntity
  8
M46
 62
   234
100
AcDbLine
 10
128.662312
 20
233.263317
 11
175.462312
 21
233.263317
  0
TEXT
  5
70
100
AcDbEntity
  8
M46
 62
   234
100
AcDbText
 10
180.626399
 20
174.613241
 40
4.05
  1
３０
 41
0.555556
  7
STANDARD
100
AcDbText
  0
TEXT
  5
71
100
AcDbEntity
  8
M46
 62
   234
100
AcDbText
 10
162.626402
 20
174.613241
 40
4.05
  1
２０
 41
0.555556
  7
STANDARD
100
AcDbText
  0
TEXT
  5
72
100
AcDbEntity
  8
M46
 62
   234
100
AcDbText
 10
144.626399
 20
174.613241
 40
4.05
  1
１０
 41
0.555556
  7
STANDARD
100
AcDbText
  0
TEXT
  5
73
100
AcDbEntity
  8
M46
 62
   234
100
AcDbText
 10
127.889503
 20
174.613241
 40
4.05
  1
０
 41
0.555556
  7
STANDARD
100
AcDbText
  0
TEXT
  5
74
100
AcDbEntity
  8
M46
 62
   234
100
AcDbText
 10
125.940528
 20
177.112219
 40
4.05
  1
０
 41
0.555556
  7
STANDARD
100
AcDbText
  0
TEXT
  5
75
100
AcDbEntity
  8
M46
 62
   234
100
AcDbText
 10
122.920716
 20
195.580294
 40
4.05
  1
１０
 41
0.555556
  7
STANDARD
100
AcDbText
  0
TEXT
  5
76
100
AcDbEntity
  8
M46
 62
   234
100
AcDbText
 10
122.920716
 20
213.580292
 40
4.05
  1
２０
 41
0.555556
  7
STANDARD
100
AcDbText
  0
TEXT
  5
77
100
AcDbEntity
  8
M46
 62
   234
100
AcDbText
 10
122.920716
 20
231.580294
 40
4.05
  1
３０
 41
0.555556
  7
STANDARD
100
AcDbText
  0
TEXT
  5
78
100
AcDbEntity
  8
M46
 62
   234
100
AcDbText
 10
149.697065
 20
167.468763
 40
4.5
  1
揚水量（Ｌ／分）
 41
0.777778
  7
STANDARD
100
AcDbText
  0
TEXT
  5
79
100
AcDbEntity
  8
M46
 62
   234
100
AcDbText
 10
113.954651
 20
215.19674
 40
4.0
  1
全
 41
0.9375
  7
STANDARD
100
AcDbText
  0
TEXT
  5
7A
100
AcDbEntity
  8
M46
 62
   234
100
AcDbText
 10
113.954651
 20
210.99674
 40
4.0
  1
揚
 41
0.9375
  7
STANDARD
100
AcDbText
  0
TEXT
  5
7B
100
AcDbEntity
  8
M46
 62
   234
100
AcDbText
 10
113.954651
 20
206.79674
 40
4.0
  1
程
 41
0.9375
  7
STANDARD
100
AcDbText
  0
TEXT
  5
7C
100
AcDbEntity
  8
M46
 62
   234
100
AcDbText
 10
113.954651
 20
202.59674
 40
4.0
  1
　
 41
0.9375
  7
STANDARD
100
AcDbText
  0
TEXT
  5
7D
100
AcDbEntity
  8
M46
 62
   234
100
AcDbText
 10
113.954651
 20
198.39674
 40
4.0
  1
ｍ
 41
0.9375
  7
STANDARD
100
AcDbText
  0
TEXT
  5
7E
100
AcDbEntity
  8
M46
 62
   234
100
AcDbText
 10
118.103333
 20
194.040519
 40
4.5
  1
（　）
 50
90.000003
 41
0.777778
  7
STANDARD
100
AcDbText
  0
LINE
  5
7F
100
AcDbEntity
  8
M46
 62
   234
100
AcDbLine
 10
182.662312
 20
226.808096
 11
182.662312
 21
179.263317
  0
LINE
  5
80
100
AcDbEntity
  8
M46
 62
   234
100
AcDbLine
 10
128.662312
 20
215.263317
 11
191.662312
 21
215.263317
  0
TEXT
  5
81
100
AcDbEntity
  8
M46
100
AcDbText
 10
129.474575
 20
159.950913
 40
4.0
  1
※破線部域では５０ｋＰａの圧力変動があります。
 41
0.770833
  7
STANDARD
100
AcDbText
  0
LINE
  5
82
100
AcDbEntity
  8
M46
  6
DASHED
 62
     3
100
AcDbLine
 10
128.662312
 20
227.863317
 11
157.056002
 21
227.863317
  0
LINE
  5
83
100
AcDbEntity
  8
M46
 62
     3
100
AcDbLine
 10
159.060007
 20
227.095796
 11
165.632812
 21
221.195657
  0
LINE
  5
84
100
AcDbEntity
  8
M46
 62
     3
100
AcDbLine
 10
189.564878
 20
184.663317
 11
166.659355
 21
219.994633
  0
ARC
  5
85
100
AcDbEntity
  8
M46
 62
     3
100
AcDbCircle
 10
157.056002
 20
224.863317
 40
3.0
100
AcDbArc
 50
48.086969
 51
90.0
  0
ARC
  5
86
100
AcDbEntity
  8
M46
 62
     3
100
AcDbCircle
 10
161.624801
 20
216.730699
 40
6.0
100
AcDbArc
 50
32.955604
 51
48.086969
  0
ARC
  5
87
100
AcDbEntity
  8
M46
 62
     3
100
AcDbCircle
 10
164.595471
 20
217.663317
 40
3.0
100
AcDbArc
 50
32.955604
 51
90.0
  0
LINE
  5
88
100
AcDbEntity
  8
M46
  6
DASHED
 62
     3
100
AcDbLine
 10
128.662312
 20
220.663317
 11
164.595471
 21
220.663317
  0
LINE
  5
89
100
AcDbEntity
  8
M46
 62
   234
100
AcDbLine
 10
128.662312
 20
117.583198
 11
128.662312
 21
43.783197
  0
LINE
  5
8A
100
AcDbEntity
  8
M46
 62
   234
100
AcDbLine
 10
211.462313
 20
43.783197
 11
128.662312
 21
43.783197
  0
LINE
  5
8B
100
AcDbEntity
  8
M46
 62
   234
100
AcDbLine
 10
146.662312
 20
117.583198
 11
146.662312
 21
43.783197
  0
LINE
  5
8C
100
AcDbEntity
  8
M46
 62
   234
100
AcDbLine
 10
164.662312
 20
111.796676
 11
164.662312
 21
43.783197
  0
LINE
  5
8D
100
AcDbEntity
  8
M46
 62
   234
100
AcDbLine
 10
182.662312
 20
92.530794
 11
182.662312
 21
43.783197
  0
LINE
  5
8E
100
AcDbEntity
  8
M46
 62
   234
100
AcDbLine
 10
128.662312
 20
61.783197
 11
211.462313
 21
61.783197
  0
LINE
  5
8F
100
AcDbEntity
  8
M46
 62
   234
100
AcDbLine
 10
128.662312
 20
79.783198
 11
196.259803
 21
79.783198
  0
LINE
  5
90
100
AcDbEntity
  8
M46
 62
   234
100
AcDbLine
 10
128.662312
 20
97.783198
 11
175.462312
 21
97.783198
  0
TEXT
  5
91
100
AcDbEntity
  8
M46
 62
   234
100
AcDbText
 10
180.626399
 20
39.133122
 40
4.05
  1
３０
 41
0.555556
  7
STANDARD
100
AcDbText
  0
TEXT
  5
92
100
AcDbEntity
  8
M46
 62
   234
100
AcDbText
 10
162.626402
 20
39.133122
 40
4.05
  1
２０
 41
0.555556
  7
STANDARD
100
AcDbText
  0
TEXT
  5
93
100
AcDbEntity
  8
M46
 62
   234
100
AcDbText
 10
144.626399
 20
39.133122
 40
4.05
  1
１０
 41
0.555556
  7
STANDARD
100
AcDbText
  0
TEXT
  5
94
100
AcDbEntity
  8
M46
 62
   234
100
AcDbText
 10
127.889503
 20
39.133122
 40
4.05
  1
０
 41
0.555556
  7
STANDARD
100
AcDbText
  0
TEXT
  5
95
100
AcDbEntity
  8
M46
 62
   234
100
AcDbText
 10
125.940528
 20
41.6321
 40
4.05
  1
０
 41
0.555556
  7
STANDARD
100
AcDbText
  0
TEXT
  5
96
100
AcDbEntity
  8
M46
 62
   234
100
AcDbText
 10
122.920716
 20
60.100174
 40
4.05
  1
１０
 41
0.555556
  7
STANDARD
100
AcDbText
  0
TEXT
  5
97
100
AcDbEntity
  8
M46
 62
   234
100
AcDbText
 10
122.920716
 20
78.100173
 40
4.05
  1
２０
 41
0.555556
  7
STANDARD
100
AcDbText
  0
TEXT
  5
98
100
AcDbEntity
  8
M46
 62
   234
100
AcDbText
 10
122.920716
 20
96.100174
 40
4.05
  1
３０
 41
0.555556
  7
STANDARD
100
AcDbText
  0
TEXT
  5
99
100
AcDbEntity
  8
M46
 62
   234
100
AcDbText
 10
155.266236
 20
31.988644
 40
4.5
  1
揚水量（Ｌ／分）
 41
0.777778
  7
STANDARD
100
AcDbText
  0
TEXT
  5
9A
100
AcDbEntity
  8
M46
 62
   234
100
AcDbText
 10
113.954651
 20
89.100434
 40
4.0
  1
全
 41
0.9375
  7
STANDARD
100
AcDbText
  0
TEXT
  5
9B
100
AcDbEntity
  8
M46
 62
   234
100
AcDbText
 10
113.954651
 20
84.900434
 40
4.0
  1
揚
 41
0.9375
  7
STANDARD
100
AcDbText
  0
TEXT
  5
9C
100
AcDbEntity
  8
M46
 62
   234
100
AcDbText
 10
113.954651
 20
80.700434
 40
4.0
  1
程
 41
0.9375
  7
STANDARD
100
AcDbText
  0
TEXT
  5
9D
100
AcDbEntity
  8
M46
 62
   234
100
AcDbText
 10
113.954651
 20
76.500434
 40
4.0
  1
　
 41
0.9375
  7
STANDARD
100
AcDbText
  0
TEXT
  5
9E
100
AcDbEntity
  8
M46
 62
   234
100
AcDbText
 10
113.954651
 20
72.300434
 40
4.0
  1
ｍ
 41
0.9375
  7
STANDARD
100
AcDbText
  0
TEXT
  5
9F
100
AcDbEntity
  8
M46
 62
   234
100
AcDbText
 10
118.103333
 20
67.944214
 40
4.5
  1
（　）
 50
90.000003
 41
0.777778
  7
STANDARD
100
AcDbText
  0
LINE
  5
A0
100
AcDbEntity
  8
M46
 62
   234
100
AcDbLine
 10
128.662312
 20
115.783198
 11
155.589086
 21
115.783198
  0
TEXT
  5
A1
100
AcDbEntity
  8
M46
 62
   234
100
AcDbText
 10
122.920716
 20
114.100144
 40
4.05
  1
４０
 41
0.555556
  7
STANDARD
100
AcDbText
  0
LINE
  5
A2
100
AcDbEntity
  8
M46
 62
   234
100
AcDbLine
 10
200.662313
 20
68.055668
 11
200.662313
 21
43.783197
  0
TEXT
  5
A3
100
AcDbEntity
  8
M46
 62
   234
100
AcDbText
 10
198.6264
 20
39.133122
 40
4.05
  1
４０
 41
0.555556
  7
STANDARD
100
AcDbText
  0
LINE
  5
A4
100
AcDbEntity
  8
M46
 62
   234
100
AcDbLine
 10
182.662312
 20
91.327976
 11
182.662312
 21
43.783197
  0
LINE
  5
A5
100
AcDbEntity
  8
M46
 62
   234
100
AcDbLine
 10
128.662312
 20
79.783198
 11
200.662313
 21
79.783198
  0
TEXT
  5
A6
100
AcDbEntity
  8
M46
100
AcDbText
 10
129.474575
 20
24.470794
 40
4.0
  1
※破線部域では５０ｋＰａの圧力変動があります。
 41
0.770833
  7
STANDARD
100
AcDbText
  0
LINE
  5
A7
100
AcDbEntity
  8
M46
 62
     5
100
AcDbLine
 10
177.531872
 20
92.740217
 11
176.002312
 21
94.183198
  0
LINE
  5
A8
100
AcDbEntity
  8
M46
 62
     5
100
AcDbLine
 10
176.002312
 20
94.183198
 11
160.342312
 21
103.183198
  0
LINE
  5
A9
100
AcDbEntity
  8
M46
 62
     5
100
AcDbLine
 10
160.342312
 20
103.183198
 11
154.695581
 21
106.391568
  0
LINE
  5
AA
100
AcDbEntity
  8
M46
  6
DASHED
 62
     5
100
AcDbLine
 10
128.662312
 20
106.783198
 11
153.213553
 21
106.783198
  0
LINE
  5
AB
100
AcDbEntity
  8
M46
 62
     5
100
AcDbLine
 10
178.146438
 20
91.919599
 11
199.913513
 21
49.183197
  0
ARC
  5
AC
100
AcDbEntity
  8
M46
 62
     5
100
AcDbCircle
 10
153.213553
 20
103.783198
 40
3.0
100
AcDbArc
 50
60.395549
 51
90.0
  0
ARC
  5
AD
100
AcDbEntity
  8
M46
 62
     5
100
AcDbCircle
 10
175.473211
 20
90.558036
 40
3.0
100
AcDbArc
 50
26.991261
 51
46.668337
  0
ARC
  5
AE
100
AcDbEntity
  8
M46
 62
     5
100
AcDbCircle
 10
176.071595
 20
89.383198
 40
3.0
100
AcDbArc
 50
26.991261
 51
90.0
  0
LINE
  5
AF
100
AcDbEntity
  8
M46
 62
   114
100
AcDbLine
 10
179.609637
 20
67.694214
 11
179.892603
 21
76.183198
  0
LINE
  5
B0
100
AcDbEntity
  8
M46
 62
   114
100
AcDbLine
 10
179.892603
 20
76.183198
 11
180.232318
 21
84.67606
  0
LINE
  5
B1
100
AcDbEntity
  8
M46
 62
   114
100
AcDbLine
 10
173.429493
 20
95.486287
 11
164.970318
 21
100.908835
  0
LINE
  5
B2
100
AcDbEntity
  8
M46
 62
   114
100
AcDbLine
 10
172.564861
 20
58.183197
 11
177.924581
 21
63.721574
  0
LINE
  5
B3
100
AcDbEntity
  8
M46
  6
DASHED
 62
   114
100
AcDbLine
 10
128.662312
 20
101.383198
 11
163.351319
 21
101.383198
  0
ARC
  5
B4
100
AcDbEntity
  8
M46
 62
   114
100
AcDbCircle
 10
163.351319
 20
98.383198
 40
3.0
100
AcDbArc
 50
57.339087
 51
90.0
  0
ARC
  5
B5
100
AcDbEntity
  8
M46
 62
   114
100
AcDbCircle
 10
173.612968
 20
67.894103
 40
6.0
100
AcDbArc
 50
315.939191
 51
358.090848
  0
LINE
  5
B6
100
AcDbEntity
  8
M46
 62
   114
100
AcDbLine
 10
179.694475
 20
86.513399
 11
173.429493
 21
95.486287
  0
ARC
  5
B7
100
AcDbEntity
  8
M46
 62
   114
100
AcDbCircle
 10
177.234715
 20
84.795964
 40
3.0
100
AcDbArc
 50
357.70939
 51
394.923225
  0
LINE
  5
B8
100
AcDbEntity
  8
M46
  6
DASHED
 62
     5
100
AcDbLine
 10
176.071595
 20
92.383198
 11
128.662312
 21
92.383198
  0
ENDSEC
  0
SECTION
  2
OBJECTS
  0
DICTIONARY
  5
C
100
AcDbDictionary
  3
ACAD_GROUP
350
D
  3
ACAD_MLINESTYLE
350
E
  0
DICTIONARY
  5
D
102
{ACAD_REACTORS
330
C
102
}
100
AcDbDictionary
  0
DICTIONARY
  5
E
102
{ACAD_REACTORS
330
C
102
}
100
AcDbDictionary
  3
STANDARD
350
13
  0
MLINESTYLE
  5
13
102
{ACAD_REACTORS
330
E
102
}
100
AcDbMlineStyle
  2
STANDARD
 70
     0
  3

 62
     0
 51
90.0
 52
90.0
 71
     2
 49
0.5
 62
   256
  6
BYLAYER
 49
-0.5
 62
   256
  6
BYLAYER
  0
ENDSEC
  0
EOF
