  0
SECTION
  2
HEADER
  9
$ACADVER
  1
AC1012
  9
$INSBASE
 10
0.0
 20
0.0
  9
$VIEWCTR
 10
7.531722
 20
4.5
  9
$VIEWSIZE
 40
9.0
  9
$SNAPMODE
 70
     0
  9
$SNAPUNIT
 10
1.0
 20
1.0
  9
$SNAPBASE
 10
0.0
 20
0.0
  9
$SNAPANG
 50
0.0
  9
$SNAPSTYLE
 70
     0
  9
$SNAPISOPAIR
 70
     0
  9
$GRIDMODE
 70
     0
  9
$GRIDUNIT
 10
0.0
 20
0.0
  9
$ORTHOMODE
 70
     0
  9
$REGENMODE
 70
     1
  9
$FILLMODE
 70
     1
  9
$QTEXTMODE
 70
     0
  9
$DRAGMODE
 70
     2
  9
$LTSCALE
 40
1.0
  9
$OSMODE
 70
     0
  9
$ATTMODE
 70
     1
  9
$TEXTSIZE
 40
0.2
  9
$TRACEWID
 40
0.05
  9
$TEXTSTYLE
  7
STANDARD
  9
$CELTYPE
  6
BYLAYER
  9
$CECOLOR
 62
   256
  9
$DIMSCALE
 40
1.0
  9
$DIMASZ
 40
0.18
  9
$DIMEXO
 40
0.0625
  9
$DIMDLI
 40
0.38
  9
$DIMRND
 40
0.0
  9
$DIMDLE
 40
0.0
  9
$DIMEXE
 40
0.18
  9
$DIMTP
 40
0.0
  9
$DIMTM
 40
0.0
  9
$DIMTXT
 40
0.18
  9
$DIMCEN
 40
0.09
  9
$DIMTSZ
 40
0.0
  9
$DIMTOL
 70
     0
  9
$DIMLIM
 70
     0
  9
$DIMTIH
 70
     1
  9
$DIMTOH
 70
     1
  9
$DIMSE1
 70
     0
  9
$DIMSE2
 70
     0
  9
$DIMTAD
 70
     0
  9
$DIMZIN
 70
     0
  9
$DIMBLK
  1

  9
$LUNITS
 70
     2
  9
$LUPREC
 70
     4
  9
$AXISMODE
 70
     0
  9
$AXISUNIT
 10
0.0
 20
0.0
  9
$SKETCHINC
 40
0.1
  9
$FILLETRAD
 40
0.0
  9
$AUNITS
 70
     0
  9
$AUPREC
 70
     0
  9
$MENU
  1
ACAD
  9
$ELEVATION
 40
0.0
  9
$THICKNESS
 40
0.0
  9
$VIEWDIR
 10
0.0
 20
0.0
 30
1.0
  9
$LIMCHECK
 70
     0
  9
$BLIPMODE
 70
     1
  9
$CHAMFERA
 40
0.0
  9
$CHAMFERB
 40
0.0
  9
$FASTZOOM
 70
     1
  9
$SKPOLY
 70
     0
  9
$TDCREATE
 40
0000000.0000000000
  9
$TDUPDATE
 40
0000000.0000000000
  9
$TDINDWG
 40
0.0000000000
  9
$TDUSRTIMER
 40
0.0000000000
  9
$USRTIMER
 70
     1
  9
$ANGBASE
 50
0.0
  9
$ANGDIR
 70
     0
  9
$PDMODE
 70
     0
  9
$PDSIZE
 40
0.0
  9
$PLINEWID
 40
0.0
  9
$COORDS
 70
     0
  9
$USERI1
 70
     0
  9
$USERI2
 70
     0
  9
$USERI3
 70
     0
  9
$USERI4
 70
     0
  9
$USERI5
 70
     0
  9
$USERR1
 40
0.0
  9
$USERR2
 40
0.0
  9
$USERR3
 40
0.0
  9
$USERR4
 40
0.0
  9
$USERR5
 40
0.0
  9
$CLAYER
  8
M0
  9
$EXTMIN
 10
0.0
 20
0.0
  9
$EXTMAX
 10
420.0
 20
297.0
  9
$LIMMIN
 10
0.0
 20
0.0
  9
$LIMMAX
 10
420.0
 20
297.0
  9
$HANDSEED
  5
BE
  0
ENDSEC
  0
SECTION
  2
CLASSES
  0
ENDSEC
  0
SECTION
  2
TABLES
  0
TABLE
  2
VPORT
  5
8
100
AcDbSymbolTable
 70
     2
  0
VPORT
  5
14
100
AcDbSymbolTableRecord
100
AcDbViewportTableRecord
  2
*ACTIVE
 70
     0
 10
0.0
 20
0.0
 11
1.0
 21
1.0
 12
484.0
 22
297.0
 13
0.0
 23
0.0
 14
1.0
 24
1.0
 15
0.0
 25
0.0
 16
0.0
 26
0.0
 36
1.0
 17
0.0
 27
0.0
 37
0.0
 40
594.0
 41
2.0
 42
50.0
 43
0.0
 44
0.0
 50
0.0
 51
0.0
 71
     0
 72
   100
 73
     1
 74
     1
 75
     0
 76
     0
 77
     0
 78
     0
  0
ENDTAB
  0
TABLE
  2
LTYPE
  5
5
100
AcDbSymbolTable
 70
     5
  0
LTYPE
  5
15
100
AcDbSymbolTableRecord
100
AcDbLinetypeTableRecord
  2
BYBLOCK
 70
     0
  3

 72
    65
 73
     0
 40
0.0
  0
LTYPE
  5
16
100
AcDbSymbolTableRecord
100
AcDbLinetypeTableRecord
  2
BYLAYER
 70
     0
  3

 72
    65
 73
     0
 40
0.0
  0
LTYPE
  5
17
100
AcDbSymbolTableRecord
100
AcDbLinetypeTableRecord
  2
CONTINUOUS
 70
    64
  3
Solid line
 72
    65
 73
     0
 40
0.0
  0
LTYPE
  5
18
100
AcDbSymbolTableRecord
100
AcDbLinetypeTableRecord
  2
DASHED
 70
    64
  3
__ __ __ __ __ __ __ __ __ __ __ __ __ __ __ __
 72
    65
 73
     2
 40
0.75
 49
0.5
 74
     0
 49
-0.25
 74
     0
  0
LTYPE
  5
19
100
AcDbSymbolTableRecord
100
AcDbLinetypeTableRecord
  2
DASHDOT
 70
    64
  3
__ . __ . __ . __ . __ . __ . __ . __ . __ . __
 72
    65
 73
     4
 40
1.0
 49
0.5
 74
     0
 49
-0.25
 74
     0
 49
0.0
 74
     0
 49
-0.25
 74
     0
  0
LTYPE
  5
1A
100
AcDbSymbolTableRecord
100
AcDbLinetypeTableRecord
  2
DIVIDE
 70
    64
  3
____ . . ____ . . ____ . . ____ . . ____ . . __
 72
    65
 73
     6
 40
1.25
 49
0.5
 74
     0
 49
-0.25
 74
     0
 49
0.0
 74
     0
 49
-0.25
 74
     0
 49
0.0
 74
     0
 49
-0.25
 74
     0
  0
LTYPE
  5
1B
100
AcDbSymbolTableRecord
100
AcDbLinetypeTableRecord
  2
DOT
 70
    64
  3
. . . . . . . . . . . . . . . . . . . . . . . .
 72
    65
 73
     2
 40
0.25
 49
0.0
 74
     0
 49
-0.25
 74
     0
  0
ENDTAB
  0
TABLE
  2
LAYER
  5
2
100
AcDbSymbolTable
 70
   102
  0
LAYER
  5
F
100
AcDbSymbolTableRecord
100
AcDbLayerTableRecord
  2
0
 70
     0
 62
     7
  6
CONTINUOUS
  0
LAYER
  5
1C
100
AcDbSymbolTableRecord
100
AcDbLayerTableRecord
  2
DEFPOINTS
 70
     0
 62
     7
  6
CONTINUOUS
  0
LAYER
  5
1D
100
AcDbSymbolTableRecord
100
AcDbLayerTableRecord
  2
M0
 70
     0
 62
     3
  6
CONTINUOUS
  0
LAYER
  5
1E
100
AcDbSymbolTableRecord
100
AcDbLayerTableRecord
  2
M46
 70
     0
 62
     3
  6
CONTINUOUS
  0
LAYER
  5
1F
100
AcDbSymbolTableRecord
100
AcDbLayerTableRecord
  2
DD0
 70
     0
 62
     4
  6
CONTINUOUS
  0
ENDTAB
  0
TABLE
  2
STYLE
  5
3
100
AcDbSymbolTable
 70
     2
  0
STYLE
  5
10
100
AcDbSymbolTableRecord
100
AcDbTextStyleTableRecord
  2
STANDARD
 70
     0
 40
0.0
 41
1.0
 50
0.0
 71
     0
 42
0.2
  3
txt
  4
BIGFONT
  0
ENDTAB
  0
TABLE
  2
VIEW
  5
6
100
AcDbSymbolTable
 70
     0
  0
ENDTAB
  0
TABLE
  2
UCS
  5
7
100
AcDbSymbolTable
 70
     0
  0
ENDTAB
  0
TABLE
  2
APPID
  5
9
100
AcDbSymbolTable
 70
     1
  0
APPID
  5
11
100
AcDbSymbolTableRecord
100
AcDbRegAppTableRecord
  2
ACAD
 70
     0
  0
ENDTAB
  0
TABLE
  2
DIMSTYLE
  5
A
100
AcDbSymbolTable
 70
     2
  0
DIMSTYLE
105
26
100
AcDbSymbolTableRecord
100
AcDbDimStyleTableRecord
  2
STANDARD
 70
     0
  3

  4

  5

  6
_OPEN
  7
_OPEN
 40
1.0
 41
3.0
 42
0.0
 43
8.0
 44
1.5
 45
0.0
 46
0.0
 47
0.0
 48
0.0
140
3.5
141
0.09
142
0.0
143
0.03937
144
1.0
145
0.0
146
1.0
147
1.0
 71
     0
 72
     0
 73
     0
 74
     0
 75
     0
 76
     0
 77
     3
 78
     8
170
     0
171
     2
172
     0
173
     1
174
     0
175
     0
176
     0
177
     0
178
     0
270
     2
271
     2
272
     4
273
     2
274
     2
340
10
275
     0
280
     0
281
     0
282
     0
283
     1
284
     0
285
     0
286
     0
287
     3
288
     0
  0
DIMSTYLE
105
27
100
AcDbSymbolTableRecord
100
AcDbDimStyleTableRecord
  2
LEADSTYL
 70
     0
  3

  4

  5

  6
_OPEN
  7
_OPEN
 40
1.0
 41
3.0
 42
0.0625
 43
0.38
 44
0.18
 45
0.0
 46
0.0
 47
0.0
 48
0.0
140
3.2
141
0.09
142
0.0
143
25.4
144
1.0
145
0.0
146
1.0
147
1.0
 71
     0
 72
     0
 73
     1
 74
     1
 75
     0
 76
     0
 77
     0
 78
     0
170
     0
171
     2
172
     0
173
     1
174
     0
175
     0
176
     0
177
     0
178
     0
270
     2
271
     4
272
     4
273
     2
274
     2
340
10
275
     0
280
     0
281
     0
282
     0
283
     1
284
     0
285
     0
286
     0
287
     3
288
     0
  0
ENDTAB
  0
TABLE
  2
BLOCK_RECORD
  5
1
100
AcDbSymbolTable
 70
     6
  0
BLOCK_RECORD
  5
20
100
AcDbSymbolTableRecord
100
AcDbBlockTableRecord
  2
*MODEL_SPACE
  0
BLOCK_RECORD
  5
23
100
AcDbSymbolTableRecord
100
AcDbBlockTableRecord
  2
*PAPER_SPACE
  0
BLOCK_RECORD
  5
28
100
AcDbSymbolTableRecord
100
AcDbBlockTableRecord
  2
_NONE
  0
BLOCK_RECORD
  5
2C
100
AcDbSymbolTableRecord
100
AcDbBlockTableRecord
  2
_OPEN
  0
BLOCK_RECORD
  5
32
100
AcDbSymbolTableRecord
100
AcDbBlockTableRecord
  2
_CLOSED
  0
BLOCK_RECORD
  5
39
100
AcDbSymbolTableRecord
100
AcDbBlockTableRecord
  2
_ORIGIN
  0
BLOCK_RECORD
  5
3E
100
AcDbSymbolTableRecord
100
AcDbBlockTableRecord
  2
_DOT
  0
BLOCK_RECORD
  5
46
100
AcDbSymbolTableRecord
100
AcDbBlockTableRecord
  2
_OBLIQUE
  0
ENDTAB
  0
ENDSEC
  0
SECTION
  2
BLOCKS
  0
BLOCK
  5
21
100
AcDbEntity
  8
0
100
AcDbBlockBegin
  2
*MODEL_SPACE
 70
     0
 10
0.0
 20
0.0
 30
0.0
  3
*MODEL_SPACE
  1

  0
ENDBLK
  5
22
100
AcDbEntity
  8
0
100
AcDbBlockEnd
  0
BLOCK
  5
24
100
AcDbEntity
 67
     1
  8
0
100
AcDbBlockBegin
  2
*PAPER_SPACE
 70
     0
 10
0.0
 20
0.0
 30
0.0
  3
*PAPER_SPACE
  1

  0
ENDBLK
  5
25
100
AcDbEntity
 67
     1
  8
0
100
AcDbBlockEnd
  0
BLOCK
  5
29
100
AcDbEntity
  8
0
100
AcDbBlockBegin
  2
_NONE
 70
     0
 10
0.0
 20
0.0
  0
CIRCLE
  5
2A
100
AcDbEntity
  8
0
 62
     0
100
AcDbCircle
 10
0.0
 20
0.0
 40
0.25
  0
ENDBLK
  5
2B
100
AcDbEntity
  8
0
100
AcDbBlockEnd
  0
BLOCK
  5
2D
100
AcDbEntity
  8
0
100
AcDbBlockBegin
  2
_OPEN
 70
     0
 10
0.0
 20
0.0
  0
LINE
  5
2E
100
AcDbEntity
  8
0
 62
     0
100
AcDbLine
 10
-0.965926
 20
0.258819
 11
0.0
 21
0.0
  0
LINE
  5
2F
100
AcDbEntity
  8
0
 62
     0
100
AcDbLine
 10
0.0
 20
0.0
 11
-0.965926
 21
-0.258819
  0
LINE
  5
30
100
AcDbEntity
  8
0
 62
     0
100
AcDbLine
 10
0.0
 20
0.0
 11
-1.0
 21
0.0
  0
ENDBLK
  5
31
100
AcDbEntity
  8
0
100
AcDbBlockEnd
  0
BLOCK
  5
33
100
AcDbEntity
  8
0
100
AcDbBlockBegin
  2
_CLOSED
 70
     0
 10
0.0
 20
0.0
  0
LINE
  5
34
100
AcDbEntity
  8
0
 62
     0
100
AcDbLine
 10
-0.965926
 20
0.258819
 11
0.0
 21
0.0
  0
LINE
  5
35
100
AcDbEntity
  8
0
 62
     0
100
AcDbLine
 10
0.0
 20
0.0
 11
-0.965926
 21
-0.258819
  0
LINE
  5
36
100
AcDbEntity
  8
0
 62
     0
100
AcDbLine
 10
-0.965926
 20
0.258819
 11
-0.965926
 21
-0.258819
  0
LINE
  5
37
100
AcDbEntity
  8
0
 62
     0
100
AcDbLine
 10
0.0
 20
0.0
 11
-1.0
 21
0.0
  0
ENDBLK
  5
38
100
AcDbEntity
  8
0
100
AcDbBlockEnd
  0
BLOCK
  5
3A
100
AcDbEntity
  8
0
100
AcDbBlockBegin
  2
_ORIGIN
 70
     0
 10
0.0
 20
0.0
  0
CIRCLE
  5
3B
100
AcDbEntity
  8
0
 62
     0
100
AcDbCircle
 10
0.0
 20
0.0
 40
0.5
  0
LINE
  5
3C
100
AcDbEntity
  8
0
 62
     0
100
AcDbLine
 10
0.0
 20
0.0
 11
-1.0
 21
0.0
  0
ENDBLK
  5
3D
100
AcDbEntity
  8
0
100
AcDbBlockEnd
  0
BLOCK
  5
3F
100
AcDbEntity
  8
0
100
AcDbBlockBegin
  2
_DOT
 70
     0
 10
0.0
 20
0.0
  0
POLYLINE
  5
40
100
AcDbEntity
  8
0
 62
     0
100
AcDb2dPolyline
 66
     1
 70
     1
 40
0.5
 41
0.5
  0
VERTEX
  5
41
100
AcDbEntity
  8
0
 62
     0
100
AcDbVertex
100
AcDb2dVertex
 10
-0.25
 20
0.0
 42
1.0
  0
VERTEX
  5
42
100
AcDbEntity
  8
0
 62
     0
100
AcDbVertex
100
AcDb2dVertex
 10
0.25
 20
0.0
 42
1.0
  0
SEQEND
  5
43
100
AcDbEntity
  8
0
 62
     0
  0
LINE
  5
44
100
AcDbEntity
  8
0
 62
     0
100
AcDbLine
 10
-0.5
 20
0.0
 11
-1.0
 21
0.0
  0
ENDBLK
  5
45
100
AcDbEntity
  8
0
100
AcDbBlockEnd
  0
BLOCK
  5
47
100
AcDbEntity
  8
0
100
AcDbBlockBegin
  2
_OBLIQUE
 70
     0
 10
0.0
 20
0.0
  0
LINE
  5
48
100
AcDbEntity
  8
0
 62
     0
100
AcDbLine
 10
-0.353553
 20
-0.353553
 11
0.353553
 21
0.353553
  0
ENDBLK
  5
49
100
AcDbEntity
  8
0
100
AcDbBlockEnd
  0
ENDSEC
  0
SECTION
  2
ENTITIES
  0
LEADER
  5
4A
100
AcDbEntity
  8
DD0
100
AcDbLeader
  3
LEADSTYL
 76
     3
 10
152.44664
 20
242.263321
 10
188.33107
 20
259.432404
 10
267.331085
 20
259.432404
340
4B
 77
     4
  0
TEXT
  5
4B
100
AcDbEntity
  8
DD0
100
AcDbText
 10
189.622737
 20
260.432404
 40
3.5
  1
「高」ＯＦＦ圧３２０ｋＰａ（吸上高さ３ｍ時）
 41
0.833333
  7
STANDARD
100
AcDbText
  0
LEADER
  5
4C
100
AcDbEntity
  8
DD0
100
AcDbLeader
  3
LEADSTYL
 76
     3
 10
153.809341
 20
236.863312
 10
188.33107
 20
251.165176
 10
270.831055
 20
251.165176
340
4D
 77
     4
  0
TEXT
  5
4D
100
AcDbEntity
  8
DD0
100
AcDbText
 10
189.622737
 20
252.165176
 40
3.5
  1
「標準」ＯＦＦ圧２４０ｋＰａ（吸上高さ８ｍ時）
 41
0.833333
  7
STANDARD
100
AcDbText
  0
LEADER
  5
4E
100
AcDbEntity
  8
DD0
100
AcDbLeader
  3
LEADSTYL
 76
     3
 10
157.291794
 20
227.863312
 10
188.33107
 20
242.564621
 10
270.831055
 20
242.564621
340
4F
 77
     4
  0
TEXT
  5
4F
100
AcDbEntity
  8
DD0
100
AcDbText
 10
189.622737
 20
243.564621
 40
3.5
  1
「標準」ＯＦＦ圧２４０ｋＰａ（吸上高さ３ｍ時）
 41
0.833333
  7
STANDARD
100
AcDbText
  0
LEADER
  5
50
100
AcDbEntity
  8
DD0
100
AcDbLeader
  3
LEADSTYL
 76
     3
 10
148.559052
 20
99.583199
 10
177.672577
 20
116.516891
 10
260.172577
 20
116.516891
340
51
 77
     4
  0
TEXT
  5
51
100
AcDbEntity
  8
DD0
100
AcDbText
 10
178.964244
 20
117.516891
 40
3.5
  1
「標準」ＯＦＦ圧２４０ｋＰａ（吸上高さ７ｍ時）
 41
0.833333
  7
STANDARD
100
AcDbText
  0
LEADER
  5
52
100
AcDbEntity
  8
DD0
100
AcDbLeader
  3
LEADSTYL
 76
     3
 10
146.292053
 20
106.783195
 10
179.36702
 20
125.794823
 10
258.367004
 20
125.794823
340
53
 77
     4
  0
TEXT
  5
53
100
AcDbEntity
  8
DD0
100
AcDbText
 10
180.658686
 20
126.794823
 40
3.5
  1
「高」ＯＦＦ圧３２０ｋＰａ（吸上高さ３ｍ時）
 41
0.833333
  7
STANDARD
100
AcDbText
  0
LEADER
  5
54
100
AcDbEntity
  8
DD0
100
AcDbLeader
  3
LEADSTYL
 76
     3
 10
156.49733
 20
92.383202
 10
179.839478
 20
106.963448
 10
262.339478
 20
106.963448
340
55
 77
     4
  0
TEXT
  5
55
100
AcDbEntity
  8
DD0
100
AcDbText
 10
181.131144
 20
107.963448
 40
3.5
  1
「標準」ＯＦＦ圧２４０ｋＰａ（吸上高さ３ｍ時）
 41
0.833333
  7
STANDARD
100
AcDbText
  0
LINE
  5
56
100
AcDbEntity
  8
M0
100
AcDbLine
 10
147.848686
 20
267.712958
 11
147.848688
 21
273.112958
  0
LINE
  5
57
100
AcDbEntity
  8
M0
100
AcDbLine
 10
147.848688
 20
273.112958
 11
213.14869
 21
273.112958
  0
LINE
  5
58
100
AcDbEntity
  8
M0
100
AcDbLine
 10
213.14869
 20
273.112958
 11
213.148688
 21
267.712958
  0
LINE
  5
59
100
AcDbEntity
  8
M0
100
AcDbLine
 10
213.148688
 20
267.712958
 11
147.848686
 21
267.712958
  0
TEXT
  5
5A
100
AcDbEntity
  8
M0
100
AcDbText
 10
148.48202
 20
268.162958
 40
4.5
  1
　ＷＴ－Ｐ２００Ｗ、ＷＴ－Ｋ２００Ｗ　
 41
0.62963
  7
STANDARD
100
AcDbText
  0
LINE
  5
5B
100
AcDbEntity
  8
M0
100
AcDbLine
 10
163.148694
 20
135.745477
 11
163.148696
 21
141.145477
  0
LINE
  5
5C
100
AcDbEntity
  8
M0
100
AcDbLine
 10
163.148696
 20
141.145477
 11
197.848695
 21
141.145477
  0
LINE
  5
5D
100
AcDbEntity
  8
M0
100
AcDbLine
 10
197.848695
 20
141.145477
 11
197.848693
 21
135.745477
  0
LINE
  5
5E
100
AcDbEntity
  8
M0
100
AcDbLine
 10
197.848693
 20
135.745477
 11
163.148694
 21
135.745477
  0
TEXT
  5
5F
100
AcDbEntity
  8
M0
100
AcDbText
 10
163.782027
 20
136.195477
 40
4.5
  1
　ＷＴ－Ｐ３００Ｗ　
 41
0.62963
  7
STANDARD
100
AcDbText
  0
LINE
  5
60
100
AcDbEntity
  8
M0
100
AcDbLine
 10
93.251256
 20
267.19799
 11
63.251256
 21
267.19799
  0
LINE
  5
61
100
AcDbEntity
  8
M0
100
AcDbLine
 10
93.251256
 20
257.19799
 11
93.251256
 21
267.19799
  0
LINE
  5
62
100
AcDbEntity
  8
M0
100
AcDbLine
 10
63.251256
 20
257.19799
 11
93.251256
 21
257.19799
  0
LINE
  5
63
100
AcDbEntity
  8
M0
100
AcDbLine
 10
63.251256
 20
267.19799
 11
63.251256
 21
257.19799
  0
TEXT
  5
64
100
AcDbEntity
  8
M0
100
AcDbText
 10
65.677922
 20
258.69799
 40
7.0
  1
揚水性能
 41
0.780952
  7
STANDARD
100
AcDbText
  0
LINE
  5
65
100
AcDbEntity
  8
M46
 62
   234
100
AcDbLine
 10
128.662312
 20
253.063318
 11
128.662312
 21
179.263317
  0
LINE
  5
66
100
AcDbEntity
  8
M46
 62
   234
100
AcDbLine
 10
211.462313
 20
179.263317
 11
128.662312
 21
179.263317
  0
LINE
  5
67
100
AcDbEntity
  8
M46
 62
   234
100
AcDbLine
 10
146.662312
 20
253.063318
 11
146.662312
 21
179.263317
  0
LINE
  5
68
100
AcDbEntity
  8
M46
 62
   234
100
AcDbLine
 10
164.662312
 20
247.276795
 11
164.662312
 21
179.263317
  0
LINE
  5
69
100
AcDbEntity
  8
M46
 62
   234
100
AcDbLine
 10
182.662312
 20
228.010913
 11
182.662312
 21
179.263317
  0
LINE
  5
6A
100
AcDbEntity
  8
M46
 62
   234
100
AcDbLine
 10
128.662312
 20
197.263317
 11
211.462313
 21
197.263317
  0
LINE
  5
6B
100
AcDbEntity
  8
M46
 62
   234
100
AcDbLine
 10
128.662312
 20
215.263317
 11
196.259803
 21
215.263317
  0
LINE
  5
6C
100
AcDbEntity
  8
M46
 62
   234
100
AcDbLine
 10
128.662312
 20
233.263317
 11
175.462312
 21
233.263317
  0
TEXT
  5
6D
100
AcDbEntity
  8
M46
 62
   234
100
AcDbText
 10
180.626399
 20
174.613241
 40
4.05
  1
３０
 41
0.555556
  7
STANDARD
100
AcDbText
  0
TEXT
  5
6E
100
AcDbEntity
  8
M46
 62
   234
100
AcDbText
 10
162.626402
 20
174.613241
 40
4.05
  1
２０
 41
0.555556
  7
STANDARD
100
AcDbText
  0
TEXT
  5
6F
100
AcDbEntity
  8
M46
 62
   234
100
AcDbText
 10
144.626399
 20
174.613241
 40
4.05
  1
１０
 41
0.555556
  7
STANDARD
100
AcDbText
  0
TEXT
  5
70
100
AcDbEntity
  8
M46
 62
   234
100
AcDbText
 10
127.889503
 20
174.613241
 40
4.05
  1
０
 41
0.555556
  7
STANDARD
100
AcDbText
  0
TEXT
  5
71
100
AcDbEntity
  8
M46
 62
   234
100
AcDbText
 10
125.940528
 20
177.112219
 40
4.05
  1
０
 41
0.555556
  7
STANDARD
100
AcDbText
  0
TEXT
  5
72
100
AcDbEntity
  8
M46
 62
   234
100
AcDbText
 10
122.920716
 20
195.580294
 40
4.05
  1
１０
 41
0.555556
  7
STANDARD
100
AcDbText
  0
TEXT
  5
73
100
AcDbEntity
  8
M46
 62
   234
100
AcDbText
 10
122.920716
 20
213.580292
 40
4.05
  1
２０
 41
0.555556
  7
STANDARD
100
AcDbText
  0
TEXT
  5
74
100
AcDbEntity
  8
M46
 62
   234
100
AcDbText
 10
122.920716
 20
231.580294
 40
4.05
  1
３０
 41
0.555556
  7
STANDARD
100
AcDbText
  0
TEXT
  5
75
100
AcDbEntity
  8
M46
 62
   234
100
AcDbText
 10
155.266236
 20
167.468763
 40
4.5
  1
揚水量（Ｌ／分）
 41
0.777778
  7
STANDARD
100
AcDbText
  0
TEXT
  5
76
100
AcDbEntity
  8
M46
 62
   234
100
AcDbText
 10
113.954651
 20
219.848513
 40
4.0
  1
全
 41
0.9375
  7
STANDARD
100
AcDbText
  0
TEXT
  5
77
100
AcDbEntity
  8
M46
 62
   234
100
AcDbText
 10
113.954651
 20
215.648513
 40
4.0
  1
揚
 41
0.9375
  7
STANDARD
100
AcDbText
  0
TEXT
  5
78
100
AcDbEntity
  8
M46
 62
   234
100
AcDbText
 10
113.954651
 20
211.448513
 40
4.0
  1
程
 41
0.9375
  7
STANDARD
100
AcDbText
  0
TEXT
  5
79
100
AcDbEntity
  8
M46
 62
   234
100
AcDbText
 10
113.954651
 20
207.248513
 40
4.0
  1
　
 41
0.9375
  7
STANDARD
100
AcDbText
  0
TEXT
  5
7A
100
AcDbEntity
  8
M46
 62
   234
100
AcDbText
 10
113.954651
 20
203.048513
 40
4.0
  1
ｍ
 41
0.9375
  7
STANDARD
100
AcDbText
  0
TEXT
  5
7B
100
AcDbEntity
  8
M46
 62
   234
100
AcDbText
 10
118.103333
 20
198.692293
 40
4.5
  1
（　）
 50
90.000003
 41
0.777778
  7
STANDARD
100
AcDbText
  0
LINE
  5
7C
100
AcDbEntity
  8
M46
 62
   234
100
AcDbLine
 10
128.662312
 20
251.263318
 11
155.589086
 21
251.263318
  0
TEXT
  5
7D
100
AcDbEntity
  8
M46
 62
   234
100
AcDbText
 10
122.920716
 20
249.580264
 40
4.05
  1
４０
 41
0.555556
  7
STANDARD
100
AcDbText
  0
LINE
  5
7E
100
AcDbEntity
  8
M46
 62
   234
100
AcDbLine
 10
200.662313
 20
203.535788
 11
200.662313
 21
179.263317
  0
TEXT
  5
7F
100
AcDbEntity
  8
M46
 62
   234
100
AcDbText
 10
198.6264
 20
174.613241
 40
4.05
  1
４０
 41
0.555556
  7
STANDARD
100
AcDbText
  0
LINE
  5
80
100
AcDbEntity
  8
M46
 62
   234
100
AcDbLine
 10
182.662312
 20
226.808096
 11
182.662312
 21
179.263317
  0
LINE
  5
81
100
AcDbEntity
  8
M46
 62
   234
100
AcDbLine
 10
128.662312
 20
215.263317
 11
200.662313
 21
215.263317
  0
TEXT
  5
82
100
AcDbEntity
  8
M46
100
AcDbText
 10
129.474576
 20
161.310861
 40
4.0
  1
※破線部域では５０ｋＰａの圧力変動があります。
 41
0.770833
  7
STANDARD
100
AcDbText
  0
LINE
  5
83
100
AcDbEntity
  8
M46
  6
DASHED
 62
     3
100
AcDbLine
 10
159.549177
 20
242.263318
 11
128.662312
 21
242.263318
  0
LINE
  5
84
100
AcDbEntity
  8
M46
 62
     3
100
AcDbLine
 10
161.961706
 20
241.046491
 11
203.636226
 21
184.663317
  0
ARC
  5
85
100
AcDbEntity
  8
M46
 62
     3
100
AcDbCircle
 10
159.549177
 20
239.263317
 40
3.0
100
AcDbArc
 50
36.469234
 51
90.0
  0
ARC
  5
86
100
AcDbEntity
  8
M46
 62
     3
100
AcDbCircle
 10
170.192656
 20
224.863317
 40
3.0
100
AcDbArc
 50
36.469234
 51
90.0
  0
LINE
  5
87
100
AcDbEntity
  8
M46
 62
     2
100
AcDbLine
 10
179.062312
 20
193.663317
 11
179.062312
 21
222.399356
  0
ARC
  5
88
100
AcDbEntity
  8
M46
 62
     2
100
AcDbCircle
 10
174.562312
 20
222.399356
 40
4.5
100
AcDbArc
 50
0.0
 51
45.0
  0
LINE
  5
89
100
AcDbEntity
  8
M46
 62
     2
100
AcDbLine
 10
167.780332
 20
235.545298
 11
177.744293
 21
225.581337
  0
ARC
  5
8A
100
AcDbEntity
  8
M46
 62
     2
100
AcDbCircle
 10
164.598351
 20
232.363317
 40
4.5
100
AcDbArc
 50
45.0
 51
90.0
  0
LINE
  5
8B
100
AcDbEntity
  8
M46
  6
DASHED
 62
     2
100
AcDbLine
 10
128.662312
 20
236.863317
 11
164.598351
 21
236.863317
  0
LINE
  5
8C
100
AcDbEntity
  8
M46
  6
DASHED
 62
     3
100
AcDbLine
 10
128.662312
 20
227.863317
 11
170.192656
 21
227.863317
  0
LINE
  5
8D
100
AcDbEntity
  8
M46
 62
   234
100
AcDbLine
 10
128.662312
 20
117.583198
 11
128.662312
 21
43.783197
  0
LINE
  5
8E
100
AcDbEntity
  8
M46
 62
   234
100
AcDbLine
 10
211.462313
 20
43.783197
 11
128.662312
 21
43.783197
  0
LINE
  5
8F
100
AcDbEntity
  8
M46
 62
   234
100
AcDbLine
 10
146.662312
 20
117.583198
 11
146.662312
 21
43.783197
  0
LINE
  5
90
100
AcDbEntity
  8
M46
 62
   234
100
AcDbLine
 10
164.662312
 20
111.796676
 11
164.662312
 21
43.783197
  0
LINE
  5
91
100
AcDbEntity
  8
M46
 62
   234
100
AcDbLine
 10
182.662312
 20
92.530794
 11
182.662312
 21
43.783197
  0
LINE
  5
92
100
AcDbEntity
  8
M46
 62
   234
100
AcDbLine
 10
128.662312
 20
61.783197
 11
211.462313
 21
61.783197
  0
LINE
  5
93
100
AcDbEntity
  8
M46
 62
   234
100
AcDbLine
 10
128.662312
 20
79.783198
 11
196.259803
 21
79.783198
  0
LINE
  5
94
100
AcDbEntity
  8
M46
 62
   234
100
AcDbLine
 10
128.662312
 20
97.783198
 11
175.462312
 21
97.783198
  0
TEXT
  5
95
100
AcDbEntity
  8
M46
 62
   234
100
AcDbText
 10
180.626399
 20
39.133122
 40
4.05
  1
３０
 41
0.555556
  7
STANDARD
100
AcDbText
  0
TEXT
  5
96
100
AcDbEntity
  8
M46
 62
   234
100
AcDbText
 10
162.626402
 20
39.133122
 40
4.05
  1
２０
 41
0.555556
  7
STANDARD
100
AcDbText
  0
TEXT
  5
97
100
AcDbEntity
  8
M46
 62
   234
100
AcDbText
 10
144.626399
 20
39.133122
 40
4.05
  1
１０
 41
0.555556
  7
STANDARD
100
AcDbText
  0
TEXT
  5
98
100
AcDbEntity
  8
M46
 62
   234
100
AcDbText
 10
127.889503
 20
39.133122
 40
4.05
  1
０
 41
0.555556
  7
STANDARD
100
AcDbText
  0
TEXT
  5
99
100
AcDbEntity
  8
M46
 62
   234
100
AcDbText
 10
125.940528
 20
41.6321
 40
4.05
  1
０
 41
0.555556
  7
STANDARD
100
AcDbText
  0
TEXT
  5
9A
100
AcDbEntity
  8
M46
 62
   234
100
AcDbText
 10
122.920716
 20
60.100174
 40
4.05
  1
１０
 41
0.555556
  7
STANDARD
100
AcDbText
  0
TEXT
  5
9B
100
AcDbEntity
  8
M46
 62
   234
100
AcDbText
 10
122.920716
 20
78.100173
 40
4.05
  1
２０
 41
0.555556
  7
STANDARD
100
AcDbText
  0
TEXT
  5
9C
100
AcDbEntity
  8
M46
 62
   234
100
AcDbText
 10
122.920716
 20
96.100174
 40
4.05
  1
３０
 41
0.555556
  7
STANDARD
100
AcDbText
  0
TEXT
  5
9D
100
AcDbEntity
  8
M46
 62
   234
100
AcDbText
 10
155.266236
 20
31.988644
 40
4.5
  1
揚水量（Ｌ／分）
 41
0.777778
  7
STANDARD
100
AcDbText
  0
TEXT
  5
9E
100
AcDbEntity
  8
M46
 62
   234
100
AcDbText
 10
113.954651
 20
86.033667
 40
4.0
  1
全
 41
0.9375
  7
STANDARD
100
AcDbText
  0
TEXT
  5
9F
100
AcDbEntity
  8
M46
 62
   234
100
AcDbText
 10
113.954651
 20
81.833667
 40
4.0
  1
揚
 41
0.9375
  7
STANDARD
100
AcDbText
  0
TEXT
  5
A0
100
AcDbEntity
  8
M46
 62
   234
100
AcDbText
 10
113.954651
 20
77.633667
 40
4.0
  1
程
 41
0.9375
  7
STANDARD
100
AcDbText
  0
TEXT
  5
A1
100
AcDbEntity
  8
M46
 62
   234
100
AcDbText
 10
113.954651
 20
73.433667
 40
4.0
  1
　
 41
0.9375
  7
STANDARD
100
AcDbText
  0
TEXT
  5
A2
100
AcDbEntity
  8
M46
 62
   234
100
AcDbText
 10
113.954651
 20
69.233667
 40
4.0
  1
ｍ
 41
0.9375
  7
STANDARD
100
AcDbText
  0
TEXT
  5
A3
100
AcDbEntity
  8
M46
 62
   234
100
AcDbText
 10
118.103333
 20
64.877449
 40
4.5
  1
（　）
 50
90.000003
 41
0.777778
  7
STANDARD
100
AcDbText
  0
LINE
  5
A4
100
AcDbEntity
  8
M46
 62
   234
100
AcDbLine
 10
128.662312
 20
115.783198
 11
155.589086
 21
115.783198
  0
TEXT
  5
A5
100
AcDbEntity
  8
M46
 62
   234
100
AcDbText
 10
122.920716
 20
114.100144
 40
4.05
  1
４０
 41
0.555556
  7
STANDARD
100
AcDbText
  0
LINE
  5
A6
100
AcDbEntity
  8
M46
 62
   234
100
AcDbLine
 10
200.662313
 20
68.055668
 11
200.662313
 21
43.783197
  0
TEXT
  5
A7
100
AcDbEntity
  8
M46
 62
   234
100
AcDbText
 10
198.6264
 20
39.133122
 40
4.05
  1
４０
 41
0.555556
  7
STANDARD
100
AcDbText
  0
LINE
  5
A8
100
AcDbEntity
  8
M46
 62
   234
100
AcDbLine
 10
182.662312
 20
91.327976
 11
182.662312
 21
43.783197
  0
LINE
  5
A9
100
AcDbEntity
  8
M46
 62
   234
100
AcDbLine
 10
128.662312
 20
79.783198
 11
200.662313
 21
79.783198
  0
TEXT
  5
AA
100
AcDbEntity
  8
M46
100
AcDbText
 10
129.474576
 20
25.386158
 40
4.0
  1
※破線部域では５０ｋＰａの圧力変動があります。
 41
0.770833
  7
STANDARD
100
AcDbText
  0
ARC
  5
AB
100
AcDbEntity
  8
M46
 62
     1
100
AcDbCircle
 10
151.166265
 20
95.083198
 40
4.5
100
AcDbArc
 50
57.622298
 51
90.0
  0
LINE
  5
AC
100
AcDbEntity
  8
M46
  6
DASHED
 62
     1
100
AcDbLine
 10
128.662312
 20
99.583198
 11
151.277502
 21
99.583198
  0
LINE
  5
AD
100
AcDbEntity
  8
M46
 62
     1
100
AcDbLine
 10
153.576007
 20
98.883612
 11
162.461737
 21
92.6636
  0
LINE
  5
AE
100
AcDbEntity
  8
M46
 62
     1
100
AcDbLine
 10
179.928406
 20
77.023714
 11
163.225756
 21
92.056098
  0
LINE
  5
AF
100
AcDbEntity
  8
M46
 62
     1
100
AcDbLine
 10
181.559261
 20
75.137774
 11
187.993244
 21
65.486801
  0
ARC
  5
B0
100
AcDbEntity
  8
M46
 62
     1
100
AcDbCircle
 10
157.874038
 20
86.109745
 40
8.0
100
AcDbArc
 50
48.012788
 51
55.00798
  0
ARC
  5
B1
100
AcDbEntity
  8
M46
 62
     1
100
AcDbCircle
 10
173.238758
 20
69.590772
 40
10.0
100
AcDbArc
 50
33.690068
 51
48.012788
  0
ARC
  5
B2
100
AcDbEntity
  8
M46
 62
     1
100
AcDbCircle
 10
186.329143
 20
64.3774
 40
2.0
100
AcDbArc
 50
26.565051
 51
33.690068
  0
LINE
  5
B3
100
AcDbEntity
  8
M46
 62
     1
100
AcDbLine
 10
189.491829
 20
62.524165
 11
188.117997
 21
65.271827
  0
ARC
  5
B4
100
AcDbEntity
  8
M46
 62
     1
100
AcDbCircle
 10
187.702974
 20
61.629738
 40
2.0
100
AcDbArc
 50
341.565051
 51
386.565051
  0
LINE
  5
B5
100
AcDbEntity
  8
M46
 62
     1
100
AcDbLine
 10
188.062312
 20
56.383197
 11
189.600341
 21
60.997282
  0
LINE
  5
B6
100
AcDbEntity
  8
M46
  6
DASHED
 62
     2
100
AcDbLine
 10
149.550793
 20
106.783198
 11
128.662312
 21
106.783198
  0
LINE
  5
B7
100
AcDbEntity
  8
M46
 62
     2
100
AcDbLine
 10
151.505499
 20
106.058967
 11
198.153234
 21
65.99224
  0
ARC
  5
B8
100
AcDbEntity
  8
M46
 62
     2
100
AcDbCircle
 10
191.637547
 20
58.406343
 40
10.0
100
AcDbArc
 50
38.659808
 51
49.340021
  0
LINE
  5
B9
100
AcDbEntity
  8
M46
 62
     2
100
AcDbLine
 10
211.822313
 20
49.183197
 11
199.446235
 21
64.653294
  0
ARC
  5
BA
100
AcDbEntity
  8
M46
 62
     2
100
AcDbCircle
 10
149.550793
 20
103.783198
 40
3.0
100
AcDbArc
 50
49.340021
 51
90.0
  0
ARC
  5
BB
100
AcDbEntity
  8
M46
 62
     2
100
AcDbCircle
 10
166.31601
 20
89.383198
 40
3.0
100
AcDbArc
 50
49.340021
 51
90.0
  0
LINE
  5
BC
100
AcDbEntity
  8
M46
  6
DASHED
 62
     2
100
AcDbLine
 10
128.662312
 20
92.383198
 11
166.31601
 21
92.383198
  0
ENDSEC
  0
SECTION
  2
OBJECTS
  0
DICTIONARY
  5
C
100
AcDbDictionary
  3
ACAD_GROUP
350
D
  3
ACAD_MLINESTYLE
350
E
  0
DICTIONARY
  5
D
102
{ACAD_REACTORS
330
C
102
}
100
AcDbDictionary
  0
DICTIONARY
  5
E
102
{ACAD_REACTORS
330
C
102
}
100
AcDbDictionary
  3
STANDARD
350
13
  0
MLINESTYLE
  5
13
102
{ACAD_REACTORS
330
E
102
}
100
AcDbMlineStyle
  2
STANDARD
 70
     0
  3

 62
     0
 51
90.0
 52
90.0
 71
     2
 49
0.5
 62
   256
  6
BYLAYER
 49
-0.5
 62
   256
  6
BYLAYER
  0
ENDSEC
  0
EOF
